  0
SECTION
  2
HEADER
  9
$ACADVER
  1
AC1009
  9
$DWGCODEPAGE
  3
dos932
  9
$INSBASE
 10
0.0
 20
0.0
 30
0.0
  9
$EXTMIN
 10
-548.80827192544166
 20
-433.22752734323512
 30
-0.0015258207003583
  9
$EXTMAX
 10
1261.6699337163809
 20
682.84607746503934
 30
0.0000000349246037
  9
$LIMMIN
 10
-2970.0
 20
-2100.0
  9
$LIMMAX
 10
2970.0
 20
2100.0
  9
$ORTHOMODE
 70
     1
  9
$REGENMODE
 70
     1
  9
$FILLMODE
 70
     1
  9
$QTEXTMODE
 70
     0
  9
$MIRRTEXT
 70
     0
  9
$LTSCALE
 40
20.0
  9
$ATTMODE
 70
     1
  9
$TEXTSIZE
 40
64.0
  9
$TRACEWID
 40
0.05
  9
$TEXTSTYLE
  7
STANDARD
  9
$CLAYER
  8
SIZE
  9
$CELTYPE
  6
CONTINUOUS
  9
$CECOLOR
 62
     7
  9
$DIMSCALE
 40
1.0
  9
$DIMASZ
 40
12.0
  9
$DIMEXO
 40
20.0
  9
$DIMDLI
 40
200.0
  9
$DIMRND
 40
0.0
  9
$DIMDLE
 40
0.0
  9
$DIMEXE
 40
20.0
  9
$DIMTP
 40
0.0
  9
$DIMTM
 40
0.0
  9
$DIMTXT
 40
64.0
  9
$DIMCEN
 40
0.09
  9
$DIMTSZ
 40
0.0
  9
$DIMTOL
 70
     0
  9
$DIMLIM
 70
     0
  9
$DIMTIH
 70
     0
  9
$DIMTOH
 70
     0
  9
$DIMSE1
 70
     0
  9
$DIMSE2
 70
     0
  9
$DIMTAD
 70
     1
  9
$DIMZIN
 70
     8
  9
$DIMBLK
  1

  9
$DIMASO
 70
     1
  9
$DIMSHO
 70
     0
  9
$DIMPOST
  1

  9
$DIMAPOST
  1

  9
$DIMALT
 70
     0
  9
$DIMALTD
 70
     2
  9
$DIMALTF
 40
25.399999999999999
  9
$DIMLFAC
 40
1.0
  9
$DIMTOFL
 70
     1
  9
$DIMTVP
 40
0.0
  9
$DIMTIX
 70
     1
  9
$DIMSOXD
 70
     0
  9
$DIMSAH
 70
     0
  9
$DIMBLK1
  1

  9
$DIMBLK2
  1

  9
$DIMSTYLE
  2
STANDARD
  9
$DIMCLRD
 70
     7
  9
$DIMCLRE
 70
     7
  9
$DIMCLRT
 70
     7
  9
$DIMTFAC
 40
1.0
  9
$DIMGAP
 40
25.0
  9
$LUNITS
 70
     2
  9
$LUPREC
 70
     4
  9
$SKETCHINC
 40
0.1
  9
$FILLETRAD
 40
3.0
  9
$AUNITS
 70
     1
  9
$AUPREC
 70
     3
  9
$MENU
  1
ACAD
  9
$ELEVATION
 40
0.0
  9
$PELEVATION
 40
0.0
  9
$THICKNESS
 40
0.0
  9
$LIMCHECK
 70
     0
  9
$CHAMFERA
 40
0.0
  9
$CHAMFERB
 40
0.0
  9
$SKPOLY
 70
     0
  9
$TDCREATE
 40
2453019.62301037
  9
$TDUPDATE
 40
2459025.499931864
  9
$TDINDWG
 40
1.7130715394
  9
$TDUSRTIMER
 40
1.7130715394
  9
$USRTIMER
 70
     1
  9
$ANGBASE
 50
0.0
  9
$ANGDIR
 70
     0
  9
$PDMODE
 70
     3
  9
$PDSIZE
 40
-2.0
  9
$PLINEWID
 40
0.0
  9
$SPLFRAME
 70
     0
  9
$SPLINETYPE
 70
     6
  9
$SPLINESEGS
 70
     8
  9
$SURFTAB1
 70
     6
  9
$SURFTAB2
 70
     6
  9
$SURFTYPE
 70
     6
  9
$SURFU
 70
     6
  9
$SURFV
 70
     6
  9
$UCSNAME
  2

  9
$UCSORG
 10
0.0
 20
0.0
 30
0.0
  9
$UCSXDIR
 10
1.0
 20
0.0
 30
0.0
  9
$UCSYDIR
 10
0.0
 20
1.0
 30
0.0
  9
$PUCSNAME
  2

  9
$PUCSORG
 10
0.0
 20
0.0
 30
0.0
  9
$PUCSXDIR
 10
1.0
 20
0.0
 30
0.0
  9
$PUCSYDIR
 10
0.0
 20
1.0
 30
0.0
  9
$USERI1
 70
     0
  9
$USERI2
 70
     0
  9
$USERI3
 70
     0
  9
$USERI4
 70
     0
  9
$USERI5
 70
     0
  9
$USERR1
 40
20.0
  9
$USERR2
 40
0.0
  9
$USERR3
 40
0.0
  9
$USERR4
 40
0.0
  9
$USERR5
 40
0.0
  9
$WORLDVIEW
 70
     1
  9
$SHADEDGE
 70
     3
  9
$SHADEDIF
 70
    70
  9
$TILEMODE
 70
     1
  9
$MAXACTVP
 70
    48
  9
$PINSBASE
 10
0.0
 20
0.0
 30
0.0
  9
$PLIMCHECK
 70
     0
  9
$PEXTMIN
 10
-100000000000000000000.0
 20
-100000000000000000000.0
 30
-100000000000000000000.0
  9
$PEXTMAX
 10
100000000000000000000.0
 20
100000000000000000000.0
 30
100000000000000000000.0
  9
$PLIMMIN
 10
0.0
 20
0.0
  9
$PLIMMAX
 10
12.0
 20
9.0
  9
$UNITMODE
 70
     0
  9
$VISRETAIN
 70
     0
  9
$PLINEGEN
 70
     0
  9
$PSLTSCALE
 70
     0
  9
$TREEDEPTH
 70
  3020
  9
$ATTDIA
 70
     0
  9
$ATTREQ
 70
     1
  9
$BLIPMODE
 70
     1
  9
$COORDS
 70
     1
  9
$DRAGMODE
 70
     2
  9
$OSMODE
 70
     0
  9
$HANDLING
 70
     0
  9
$HANDSEED
  5
EF7E
  0
ENDSEC
  0
SECTION
  2
TABLES
  0
TABLE
  2
LTYPE
 70
     2
  0
LTYPE
  2
CONTINUOUS
 70
     0
  3
実線
 72
    65
 73
     0
 40
0.0
  0
LTYPE
  2
DASHDOT
 70
     0
  3
____ _ ____ _ ____ _ ____ _ ____ _ ____ _ ____
 72
    65
 73
     4
 40
5.5
 49
4.0
 49
-0.6
 49
0.3
 49
-0.6
  0
ENDTAB
  0
TABLE
  2
LAYER
 70
    12
  0
LAYER
  2
0
 70
     0
 62
     7
  6
CONTINUOUS
  0
LAYER
  2
BASIS
 70
     0
 62
     6
  6
DASHDOT
  0
LAYER
  2
OUTLINE
 70
     0
 62
     3
  6
CONTINUOUS
  0
LAYER
  2
DETAIL
 70
     0
 62
     5
  6
CONTINUOUS
  0
LAYER
  2
SIZE
 70
     0
 62
    30
  6
CONTINUOUS
  0
LAYER
  2
ARRANGE
 70
     0
 62
     1
  6
CONTINUOUS
  0
LAYER
  2
DEFPOINTS
 70
     0
 62
     7
  6
CONTINUOUS
  0
LAYER
  2
ETC
 70
     0
 62
    61
  6
CONTINUOUS
  0
LAYER
  2
FIX
 70
     0
 62
    11
  6
CONTINUOUS
  0
LAYER
  2
NOTE
 70
     0
 62
     4
  6
CONTINUOUS
  0
LAYER
  2
SERVICESPACE
 70
    64
 62
     2
  6
DASHDOT
  0
LAYER
  2
SYMBOLLINE
 70
    64
 62
    15
  6
CONTINUOUS
  0
ENDTAB
  0
TABLE
  2
STYLE
 70
     1
  0
STYLE
  2
STANDARD
 70
     0
 40
64.0
 41
0.9
 50
0.0
 71
     0
 42
64.0
  3
SIMPLEX.shx
  4
BIGFONT.shx
  0
ENDTAB
  0
TABLE
  2
APPID
 70
    19
  0
APPID
  2
ACAD
 70
     0
  0
APPID
  2
AUTOCAD_POSTSCRIPT_FIGURE
 70
     0
  0
APPID
  2
ACAD_EXEMPT_FROM_CAD_STANDARDS
 70
     0
  0
APPID
  2
ACAD_PSEXT
 70
     0
  0
APPID
  2
ACAUTHENVIRON
 70
     0
  0
APPID
  2
GENIUS_GENOENT_13
 70
     0
  0
APPID
  2
GENIUS_GENCFG_13
 70
     0
  0
APPID
  2
GENIUS_GENCFG0_13
 70
     0
  0
APPID
  2
GENIUS_GENCFG1_13
 70
     0
  0
APPID
  2
GENIUS_GENCFG2_13
 70
     0
  0
APPID
  2
GENIUS_GENCFG3_13
 70
     0
  0
APPID
  2
GENIUS_GENCFG4_13
 70
     0
  0
APPID
  2
GENIUS_GEVCFG0_13
 70
     0
  0
APPID
  2
CONTENTBLOCKICON
 70
     0
  0
APPID
  2
CONTENTBLOCKDESCRIPTION
 70
     0
  0
APPID
  2
ACAD_NAV_VCDISPLAY
 70
     0
  0
APPID
  2
ACAD_MLEADERVER
 70
     0
  0
APPID
  2
ACDBDYNAMICBLOCKTRUENAME
 70
     0
  0
APPID
  2
ACDBDYNAMICBLOCKGUID
 70
     0
  0
ENDTAB
  0
TABLE
  2
DIMSTYLE
 70
     1
  0
DIMSTYLE
  2
STANDARD
 70
     0
  3

  4

  5
_ORIGIN
  6

  7

 40
1.0
 41
12.0
 42
20.0
 43
200.0
 44
20.0
 45
0.0
 46
0.0
 47
0.0
 48
0.0
140
64.0
141
0.09
142
0.0
143
25.399999999999999
144
1.0
145
0.0
146
1.0
147
25.0
 71
     0
 72
     0
 73
     0
 74
     0
 75
     0
 76
     0
 77
     1
 78
     8
170
     0
171
     2
172
     1
173
     0
174
     1
175
     0
176
     7
177
     7
178
     7
  0
ENDTAB
  0
TABLE
  2
VIEW
 70
     1
  0
VIEW
  2
ALL
 70
     0
 40
4282.6198079999986
 10
0.0
 20
41.309904000000003
 41
5940.0
 11
0.0
 21
0.0
 31
1.0
 12
0.0
 22
0.0
 32
0.0
 42
50.0
 43
0.0
 44
0.0
 50
0.0
 71
     0
  0
ENDTAB
  0
TABLE
  2
UCS
 70
     0
  0
ENDTAB
  0
TABLE
  2
VPORT
 70
     1
  0
VPORT
  2
*ACTIVE
 70
     0
 10
0.0
 20
0.0
 11
1.0
 21
1.0
 12
356.43083089546963
 22
124.80927506090219
 13
0.0
 23
0.0
 14
1.0
 24
1.0
 15
0.0
 25
0.0
 16
0.0
 26
0.0
 36
1.0
 17
0.0
 27
0.0
 37
0.0
 40
1123.472987823578
 41
1.747787610619469
 42
50.0
 43
0.0
 44
0.0
 50
0.0
 51
0.0
 71
     0
 72
  1000
 73
     1
 74
     3
 75
     0
 76
     0
 77
     0
 78
     0
  0
ENDTAB
  0
ENDSEC
  0
SECTION
  2
BLOCKS
  0
BLOCK
  8
0
  2
_ORIGIN
 70
     0
 10
0.0
 20
0.0
 30
0.0
  3
_ORIGIN
  1
_ORIGIN
  0
CIRCLE
  8
0
  6
CONTINUOUS
 62
     7
 10
0.0
 20
0.0
 30
0.0
 40
0.5
  0
LINE
  8
0
  6
CONTINUOUS
 62
     7
 10
0.0
 20
0.0
 30
0.0
 11
-1.0
 21
0.0
 31
0.0
  0
ENDBLK
  8
0
  0
ENDSEC
  0
SECTION
  2
ENTITIES
  0
CIRCLE
  8
ARRANGE
  6
CONTINUOUS
 62
     1
 10
0.0
 20
0.0
 30
0.0
 40
40.0
  0
POINT
  8
ARRANGE
  6
CONTINUOUS
 62
     1
 10
0.0
 20
0.0
 30
0.0
 50
90.0
  0
LINE
  8
NOTE
  6
CONTINUOUS
 62
     4
 10
90.0
 20
165.39538999999999
 30
0.0
 11
90.0
 21
196.22637900000001
 31
0.0
  0
LINE
  8
DETAIL
  6
CONTINUOUS
 62
     5
 10
-82.000000000000114
 20
182.69999999999999
 30
0.0
 11
-82.000000000000114
 21
192.5
 31
0.0
  0
LINE
  8
DETAIL
  6
CONTINUOUS
 62
     5
 10
-76.40100300000006
 20
182.69999999999999
 30
0.0
 11
-80.030154000000039
 21
192.67101
 31
0.0
  0
LINE
  8
DETAIL
  6
CONTINUOUS
 62
     5
 10
-80.000000000000114
 20
182.69999999999999
 30
0.0
 11
-80.000000000000114
 21
192.5
 31
0.0
  0
ARC
  8
DETAIL
  6
CONTINUOUS
 62
     5
 10
-80.500000000000114
 20
192.5
 30
0.0
 40
0.5
 50
0.0
 51
90.0
  0
LINE
  8
DETAIL
  6
CONTINUOUS
 62
     5
 10
-81.500000000000114
 20
193.0
 30
0.0
 11
-80.500000000000114
 21
193.0
 31
0.0
  0
ARC
  8
DETAIL
  6
CONTINUOUS
 62
     5
 10
-81.500000000000114
 20
192.5
 30
0.0
 40
0.5
 50
90.0
 51
180.0
  0
LINE
  8
DETAIL
  6
CONTINUOUS
 62
     5
 10
-98.000000000000114
 20
182.69999999999999
 30
0.0
 11
-98.000000000000114
 21
192.5
 31
0.0
  0
LINE
  8
DETAIL
  6
CONTINUOUS
 62
     5
 10
-103.59899800000019
 20
182.69999999999999
 30
0.0
 11
-99.969846999999959
 21
192.67101
 31
0.0
  0
LINE
  8
DETAIL
  6
CONTINUOUS
 62
     5
 10
-100.0000000000001
 20
182.69999999999999
 30
0.0
 11
-100.0000000000001
 21
192.5
 31
0.0
  0
ARC
  8
DETAIL
  6
CONTINUOUS
 62
     5
 10
-99.500000000000114
 20
192.5
 30
0.0
 40
0.5
 50
90.0
 51
180.0
  0
LINE
  8
DETAIL
  6
CONTINUOUS
 62
     5
 10
-98.500000000000114
 20
193.0
 30
0.0
 11
-99.500000000000114
 21
193.0
 31
0.0
  0
ARC
  8
DETAIL
  6
CONTINUOUS
 62
     5
 10
-98.500000000000114
 20
192.5
 30
0.0
 40
0.5
 50
0.0
 51
90.0
  0
ARC
  8
DETAIL
  6
CONTINUOUS
 62
     5
 10
54.500000999999877
 20
193.65039999999999
 30
0.0
 40
5.5
 50
0.0
 51
90.0
  0
ARC
  8
DETAIL
  6
CONTINUOUS
 62
     5
 10
-16.000002000000109
 20
193.65039999999999
 30
0.0
 40
5.5
 50
90.0
 51
180.0
  0
LINE
  8
DETAIL
  6
CONTINUOUS
 62
     5
 10
-16.000002000000109
 20
199.15039999999999
 30
0.0
 11
54.500000999999877
 21
199.15039999999999
 31
0.0
  0
LINE
  8
DETAIL
  6
CONTINUOUS
 62
     5
 10
-21.500002000000109
 20
193.65039999999999
 30
0.0
 11
-21.500002000000109
 21
182.69999999999999
 31
0.0
  0
LINE
  8
DETAIL
  6
CONTINUOUS
 62
     5
 10
-65.000000000000114
 20
67.399999999999977
 30
0.0
 11
-65.000000000000114
 21
146.23471599999991
 31
0.0
  0
ARC
  8
DETAIL
  6
CONTINUOUS
 62
     5
 10
-48.000000000000107
 20
146.23471599999991
 30
0.0
 40
17.0
 50
93.641144999999398
 51
180.0
  0
LINE
  8
DETAIL
  6
CONTINUOUS
 62
     5
 10
-49.079623000000197
 20
163.2003999999998
 30
0.0
 11
0.0
 21
163.2003999999998
 31
0.0
  0
LINE
  8
DETAIL
  6
CONTINUOUS
 62
     5
 10
0.0
 20
182.69999999999999
 30
0.0
 11
-119.0000000000001
 21
182.69999999999999
 31
0.0
  0
LINE
  8
DETAIL
  6
CONTINUOUS
 62
     5
 10
0.0
 20
52.399999999999977
 30
0.0
 11
-50.000000000000107
 21
52.399999999999977
 31
0.0
  0
ARC
  8
DETAIL
  6
CONTINUOUS
 62
     5
 10
-50.000000000000107
 20
67.399999999999977
 30
0.0
 40
15.0
 50
180.0
 51
270.0
  0
ARC
  8
DETAIL
  6
CONTINUOUS
 62
     5
 10
0.0
 20
109.0004
 30
0.0
 40
48.899999999999999
 50
90.0
 51
270.0
  0
ARC
  8
DETAIL
  6
CONTINUOUS
 62
     5
 10
0.0
 20
109.0004
 30
0.0
 40
52.813999999999993
 50
90.0
 51
270.0
  0
ARC
  8
DETAIL
  6
CONTINUOUS
 62
     5
 10
0.0
 20
109.0004
 30
0.0
 40
46.899999999999999
 50
90.0
 51
270.0
  0
LINE
  8
DETAIL
  6
CONTINUOUS
 62
     5
 10
-124.166859
 20
175.69999999999999
 30
0.0
 11
0.0
 21
175.69999999999999
 31
0.0
  0
LINE
  8
DETAIL
  6
CONTINUOUS
 62
     5
 10
-124.13207700000009
 20
177.783458
 30
0.0
 11
-127.10000000000009
 21
0.0
 31
0.0
  0
ARC
  8
DETAIL
  6
CONTINUOUS
 62
     5
 10
-119.1327740000002
 20
177.69999999999999
 30
0.0
 40
5.0
 50
90.0
 51
179.0435910000015
  0
LINE
  8
BASIS
  6
DASHDOT
 62
     6
 10
0.0
 20
-25.687899000000019
 30
0.0
 11
0.0
 21
214.96338700000001
 31
0.0
  0
LINE
  8
DETAIL
  6
CONTINUOUS
 62
     5
 10
82.0
 20
182.69999999999999
 30
0.0
 11
82.0
 21
192.5
 31
0.0
  0
LINE
  8
DETAIL
  6
CONTINUOUS
 62
     5
 10
76.401002000000062
 20
182.69999999999999
 30
0.0
 11
80.030152999999927
 21
192.67101
 31
0.0
  0
LINE
  8
DETAIL
  6
CONTINUOUS
 62
     5
 10
80.0
 20
182.69999999999999
 30
0.0
 11
80.0
 21
192.5
 31
0.0
  0
ARC
  8
DETAIL
  6
CONTINUOUS
 62
     5
 10
80.5
 20
192.5
 30
0.0
 40
0.5
 50
90.0
 51
180.0
  0
LINE
  8
DETAIL
  6
CONTINUOUS
 62
     5
 10
81.5
 20
193.0
 30
0.0
 11
80.5
 21
193.0
 31
0.0
  0
ARC
  8
DETAIL
  6
CONTINUOUS
 62
     5
 10
81.5
 20
192.5
 30
0.0
 40
0.5
 50
0.0
 51
90.0
  0
LINE
  8
DETAIL
  6
CONTINUOUS
 62
     5
 10
98.0
 20
182.69999999999999
 30
0.0
 11
98.0
 21
192.5
 31
0.0
  0
LINE
  8
DETAIL
  6
CONTINUOUS
 62
     5
 10
103.5989970000001
 20
182.69999999999999
 30
0.0
 11
99.969845999999961
 21
192.67101
 31
0.0
  0
LINE
  8
DETAIL
  6
CONTINUOUS
 62
     5
 10
100.0
 20
182.69999999999999
 30
0.0
 11
100.0
 21
192.5
 31
0.0
  0
ARC
  8
DETAIL
  6
CONTINUOUS
 62
     5
 10
99.5
 20
192.5
 30
0.0
 40
0.5
 50
0.0
 51
90.0
  0
LINE
  8
DETAIL
  6
CONTINUOUS
 62
     5
 10
98.5
 20
193.0
 30
0.0
 11
99.5
 21
193.0
 31
0.0
  0
ARC
  8
DETAIL
  6
CONTINUOUS
 62
     5
 10
98.5
 20
192.5
 30
0.0
 40
0.5
 50
90.0
 51
180.0
  0
LINE
  8
DETAIL
  6
CONTINUOUS
 62
     5
 10
65.0
 20
67.399999999999977
 30
0.0
 11
65.0
 21
146.23471599999991
 31
0.0
  0
ARC
  8
DETAIL
  6
CONTINUOUS
 62
     5
 10
48.0
 20
146.23471599999991
 30
0.0
 40
17.0
 50
0.0
 51
86.358855000000617
  0
LINE
  8
DETAIL
  6
CONTINUOUS
 62
     5
 10
49.079621999999972
 20
163.2003999999998
 30
0.0
 11
0.0
 21
163.2003999999998
 31
0.0
  0
LINE
  8
DETAIL
  6
CONTINUOUS
 62
     5
 10
0.0
 20
182.69999999999999
 30
0.0
 11
119.0
 21
182.69999999999999
 31
0.0
  0
LINE
  8
DETAIL
  6
CONTINUOUS
 62
     5
 10
0.0
 20
52.399999999999977
 30
0.0
 11
50.0
 21
52.399999999999977
 31
0.0
  0
ARC
  8
DETAIL
  6
CONTINUOUS
 62
     5
 10
50.0
 20
67.399999999999977
 30
0.0
 40
15.0
 50
270.0
 51
0.0
  0
ARC
  8
DETAIL
  6
CONTINUOUS
 62
     5
 10
0.0
 20
109.0004
 30
0.0
 40
48.899999999999999
 50
270.0
 51
90.0
  0
ARC
  8
DETAIL
  6
CONTINUOUS
 62
     5
 10
0.0
 20
109.0004
 30
0.0
 40
52.813999999999993
 50
270.0
 51
90.0
  0
ARC
  8
DETAIL
  6
CONTINUOUS
 62
     5
 10
0.0
 20
109.0004
 30
0.0
 40
46.899999999999999
 50
270.0
 51
90.0
  0
LINE
  8
DETAIL
  6
CONTINUOUS
 62
     5
 10
124.166858
 20
175.69999999999999
 30
0.0
 11
0.0
 21
175.69999999999999
 31
0.0
  0
LINE
  8
DETAIL
  6
CONTINUOUS
 62
     5
 10
124.1320759999999
 20
177.783458
 30
0.0
 11
127.09999999999989
 21
0.0
 31
0.0
  0
ARC
  8
DETAIL
  6
CONTINUOUS
 62
     5
 10
119.1327729999998
 20
177.69999999999999
 30
0.0
 40
5.0
 50
0.9564089999985347
 51
90.0
  0
LINE
  8
DETAIL
  6
CONTINUOUS
 62
     5
 10
60.000000999999877
 20
193.65039999999999
 30
0.0
 11
60.000000999999877
 21
182.69999999999999
 31
0.0
  0
LINE
  8
BASIS
  6
DASHDOT
 62
     6
 10
57.813999999999851
 20
109.0004
 30
0.0
 11
-57.814000000000078
 21
109.0004
 31
0.0
  0
LINE
  8
NOTE
  6
CONTINUOUS
 62
     4
 10
-141.50000000000011
 20
-5.7813559999999597
 30
0.0
 11
-141.50000000000011
 21
7.5422020000000316
 31
0.0
  0
LINE
  8
NOTE
  6
CONTINUOUS
 62
     4
 10
-85.000000000000114
 20
-6.9834819999999809
 30
0.0
 11
-85.000000000000114
 21
6.5404300000000148
 31
0.0
  0
LINE
  8
NOTE
  6
CONTINUOUS
 62
     4
 10
85.0
 20
-6.9834819999999809
 30
0.0
 11
85.0
 21
6.5404300000000148
 31
0.0
  0
LINE
  8
NOTE
  6
CONTINUOUS
 62
     4
 10
141.5
 20
-5.7813559999999597
 30
0.0
 11
141.5
 21
7.5422020000000316
 31
0.0
  0
LINE
  8
DETAIL
  6
CONTINUOUS
 62
     5
 10
-152.78214100000011
 20
-4.1570080000000189
 30
0.0
 11
-153.00000000000011
 21
0.0
 31
0.0
  0
ARC
  8
DETAIL
  6
CONTINUOUS
 62
     5
 10
-149.7862520000001
 20
-4.0
 30
0.0
 40
3.0
 50
182.99999999999909
 51
270.0
  0
LINE
  8
DETAIL
  6
CONTINUOUS
 62
     5
 10
153.0
 20
0.0
 30
0.0
 11
-153.00000000000011
 21
0.0
 31
0.0
  0
LINE
  8
DETAIL
  6
CONTINUOUS
 62
     5
 10
-149.7862520000001
 20
-7.0
 30
0.0
 11
149.78625099999999
 21
-7.0
 31
0.0
  0
LINE
  8
DETAIL
  6
CONTINUOUS
 62
     5
 10
152.7821399999998
 20
-4.1570080000000189
 30
0.0
 11
153.0
 21
0.0
 31
0.0
  0
ARC
  8
DETAIL
  6
CONTINUOUS
 62
     5
 10
149.78625099999999
 20
-4.0
 30
0.0
 40
3.0
 50
270.0
 51
357.00000000000091
  0
ARC
  8
OUTLINE
  6
CONTINUOUS
 62
     3
 10
54.500001000000111
 20
193.65039999999999
 30
0.0
 40
5.5
 50
0.0
 51
90.0
  0
ARC
  8
OUTLINE
  6
CONTINUOUS
 62
     3
 10
-16.000001999999991
 20
193.65039999999999
 30
0.0
 40
5.5
 50
90.0
 51
180.0
  0
LINE
  8
OUTLINE
  6
CONTINUOUS
 62
     3
 10
-16.000001999999991
 20
199.15039999999999
 30
0.0
 11
54.500001000000111
 21
199.15039999999999
 31
0.0
  0
LINE
  8
OUTLINE
  6
CONTINUOUS
 62
     3
 10
-21.500001999999991
 20
193.65039999999999
 30
0.0
 11
-21.500001999999991
 21
182.69999999999999
 31
0.0
  0
LINE
  8
OUTLINE
  6
CONTINUOUS
 62
     3
 10
-124.132077
 20
177.78345899999999
 30
0.0
 11
-127.09999999999999
 21
0.0
 31
0.0
  0
ARC
  8
OUTLINE
  6
CONTINUOUS
 62
     3
 10
-119.132774
 20
177.69999999999999
 30
0.0
 40
5.0
 50
90.0
 51
179.0435910000015
  0
LINE
  8
OUTLINE
  6
CONTINUOUS
 62
     3
 10
124.1320760000001
 20
177.78345899999999
 30
0.0
 11
127.09999999999999
 21
0.0
 31
0.0
  0
ARC
  8
OUTLINE
  6
CONTINUOUS
 62
     3
 10
119.132773
 20
177.69999999999999
 30
0.0
 40
5.0
 50
0.9564089999985347
 51
90.0
  0
LINE
  8
OUTLINE
  6
CONTINUOUS
 62
     3
 10
60.000001000000111
 20
193.65039999999999
 30
0.0
 11
60.000001000000111
 21
182.69999999999999
 31
0.0
  0
LINE
  8
OUTLINE
  6
CONTINUOUS
 62
     3
 10
60.000001000000111
 20
182.69999999999999
 30
0.0
 11
119.0
 21
182.69999999999999
 31
0.0
  0
LINE
  8
OUTLINE
  6
CONTINUOUS
 62
     3
 10
-21.500001999999991
 20
182.69999999999999
 30
0.0
 11
-119.0
 21
182.69999999999999
 31
0.0
  0
LINE
  8
OUTLINE
  6
CONTINUOUS
 62
     3
 10
-152.782141
 20
-4.1570080000000189
 30
0.0
 11
-153.0
 21
0.0
 31
0.0
  0
ARC
  8
OUTLINE
  6
CONTINUOUS
 62
     3
 10
-149.78625199999999
 20
-4.0
 30
0.0
 40
3.0
 50
182.99999999999909
 51
270.0
  0
LINE
  8
OUTLINE
  6
CONTINUOUS
 62
     3
 10
-149.78625199999999
 20
-7.0
 30
0.0
 11
149.78625100000011
 21
-7.0
 31
0.0
  0
LINE
  8
OUTLINE
  6
CONTINUOUS
 62
     3
 10
152.78214
 20
-4.1570080000000189
 30
0.0
 11
153.0
 21
0.0
 31
0.0
  0
ARC
  8
OUTLINE
  6
CONTINUOUS
 62
     3
 10
149.78625100000011
 20
-4.0
 30
0.0
 40
3.0
 50
270.0
 51
357.00000000000091
  0
LINE
  8
OUTLINE
  6
CONTINUOUS
 62
     3
 10
153.0
 20
0.0
 30
0.0
 11
127.09999999999999
 21
0.0
 31
0.0
  0
LINE
  8
OUTLINE
  6
CONTINUOUS
 62
     3
 10
-127.09999999999999
 20
0.0
 30
0.0
 11
-153.0
 21
0.0
 31
0.0
  0
CIRCLE
  8
FIX
  6
CONTINUOUS
 62
    11
 10
141.5
 20
0.0
 30
0.0
 40
5.0
  0
CIRCLE
  8
FIX
  6
CONTINUOUS
 62
    11
 10
85.0
 20
0.0
 30
0.0
 40
5.0
  0
CIRCLE
  8
FIX
  6
CONTINUOUS
 62
    11
 10
-85.000000000000114
 20
0.0
 30
0.0
 40
5.0
  0
CIRCLE
  8
FIX
  6
CONTINUOUS
 62
    11
 10
-141.50000000000011
 20
0.0
 30
0.0
 40
5.0
  0
LINE
  8
SIZE
  6
CONTINUOUS
 62
    30
 10
-460.26634045191668
 20
401.16410967659641
 30
0.0
 11
-51.416042348520932
 21
141.63781088406219
 31
0.0
  0
LINE
  8
SIZE
  6
CONTINUOUS
 62
    30
 10
51.416042348520932
 20
76.362989115937808
 30
0.0
 11
61.547282220150692
 21
69.931972192969909
 31
0.0
  0
TEXT
  8
SIZE
  6
CONTINUOUS
 62
    30
 10
-437.80334104392762
 20
416.51663045760739
 30
0.0
 40
64.0
  1
φ98
 50
327.59380542926158
 41
0.9
 72
     1
 11
-364.39527157406178
 21
369.91931926718848
 31
0.0
  0
LINE
  8
SIZE
  6
CONTINUOUS
 62
    30
 10
41.284802476891173
 20
82.794006038905763
 30
0.0
 11
-41.28480247689123
 21
135.20679396109429
 31
0.0
  0
CIRCLE
  8
SIZE
  6
CONTINUOUS
 62
    30
 10
41.284802476891173
 20
82.794006038905763
 30
0.0
 40
6.0
  0
LINE
  8
SIZE
  6
CONTINUOUS
 62
    30
 10
41.284802476891173
 20
82.794006038905763
 30
0.0
 11
51.416042348520932
 21
76.362989115937808
 31
0.0
  0
CIRCLE
  8
SIZE
  6
CONTINUOUS
 62
    30
 10
-41.28480247689123
 20
135.20679396109429
 30
0.0
 40
6.0
  0
LINE
  8
SIZE
  6
CONTINUOUS
 62
    30
 10
-41.28480247689123
 20
135.20679396109429
 30
0.0
 11
-51.416042348520989
 21
141.63781088406219
 31
0.0
  0
POINT
  8
DEFPOINTS
  6
CONTINUOUS
 62
    30
 10
-41.28480247689123
 20
135.20679396109429
 30
0.0
  0
POINT
  8
DEFPOINTS
  6
CONTINUOUS
 62
    30
 10
41.284802476891173
 20
82.794006038905763
 30
0.0
  0
LINE
  8
SIZE
  6
CONTINUOUS
 62
    30
 10
-548.59659534780758
 20
278.74455984687847
 30
0.0
 11
-61.917797834567239
 21
128.15871170321819
 31
0.0
  0
LINE
  8
SIZE
  6
CONTINUOUS
 62
    30
 10
61.917797834567182
 20
89.842088296781867
 30
0.0
 11
73.381579949770867
 21
86.295019138288126
 31
0.0
  0
TEXT
  8
SIZE
  6
CONTINUOUS
 62
    30
 10
-533.56980546800742
 20
300.26441556177531
 30
0.0
 40
64.0
  1
φ105
 50
342.80713446740867
 41
0.9
 72
     1
 11
-429.54417118833118
 21
268.07729656927143
 31
0.0
  0
LINE
  8
SIZE
  6
CONTINUOUS
 62
    30
 10
50.454015719363611
 20
93.389157455275722
 30
0.0
 11
-50.454015719363611
 21
124.6116425447243
 31
0.0
  0
CIRCLE
  8
SIZE
  6
CONTINUOUS
 62
    30
 10
50.454015719363611
 20
93.389157455275722
 30
0.0
 40
6.0
  0
LINE
  8
SIZE
  6
CONTINUOUS
 62
    30
 10
50.454015719363611
 20
93.389157455275722
 30
0.0
 11
61.917797834567182
 21
89.842088296781867
 31
0.0
  0
CIRCLE
  8
SIZE
  6
CONTINUOUS
 62
    30
 10
-50.454015719363611
 20
124.6116425447243
 30
0.0
 40
6.0
  0
LINE
  8
SIZE
  6
CONTINUOUS
 62
    30
 10
-50.454015719363611
 20
124.6116425447243
 30
0.0
 11
-61.917797834567239
 21
128.15871170321819
 31
0.0
  0
POINT
  8
DEFPOINTS
  6
CONTINUOUS
 62
    30
 10
-50.454015719363611
 20
124.6116425447243
 30
0.0
  0
POINT
  8
DEFPOINTS
  6
CONTINUOUS
 62
    30
 10
50.454015719363611
 20
93.389157455275722
 30
0.0
  0
TEXT
  8
NOTE
  6
CONTINUOUS
 62
     4
 10
353.70928235574962
 20
468.95208964034418
 30
0.0
 40
63.999999999999993
  1
EL
 50
359.85073780173718
 41
0.9
  0
LINE
  8
NOTE
  6
CONTINUOUS
 62
     4
 10
447.28754028901182
 20
447.26186594824321
 30
0.0
 11
325.28356933744038
 21
447.51163662717943
 31
0.0
  0
LINE
  8
NOTE
  6
CONTINUOUS
 62
     4
 10
90.000001352853815
 20
182.70000014820079
 30
0.0
 11
325.28356933744038
 21
447.51163662717943
 31
0.0
  0
LINE
  8
NOTE
  6
CONTINUOUS
 62
     4
 10
90.000001352853815
 20
182.70000014820079
 30
0.0
 11
121.3127467004329
 21
205.38342256708441
 31
0.0
  0
LINE
  8
NOTE
  6
CONTINUOUS
 62
     4
 10
108.99527604687729
 20
217.89929648196201
 30
0.0
 11
90.000001352853815
 21
182.70000014820079
 31
0.0
  0
LINE
  8
SIZE
  6
CONTINUOUS
 62
    30
 10
-85.000000000000114
 20
-20.0
 30
0.0
 11
-85.000000000000114
 21
-178.2155835959297
 31
0.0
  0
LINE
  8
SIZE
  6
CONTINUOUS
 62
    30
 10
85.0
 20
-20.0
 30
0.0
 11
85.0
 21
-178.2155835959297
 31
0.0
  0
LINE
  8
SIZE
  6
CONTINUOUS
 62
    30
 10
-97.000000000000114
 20
-158.2155835959297
 30
0.0
 11
-109.0000000000001
 21
-158.2155835959297
 31
0.0
  0
LINE
  8
SIZE
  6
CONTINUOUS
 62
    30
 10
97.0
 20
-158.2155835959297
 30
0.0
 11
109.0
 21
-158.2155835959297
 31
0.0
  0
LINE
  8
SIZE
  6
CONTINUOUS
 62
    30
 10
-85.000000000000114
 20
-158.2155835959297
 30
0.0
 11
85.0
 21
-158.2155835959297
 31
0.0
  0
CIRCLE
  8
SIZE
  6
CONTINUOUS
 62
    30
 10
-85.000000000000114
 20
-158.2155835959297
 30
0.0
 40
6.0
  0
LINE
  8
SIZE
  6
CONTINUOUS
 62
    30
 10
-85.000000000000114
 20
-158.2155835959297
 30
0.0
 11
-97.000000000000114
 21
-158.2155835959297
 31
0.0
  0
CIRCLE
  8
SIZE
  6
CONTINUOUS
 62
    30
 10
85.0
 20
-158.2155835959297
 30
0.0
 40
6.0
  0
LINE
  8
SIZE
  6
CONTINUOUS
 62
    30
 10
85.0
 20
-158.2155835959297
 30
0.0
 11
97.0
 21
-158.2155835959297
 31
0.0
  0
TEXT
  8
SIZE
  6
CONTINUOUS
 62
    30
 10
-68.571428571428683
 20
-133.2155835959297
 30
0.0
 40
64.0
  1
170
 41
0.9
 72
     1
 11
-0.0000000000001137
 21
-133.2155835959297
 31
0.0
  0
POINT
  8
DEFPOINTS
  6
CONTINUOUS
 62
    30
 10
-85.000000000000114
 20
0.0
 30
0.0
  0
POINT
  8
DEFPOINTS
  6
CONTINUOUS
 62
    30
 10
85.0
 20
0.0
 30
0.0
  0
POINT
  8
DEFPOINTS
  6
CONTINUOUS
 62
    30
 10
85.0
 20
-158.2155835959297
 30
0.0
  0
LINE
  8
SIZE
  6
CONTINUOUS
 62
    30
 10
-141.50000000000011
 20
-20.0
 30
0.0
 11
-141.50000000000011
 21
-306.08243859087497
 31
0.0
  0
LINE
  8
SIZE
  6
CONTINUOUS
 62
    30
 10
141.5
 20
-20.0
 30
0.0
 11
141.5
 21
-306.08243859087497
 31
0.0
  0
LINE
  8
SIZE
  6
CONTINUOUS
 62
    30
 10
-129.50000000000011
 20
-286.08243859087497
 30
0.0
 11
129.5
 21
-286.08243859087497
 31
0.0
  0
CIRCLE
  8
SIZE
  6
CONTINUOUS
 62
    30
 10
-141.50000000000011
 20
-286.08243859087497
 30
0.0
 40
6.0
  0
LINE
  8
SIZE
  6
CONTINUOUS
 62
    30
 10
-141.50000000000011
 20
-286.08243859087497
 30
0.0
 11
-129.50000000000011
 21
-286.08243859087497
 31
0.0
  0
CIRCLE
  8
SIZE
  6
CONTINUOUS
 62
    30
 10
141.5
 20
-286.08243859087497
 30
0.0
 40
6.0
  0
LINE
  8
SIZE
  6
CONTINUOUS
 62
    30
 10
141.5
 20
-286.08243859087497
 30
0.0
 11
129.5
 21
-286.08243859087497
 31
0.0
  0
TEXT
  8
SIZE
  6
CONTINUOUS
 62
    30
 10
-74.057142857142949
 20
-261.08243859087497
 30
0.0
 40
64.0
  1
283
 41
0.9
 72
     1
 11
-0.0000000000001137
 21
-261.08243859087497
 31
0.0
  0
POINT
  8
DEFPOINTS
  6
CONTINUOUS
 62
    30
 10
-141.50000000000011
 20
0.0
 30
0.0
  0
POINT
  8
DEFPOINTS
  6
CONTINUOUS
 62
    30
 10
141.5
 20
0.0
 30
0.0
  0
POINT
  8
DEFPOINTS
  6
CONTINUOUS
 62
    30
 10
141.5
 20
-286.08243859087497
 30
0.0
  0
LINE
  8
SIZE
  6
CONTINUOUS
 62
    30
 10
153.0
 20
-20.0
 30
0.0
 11
153.0
 21
-428.29338976152439
 31
0.0
  0
LINE
  8
SIZE
  6
CONTINUOUS
 62
    30
 10
-153.00000000000011
 20
-20.0
 30
0.0
 11
-153.00000000000011
 21
-428.29338976152439
 31
0.0
  0
LINE
  8
SIZE
  6
CONTINUOUS
 62
    30
 10
141.0
 20
-408.29338976152439
 30
0.0
 11
-141.00000000000011
 21
-408.29338976152439
 31
0.0
  0
CIRCLE
  8
SIZE
  6
CONTINUOUS
 62
    30
 10
153.0
 20
-408.29338976152439
 30
0.0
 40
6.0
  0
LINE
  8
SIZE
  6
CONTINUOUS
 62
    30
 10
153.0
 20
-408.29338976152439
 30
0.0
 11
141.0
 21
-408.29338976152439
 31
0.0
  0
CIRCLE
  8
SIZE
  6
CONTINUOUS
 62
    30
 10
-153.00000000000011
 20
-408.29338976152439
 30
0.0
 40
6.0
  0
LINE
  8
SIZE
  6
CONTINUOUS
 62
    30
 10
-153.00000000000011
 20
-408.29338976152439
 30
0.0
 11
-141.00000000000011
 21
-408.29338976152439
 31
0.0
  0
TEXT
  8
SIZE
  6
CONTINUOUS
 62
    30
 10
-72.685714285714397
 20
-383.29338976152439
 30
0.0
 40
64.0
  1
306
 41
0.9
 72
     1
 11
-0.0000000000001137
 21
-383.29338976152439
 31
0.0
  0
POINT
  8
DEFPOINTS
  6
CONTINUOUS
 62
    30
 10
153.0
 20
0.0
 30
0.0
  0
POINT
  8
DEFPOINTS
  6
CONTINUOUS
 62
    30
 10
-153.00000000000011
 20
0.0
 30
0.0
  0
POINT
  8
DEFPOINTS
  6
CONTINUOUS
 62
    30
 10
-153.00000000000011
 20
-408.29338976152439
 30
0.0
  0
LINE
  8
SIZE
  6
CONTINUOUS
 62
    30
 10
70.0
 20
52.399999999999977
 30
0.0
 11
410.65671044620882
 21
52.399999999999856
 31
0.0
  0
LINE
  8
SIZE
  6
CONTINUOUS
 62
    30
 10
137.88920642376161
 20
0.0
 30
0.0
 11
410.65671044620882
 21
-0.0000000000000568
 31
0.0
  0
LINE
  8
SIZE
  6
CONTINUOUS
 62
    30
 10
390.65671044620882
 20
64.399999999999864
 30
0.0
 11
390.65671044620882
 21
76.399999999999864
 31
0.0
  0
LINE
  8
SIZE
  6
CONTINUOUS
 62
    30
 10
390.65671044620882
 20
-12.00000000000006
 30
0.0
 11
390.65671044620882
 21
-169.66179818708329
 31
0.0
  0
LINE
  8
SIZE
  6
CONTINUOUS
 62
    30
 10
390.65671044620882
 20
52.399999999999856
 30
0.0
 11
390.65671044620882
 21
-0.0000000000000568
 31
0.0
  0
CIRCLE
  8
SIZE
  6
CONTINUOUS
 62
    30
 10
390.65671044620882
 20
52.399999999999856
 30
0.0
 40
6.0
  0
LINE
  8
SIZE
  6
CONTINUOUS
 62
    30
 10
390.65671044620882
 20
52.399999999999856
 30
0.0
 11
390.65671044620882
 21
64.399999999999864
 31
0.0
  0
CIRCLE
  8
SIZE
  6
CONTINUOUS
 62
    30
 10
390.65671044620882
 20
-0.0000000000000568
 30
0.0
 40
6.0
  0
LINE
  8
SIZE
  6
CONTINUOUS
 62
    30
 10
390.65671044620882
 20
-0.0000000000000568
 30
0.0
 11
390.65671044620882
 21
-12.00000000000006
 31
0.0
  0
TEXT
  8
SIZE
  6
CONTINUOUS
 62
    30
 10
365.65671044620882
 20
-144.66179818708321
 30
0.0
 40
64.0
  1
52
 50
90.0
 41
0.9
 72
     1
 11
365.65671044620882
 21
-98.033226758511773
 31
0.0
  0
POINT
  8
DEFPOINTS
  6
CONTINUOUS
 62
    30
 10
50.0
 20
52.399999999999977
 30
0.0
  0
POINT
  8
DEFPOINTS
  6
CONTINUOUS
 62
    30
 10
117.88920642376161
 20
0.0
 30
0.0
  0
POINT
  8
DEFPOINTS
  6
CONTINUOUS
 62
    30
 10
390.65671044620882
 20
-0.0000000000000568
 30
0.0
  0
LINE
  8
SIZE
  6
CONTINUOUS
 62
    30
 10
20.0
 20
109.0004
 30
0.0
 11
553.90291027654575
 21
109.0003999999998
 31
0.0
  0
LINE
  8
SIZE
  6
CONTINUOUS
 62
    30
 10
20.0
 20
0.0
 30
0.0
 11
553.90291027654575
 21
-0.0000000000001705
 31
0.0
  0
LINE
  8
SIZE
  6
CONTINUOUS
 62
    30
 10
533.90291027654575
 20
97.0003999999999
 30
0.0
 11
533.90291027654575
 21
11.999999999999829
 31
0.0
  0
LINE
  8
SIZE
  6
CONTINUOUS
 62
    30
 10
533.90291027654575
 20
-0.0000000000001705
 30
0.0
 11
533.90291027654575
 21
-197.8498217932129
 31
0.0
  0
CIRCLE
  8
SIZE
  6
CONTINUOUS
 62
    30
 10
533.90291027654575
 20
109.0003999999999
 30
0.0
 40
6.0
  0
LINE
  8
SIZE
  6
CONTINUOUS
 62
    30
 10
533.90291027654575
 20
109.0003999999999
 30
0.0
 11
533.90291027654575
 21
97.0003999999999
 31
0.0
  0
CIRCLE
  8
SIZE
  6
CONTINUOUS
 62
    30
 10
533.90291027654575
 20
-0.0000000000001705
 30
0.0
 40
6.0
  0
LINE
  8
SIZE
  6
CONTINUOUS
 62
    30
 10
533.90291027654575
 20
-0.0000000000001705
 30
0.0
 11
533.90291027654575
 21
11.999999999999829
 31
0.0
  0
TEXT
  8
SIZE
  6
CONTINUOUS
 62
    30
 10
508.90291027654581
 20
-172.8498217932127
 30
0.0
 40
64.0
  1
109
 50
90.0
 41
0.9
 72
     1
 11
508.90291027654581
 21
-105.64982179321269
 31
0.0
  0
POINT
  8
DEFPOINTS
  6
CONTINUOUS
 62
    30
 10
0.0
 20
109.0004
 30
0.0
  0
POINT
  8
DEFPOINTS
  6
CONTINUOUS
 62
    30
 10
0.0
 20
0.0
 30
0.0
  0
POINT
  8
DEFPOINTS
  6
CONTINUOUS
 62
    30
 10
533.90291027654575
 20
-0.0000000000001705
 30
0.0
  0
LINE
  8
SIZE
  6
CONTINUOUS
 62
    30
 10
-127.10000000000009
 20
20.0
 30
0.0
 11
-127.10000000000009
 21
400.19193847550798
 31
0.0
  0
LINE
  8
SIZE
  6
CONTINUOUS
 62
    30
 10
127.09999999999989
 20
20.0
 30
0.0
 11
127.09999999999989
 21
400.19193847550798
 31
0.0
  0
LINE
  8
SIZE
  6
CONTINUOUS
 62
    30
 10
-139.10000000000011
 20
380.19193847550798
 30
0.0
 11
-151.10000000000011
 21
380.19193847550798
 31
0.0
  0
LINE
  8
SIZE
  6
CONTINUOUS
 62
    30
 10
139.09999999999991
 20
380.19193847550798
 30
0.0
 11
151.09999999999991
 21
380.19193847550798
 31
0.0
  0
LINE
  8
SIZE
  6
CONTINUOUS
 62
    30
 10
-127.10000000000009
 20
380.19193847550798
 30
0.0
 11
127.09999999999989
 21
380.19193847550798
 31
0.0
  0
CIRCLE
  8
SIZE
  6
CONTINUOUS
 62
    30
 10
-127.10000000000009
 20
380.19193847550798
 30
0.0
 40
6.0
  0
LINE
  8
SIZE
  6
CONTINUOUS
 62
    30
 10
-127.10000000000009
 20
380.19193847550798
 30
0.0
 11
-139.10000000000011
 21
380.19193847550798
 31
0.0
  0
CIRCLE
  8
SIZE
  6
CONTINUOUS
 62
    30
 10
127.09999999999989
 20
380.19193847550798
 30
0.0
 40
6.0
  0
LINE
  8
SIZE
  6
CONTINUOUS
 62
    30
 10
127.09999999999989
 20
380.19193847550798
 30
0.0
 11
139.09999999999991
 21
380.19193847550798
 31
0.0
  0
TEXT
  8
SIZE
  6
CONTINUOUS
 62
    30
 10
-111.90857142857151
 20
405.19193847550798
 30
0.0
 40
64.0
  1
□254
 41
0.9
 72
     1
 11
-0.0000000000001137
 21
405.19193847550798
 31
0.0
  0
POINT
  8
DEFPOINTS
  6
CONTINUOUS
 62
    30
 10
-127.10000000000009
 20
0.0
 30
0.0
  0
POINT
  8
DEFPOINTS
  6
CONTINUOUS
 62
    30
 10
127.09999999999989
 20
0.0
 30
0.0
  0
POINT
  8
DEFPOINTS
  6
CONTINUOUS
 62
    30
 10
127.09999999999989
 20
380.19193847550798
 30
0.0
  0
LINE
  8
SIZE
  6
CONTINUOUS
 62
    30
 10
-36.000002000000109
 20
199.15039999999999
 30
0.0
 11
-232.58658975637169
 21
199.15039999999999
 31
0.0
  0
LINE
  8
SIZE
  6
CONTINUOUS
 62
    30
 10
-173.00000000000011
 20
0.0
 30
0.0
 11
-232.58658975637169
 21
0.0
 31
0.0
  0
LINE
  8
SIZE
  6
CONTINUOUS
 62
    30
 10
-212.58658975637169
 20
187.15039999999999
 30
0.0
 11
-212.58658975637169
 21
12.0
 31
0.0
  0
CIRCLE
  8
SIZE
  6
CONTINUOUS
 62
    30
 10
-212.58658975637169
 20
199.15039999999999
 30
0.0
 40
6.0
  0
LINE
  8
SIZE
  6
CONTINUOUS
 62
    30
 10
-212.58658975637169
 20
199.15039999999999
 30
0.0
 11
-212.58658975637169
 21
187.15039999999999
 31
0.0
  0
CIRCLE
  8
SIZE
  6
CONTINUOUS
 62
    30
 10
-212.58658975637169
 20
0.0
 30
0.0
 40
6.0
  0
LINE
  8
SIZE
  6
CONTINUOUS
 62
    30
 10
-212.58658975637169
 20
0.0
 30
0.0
 11
-212.58658975637169
 21
12.0
 31
0.0
  0
TEXT
  8
SIZE
  6
CONTINUOUS
 62
    30
 10
-237.58658975637169
 20
25.518057142857149
 30
0.0
 40
64.0
  1
200
 50
90.0
 41
0.9
 72
     1
 11
-237.58658975637169
 21
99.575199999999995
 31
0.0
  0
POINT
  8
DEFPOINTS
  6
CONTINUOUS
 62
    30
 10
-16.000002000000109
 20
199.15039999999999
 30
0.0
  0
POINT
  8
DEFPOINTS
  6
CONTINUOUS
 62
    30
 10
-153.00000000000011
 20
0.0
 30
0.0
  0
POINT
  8
DEFPOINTS
  6
CONTINUOUS
 62
    30
 10
-212.58658975637169
 20
0.0
 30
0.0
  0
LINE
  8
SIZE
  6
CONTINUOUS
 62
    30
 10
-153.30282877292979
 20
-7.0
 30
0.0
 11
-232.58658975637169
 21
-7.0
 31
0.0
  0
LINE
  8
SIZE
  6
CONTINUOUS
 62
    30
 10
-153.30282877292979
 20
0.0
 30
0.0
 11
-232.58658975637169
 21
0.0
 31
0.0
  0
LINE
  8
SIZE
  6
CONTINUOUS
 62
    30
 10
-212.58658975637169
 20
12.0
 30
0.0
 11
-212.58658975637169
 21
24.0
 31
0.0
  0
LINE
  8
SIZE
  6
CONTINUOUS
 62
    30
 10
-212.58658975637169
 20
-19.0
 30
0.0
 11
-212.58658975637181
 21
-119.40000000000001
 31
0.0
  0
LINE
  8
SIZE
  6
CONTINUOUS
 62
    30
 10
-212.58658975637169
 20
0.0
 30
0.0
 11
-212.58658975637169
 21
-7.0
 31
0.0
  0
CIRCLE
  8
SIZE
  6
CONTINUOUS
 62
    30
 10
-212.58658975637169
 20
0.0
 30
0.0
 40
6.0
  0
LINE
  8
SIZE
  6
CONTINUOUS
 62
    30
 10
-212.58658975637169
 20
0.0
 30
0.0
 11
-212.58658975637169
 21
12.0
 31
0.0
  0
CIRCLE
  8
SIZE
  6
CONTINUOUS
 62
    30
 10
-212.58658975637169
 20
-7.0
 30
0.0
 40
6.0
  0
LINE
  8
SIZE
  6
CONTINUOUS
 62
    30
 10
-212.58658975637169
 20
-7.0
 30
0.0
 11
-212.58658975637169
 21
-19.0
 31
0.0
  0
TEXT
  8
SIZE
  6
CONTINUOUS
 62
    30
 10
-237.58658975637169
 20
-94.400000000000048
 30
0.0
 40
64.0
  1
7
 50
90.0
 41
0.9
 72
     1
 11
-237.58658975637169
 21
-75.200000000000045
 31
0.0
  0
POINT
  8
DEFPOINTS
  6
CONTINUOUS
 62
    30
 10
-133.30282877292979
 20
-7.0
 30
0.0
  0
POINT
  8
DEFPOINTS
  6
CONTINUOUS
 62
    30
 10
-133.30282877292979
 20
0.0
 30
0.0
  0
POINT
  8
DEFPOINTS
  6
CONTINUOUS
 62
    30
 10
-212.58658975637169
 20
0.0
 30
0.0
  0
TEXT
  8
NOTE
  6
CONTINUOUS
 62
     4
 10
421.47433889379482
 20
-399.32688685288417
 30
0.0
 40
64.0
  1
8-φ5
 41
0.9
  0
LINE
  8
NOTE
  6
CONTINUOUS
 62
     4
 10
708.95772846822456
 20
-433.19683120120197
 30
0.0
 11
376.09290512840278
 21
-433.19683120111802
 31
0.0
  0
LINE
  8
NOTE
  6
CONTINUOUS
 62
     4
 10
141.5
 20
-0.0000000000000568
 30
0.0
 11
376.09290512840278
 21
-433.19683120111802
 31
0.0
  0
LINE
  8
NOTE
  6
CONTINUOUS
 62
     4
 10
141.5
 20
-0.0000000000000568
 30
0.0
 11
169.5733740441126
 21
-26.643949187450119
 31
0.0
  0
LINE
  8
NOTE
  6
CONTINUOUS
 62
     4
 10
148.80256239457839
 20
-39.258049703845529
 30
0.0
 11
141.5
 21
-0.0000000000000568
 31
0.0
  0
TEXT
  8
NOTE
  6
CONTINUOUS
 62
     4
 10
-38.136190629212713
 20
81.659510280197537
 30
0.0
 40
64.0
  1
EA
 41
0.9
  0
TEXT
  8
ETC
  6
CONTINUOUS
 62
    61
 10
510.10619189434169
 20
618.53762671943741
 30
0.0
 40
64.0
  1
VD-15ZC13-IN_2
 41
0.9
  0
TEXT
  8
ETC
  6
CONTINUOUS
 62
    61
 10
505.92019789434153
 20
500.582316704606
 30
0.0
 40
64.0
  1
換気扇
 41
0.9
  0
TEXT
  8
ETC
  6
CONTINUOUS
 62
    61
 10
556.62159614289749
 20
392.43354381838071
 30
0.0
 40
40.0
  1
VD-15ZC13-IN
 41
0.9
  0
TEXT
  8
ETC
  6
CONTINUOUS
 62
    61
 10
556.62159614289749
 20
326.43354381838071
 30
0.0
 40
40.0
  1
VD-15ZPC13-IN
 41
0.9
  0
TEXT
  8
ETC
  6
CONTINUOUS
 62
    61
 10
556.62159614289749
 20
260.43354381838071
 30
0.0
 40
40.0
  1
VD-15ZLC13-IN
 41
0.9
  0
TEXT
  8
ETC
  6
CONTINUOUS
 62
    61
 10
556.62159614289749
 20
194.43354381838071
 30
0.0
 40
40.0
  1
VD-15ZLPC13-IN
 41
0.9
  0
ENDSEC
  0
EOF
