  0
SECTION
  2
HEADER
  9
$ACADVER
  1
AC1009
  9
$INSBASE
 10
0.0
 20
0.0
 30
0.0
  9
$EXTMIN
 10
-956.47841300000005
 20
-516.64029299999993
 30
0.0
  9
$EXTMAX
 10
1437.179943285714
 20
1233.9767110000009
 30
50.0
  9
$LIMMIN
 10
-2970.0
 20
-2100.0
  9
$LIMMAX
 10
2970.0
 20
2100.0
  9
$ORTHOMODE
 70
     1
  9
$REGENMODE
 70
     1
  9
$FILLMODE
 70
     1
  9
$QTEXTMODE
 70
     0
  9
$MIRRTEXT
 70
     0
  9
$DRAGMODE
 70
     2
  9
$LTSCALE
 40
20.0
  9
$OSMODE
 70
    37
  9
$ATTMODE
 70
     1
  9
$TEXTSIZE
 40
64.0
  9
$TRACEWID
 40
0.05
  9
$TEXTSTYLE
  7
STANDARD
  9
$CLAYER
  8
SIZE
  9
$CELTYPE
  6
CONTINUOUS
  9
$CECOLOR
 62
     7
  9
$DIMSCALE
 40
1.0
  9
$DIMASZ
 40
12.0
  9
$DIMEXO
 40
20.0
  9
$DIMDLI
 40
200.0
  9
$DIMRND
 40
0.0
  9
$DIMDLE
 40
0.0
  9
$DIMEXE
 40
20.0
  9
$DIMTP
 40
0.0
  9
$DIMTM
 40
0.0
  9
$DIMTXT
 40
64.0
  9
$DIMCEN
 40
0.09
  9
$DIMTSZ
 40
0.0
  9
$DIMTOL
 70
     0
  9
$DIMLIM
 70
     0
  9
$DIMTIH
 70
     0
  9
$DIMTOH
 70
     0
  9
$DIMSE1
 70
     0
  9
$DIMSE2
 70
     0
  9
$DIMTAD
 70
     1
  9
$DIMZIN
 70
     8
  9
$DIMBLK
  1
DOT1
  9
$DIMASO
 70
     1
  9
$DIMSHO
 70
     0
  9
$DIMPOST
  1

  9
$DIMAPOST
  1

  9
$DIMALT
 70
     0
  9
$DIMALTD
 70
     2
  9
$DIMALTF
 40
25.399999999999999
  9
$DIMLFAC
 40
1.0
  9
$DIMTOFL
 70
     1
  9
$DIMTVP
 40
0.0
  9
$DIMTIX
 70
     1
  9
$DIMSOXD
 70
     0
  9
$DIMSAH
 70
     1
  9
$DIMBLK1
  1
ORIGIN
  9
$DIMBLK2
  1
ORIGIN
  9
$DIMSTYLE
  2
STANDARD
  9
$DIMCLRD
 70
     7
  9
$DIMCLRE
 70
     7
  9
$DIMCLRT
 70
     7
  9
$DIMTFAC
 40
1.0
  9
$DIMGAP
 40
25.0
  9
$LUNITS
 70
     2
  9
$LUPREC
 70
     4
  9
$SKETCHINC
 40
0.1
  9
$FILLETRAD
 40
3.0
  9
$AUNITS
 70
     1
  9
$AUPREC
 70
     3
  9
$MENU
  1
ACAD
  9
$ELEVATION
 40
0.0
  9
$PELEVATION
 40
0.0
  9
$THICKNESS
 40
50.0
  9
$LIMCHECK
 70
     0
  9
$BLIPMODE
 70
     0
  9
$CHAMFERA
 40
0.0
  9
$CHAMFERB
 40
0.0
  9
$SKPOLY
 70
     0
  9
$TDCREATE
 40
2453019.6230103699
  9
$TDUPDATE
 40
2455229.6001546178
  9
$TDINDWG
 40
1.766230787
  9
$TDUSRTIMER
 40
1.766230787
  9
$USRTIMER
 70
     1
  9
$ANGBASE
 50
0.0
  9
$ANGDIR
 70
     0
  9
$PDMODE
 70
     3
  9
$PDSIZE
 40
-2.0
  9
$PLINEWID
 40
0.0
  9
$COORDS
 70
     1
  9
$SPLFRAME
 70
     0
  9
$SPLINETYPE
 70
     6
  9
$SPLINESEGS
 70
     8
  9
$ATTDIA
 70
     0
  9
$ATTREQ
 70
     1
  9
$HANDLING
 70
 22529
  9
$HANDSEED
  5
2A2
  9
$SURFTAB1
 70
     6
  9
$SURFTAB2
 70
     6
  9
$SURFTYPE
 70
     6
  9
$SURFU
 70
     6
  9
$SURFV
 70
     6
  9
$UCSNAME
  2

  9
$UCSORG
 10
0.0
 20
0.0
 30
0.0
  9
$UCSXDIR
 10
1.0
 20
0.0
 30
0.0
  9
$UCSYDIR
 10
0.0
 20
1.0
 30
0.0
  9
$PUCSNAME
  2

  9
$PUCSORG
 10
0.0
 20
0.0
 30
0.0
  9
$PUCSXDIR
 10
1.0
 20
0.0
 30
0.0
  9
$PUCSYDIR
 10
0.0
 20
1.0
 30
0.0
  9
$USERI1
 70
     0
  9
$USERI2
 70
     0
  9
$USERI3
 70
     0
  9
$USERI4
 70
     0
  9
$USERI5
 70
     0
  9
$USERR1
 40
20.0
  9
$USERR2
 40
0.0
  9
$USERR3
 40
0.0
  9
$USERR4
 40
0.0
  9
$USERR5
 40
0.0
  9
$WORLDVIEW
 70
     1
  9
$SHADEDGE
 70
     3
  9
$SHADEDIF
 70
    70
  9
$TILEMODE
 70
     1
  9
$MAXACTVP
 70
    48
  9
$PLIMCHECK
 70
     0
  9
$PEXTMIN
 10
-1.0000000000000000E+020
 20
-1.0000000000000000E+020
 30
-1.0000000000000000E+020
  9
$PEXTMAX
 10
1.0000000000000000E+020
 20
1.0000000000000000E+020
 30
1.0000000000000000E+020
  9
$PLIMMIN
 10
0.0
 20
0.0
  9
$PLIMMAX
 10
12.0
 20
9.0
  9
$UNITMODE
 70
     0
  9
$VISRETAIN
 70
     0
  9
$PLINEGEN
 70
     0
  9
$PSLTSCALE
 70
     0
  0
ENDSEC
  0
SECTION
  2
TABLES
  0
TABLE
  2
VPORT
 70
     2
  0
VPORT
  2
*ACTIVE
 70
     0
 10
0.0
 20
0.0
 11
1.0
 21
1.0
 12
240.4152060000003
 22
396.16430167392338
 13
0.0
 23
0.0
 14
1.0
 24
1.0
 15
0.0
 25
0.0
 16
0.0
 26
0.0
 36
1.0
 17
0.0
 27
0.0
 37
0.0
 40
1840.076041347847
 41
1.563081009296148
 42
50.0
 43
0.0
 44
0.0
 50
0.0
 51
0.0
 71
     0
 72
  1000
 73
     1
 74
     0
 75
     0
 76
     0
 77
     0
 78
     0
  0
ENDTAB
  0
TABLE
  2
LTYPE
 70
     2
  0
LTYPE
  2
CONTINUOUS
 70
     0
  3
Ä└É³
 72
    65
 73
     0
 40
0.0
  0
LTYPE
  2
DASHDOT
 70
     0
  3
____ _ ____ _ ____ _ ____ _ ____ _ ____ _ ____
 72
    65
 73
     4
 40
5.5
 49
4.0
 49
-0.6
 49
0.3
 49
-0.6
  0
ENDTAB
  0
TABLE
  2
LAYER
 70
    12
  0
LAYER
  2
0
 70
     0
 62
     7
  6
CONTINUOUS
  0
LAYER
  2
SIZE
 70
     0
 62
    30
  6
CONTINUOUS
  0
LAYER
  2
BASIS
 70
     0
 62
     6
  6
DASHDOT
  0
LAYER
  2
OUTLINE
 70
     0
 62
     3
  6
CONTINUOUS
  0
LAYER
  2
DETAIL
 70
     0
 62
     5
  6
CONTINUOUS
  0
LAYER
  2
ARRANGE
 70
     0
 62
     1
  6
CONTINUOUS
  0
LAYER
  2
DEFPOINTS
 70
     0
 62
     7
  6
CONTINUOUS
  0
LAYER
  2
ETC
 70
     0
 62
    61
  6
CONTINUOUS
  0
LAYER
  2
FIX
 70
     0
 62
    11
  6
CONTINUOUS
  0
LAYER
  2
NOTE
 70
     0
 62
     4
  6
CONTINUOUS
  0
LAYER
  2
SERVICESPACE
 70
     0
 62
     2
  6
DASHDOT
  0
LAYER
  2
SYMBOLLINE
 70
     0
 62
    15
  6
CONTINUOUS
  0
ENDTAB
  0
TABLE
  2
STYLE
 70
     1
  0
STYLE
  2
STANDARD
 70
     0
 40
64.0
 41
0.9
 50
0.0
 71
     0
 42
64.0
  3
SIMPLEX.shx
  4
BIGFONT.shx
  0
ENDTAB
  0
TABLE
  2
VIEW
 70
     1
  0
VIEW
  2
ALL
 70
     0
 40
4282.6198079999986
 10
0.0
 20
41.309903999999989
 41
5940.0
 11
0.0
 21
0.0
 31
1.0
 12
0.0
 22
0.0
 32
0.0
 42
50.0
 43
0.0
 44
0.0
 50
0.0
 71
     0
  0
ENDTAB
  0
TABLE
  2
UCS
 70
     0
  0
ENDTAB
  0
TABLE
  2
APPID
 70
    15
  0
APPID
  2
ACAD
 70
     0
  0
APPID
  2
AUTOCAD_POSTSCRIPT_FIGURE
 70
     0
  0
APPID
  2
ACAD_EXEMPT_FROM_CAD_STANDARDS
 70
     0
  0
APPID
  2
ACAD_PSEXT
 70
     0
  0
APPID
  2
ACAUTHENVIRON
 70
     0
  0
APPID
  2
GENIUS_GENOENT_13
 70
     0
  0
APPID
  2
GENIUS_GENCFG_13
 70
     0
  0
APPID
  2
GENIUS_GENCFG0_13
 70
     0
  0
APPID
  2
GENIUS_GENCFG1_13
 70
     0
  0
APPID
  2
GENIUS_GENCFG2_13
 70
     0
  0
APPID
  2
GENIUS_GENCFG3_13
 70
     0
  0
APPID
  2
GENIUS_GENCFG4_13
 70
     0
  0
APPID
  2
GENIUS_GEVCFG0_13
 70
     0
  0
APPID
  2
CONTENTBLOCKICON
 70
     0
  0
APPID
  2
CONTENTBLOCKDESCRIPTION
 70
     0
  0
ENDTAB
  0
TABLE
  2
DIMSTYLE
 70
     1
  0
DIMSTYLE
  2
STANDARD
 70
     0
  3

  4

  5

  6

  7

 40
1.0
 41
0.18
 42
0.0625
 43
0.38
 44
0.18
 45
0.0
 46
0.0
 47
0.0
 48
0.0
140
0.18
141
0.09
142
0.0
143
25.399999999999999
144
1.0
145
0.0
146
1.0
147
0.09
 71
     0
 72
     0
 73
     1
 74
     1
 75
     0
 76
     0
 77
     0
 78
     0
170
     0
171
     2
172
     0
173
     0
174
     0
175
     0
176
     7
177
     7
178
     7
  0
ENDTAB
  0
ENDSEC
  0
SECTION
  2
BLOCKS
  0
BLOCK
  8
0
  2
$MODEL_SPACE
 70
     0
 10
0.0
 20
0.0
 30
0.0
  3
$MODEL_SPACE
  1

  0
ENDBLK
  5
20
  8
0
  0
BLOCK
 67
     1
  8
0
  2
$PAPER_SPACE
 70
     0
 10
0.0
 20
0.0
 30
0.0
  3
$PAPER_SPACE
  1

  0
ENDBLK
  5
1C
 67
     1
  8
0
  0
BLOCK
  8
0
  2
DOT1
 70
     0
 10
0.0
 20
0.0
 30
0.0
  3
DOT1
  1

  0
CIRCLE
  5
43
  8
SIZE
  6
CONTINUOUS
 62
     7
 10
0.0
 20
0.0
 30
0.0
 40
3.0
  0
ENDBLK
  5
44
  8
0
  0
BLOCK
  8
0
  2
_ORIGIN
 70
     0
 10
0.0
 20
0.0
 30
0.0
  3
_ORIGIN
  1

  0
CIRCLE
  5
47
  8
0
  6
CONTINUOUS
 62
     7
 10
0.0
 20
0.0
 30
0.0
 40
0.5
  0
LINE
  5
48
  8
0
  6
CONTINUOUS
 62
     7
 10
0.0
 20
0.0
 30
0.0
 11
-1.0
 21
0.0
 31
0.0
  0
ENDBLK
  5
49
  8
0
  0
ENDSEC
  0
SECTION
  2
ENTITIES
  0
CIRCLE
  5
4A
  8
ARRANGE
  6
CONTINUOUS
 62
     1
 10
0.0
 20
0.0
 30
0.0
 40
40.0
  0
POINT
  5
4B
  8
ARRANGE
  6
CONTINUOUS
 62
     1
 10
0.0
 20
0.0
 30
0.0
 39
50.0
 50
180.0
  0
LINE
  5
4C
  8
BASIS
  6
DASHDOT
 62
     6
 39
50.0
 10
0.0
 20
-57.718819999999987
 30
0.0
 11
0.0
 21
210.53293099999999
 31
0.0
  0
TEXT
  5
4D
  8
NOTE
  6
CONTINUOUS
 62
     4
 10
-575.62280599999985
 20
-417.0265829999999
 30
0.0
 40
64.0
  1
8-âË5
 41
0.9
  0
TEXT
  5
4E
  8
NOTE
  6
CONTINUOUS
 62
     4
 10
-388.50412799999992
 20
81.667571999999993
 30
0.0
 40
64.0
  1
EA
 41
0.9
  0
LINE
  5
4F
  8
NOTE
  6
CONTINUOUS
 62
     4
 39
50.0
 10
-143.277308
 20
-1.7581739999999999
 30
0.0
 11
-321.01105200000001
 21
-428.51551699999999
 31
0.0
  0
LINE
  5
50
  8
NOTE
  6
CONTINUOUS
 62
     4
 39
50.0
 10
-593.58885299999986
 20
-428.51551699999999
 30
0.0
 11
-321.01105200000001
 21
-428.51551699999999
 31
0.0
  0
LINE
  5
51
  8
NOTE
  6
CONTINUOUS
 62
     4
 39
50.0
 10
-157.945086
 20
-15.591063
 30
0.0
 11
-143.277308
 21
-1.7581739999999999
 31
0.0
  0
LINE
  5
52
  8
NOTE
  6
CONTINUOUS
 62
     4
 39
50.0
 10
-143.277308
 20
-1.7581739999999999
 30
0.0
 11
-144.86669499999991
 21
-22.289612999999989
 31
0.0
  0
LINE
  5
53
  8
NOTE
  6
CONTINUOUS
 62
     4
 39
50.0
 10
-141.5
 20
-7.477714999999999
 30
0.0
 11
-141.5
 21
9.9933689999999995
 31
0.0
  0
CIRCLE
  5
54
  8
FIX
  6
CONTINUOUS
 62
    11
 39
50.0
 10
-141.5
 20
0.0
 30
0.0
 40
2.5
  0
LINE
  5
55
  8
DETAIL
  6
CONTINUOUS
 62
     5
 10
157.22875199999999
 20
-10.742561
 30
0.0
 11
119.5
 21
-10.742561
 31
0.0
  0
LINE
  5
56
  8
DETAIL
  6
CONTINUOUS
 62
     5
 10
164.0
 20
0.0
 30
0.0
 11
117.824561
 21
0.0
 31
0.0
  0
ARC
  5
57
  8
DETAIL
  6
CONTINUOUS
 62
     5
 10
164.0
 20
-1.0
 30
0.0
 40
1.0
 50
0.0
 51
90.0
  0
LINE
  5
58
  8
DETAIL
  6
CONTINUOUS
 62
     5
 10
165.0
 20
-1.0
 30
0.0
 11
165.0
 21
-5.2980070000000001
 31
0.0
  0
ARC
  5
59
  8
DETAIL
  6
CONTINUOUS
 62
     5
 10
159.0
 20
-5.2980070000000001
 30
0.0
 40
6.0
 50
294.8480209999999
 51
0.0
  0
ARC
  5
5A
  8
DETAIL
  6
CONTINUOUS
 62
     5
 10
119.5
 20
80.0
 30
0.0
 40
100.0
 50
270.0
 51
294.8480209999999
  0
LINE
  5
5B
  8
DETAIL
  6
CONTINUOUS
 62
     5
 10
0.0
 20
-20.0
 30
0.0
 11
118.0
 21
-20.0
 31
0.0
  0
LINE
  5
5C
  8
DETAIL
  6
CONTINUOUS
 62
     5
 10
0.0
 20
0.0
 30
0.0
 11
117.824561
 21
0.0
 31
0.0
  0
LINE
  5
5D
  8
DETAIL
  6
CONTINUOUS
 62
     5
 10
119.5
 20
-19.0
 30
0.0
 11
118.0
 21
-19.0
 31
0.0
  0
LINE
  5
5E
  8
DETAIL
  6
CONTINUOUS
 62
     5
 10
118.0
 20
-10.742561
 30
0.0
 11
0.0
 21
-10.742561
 31
0.0
  0
LINE
  5
5F
  8
DETAIL
  6
CONTINUOUS
 62
     5
 10
119.5
 20
0.0
 30
0.0
 11
119.5
 21
-20.0
 31
0.0
  0
LINE
  5
60
  8
DETAIL
  6
CONTINUOUS
 62
     5
 10
118.0
 20
0.0
 30
0.0
 11
118.0
 21
-20.0
 31
0.0
  0
LINE
  5
61
  8
DETAIL
  6
CONTINUOUS
 62
     5
 10
-157.22875199999999
 20
-10.742561
 30
0.0
 11
-119.5
 21
-10.742561
 31
0.0
  0
LINE
  5
62
  8
DETAIL
  6
CONTINUOUS
 62
     5
 10
0.0
 20
-20.0
 30
0.0
 11
-118.0
 21
-20.0
 31
0.0
  0
LINE
  5
63
  8
DETAIL
  6
CONTINUOUS
 62
     5
 10
-164.0
 20
0.0
 30
0.0
 11
-117.824561
 21
0.0
 31
0.0
  0
ARC
  5
64
  8
DETAIL
  6
CONTINUOUS
 62
     5
 10
-164.0
 20
-1.0
 30
0.0
 40
1.0
 50
90.0
 51
180.0
  0
LINE
  5
65
  8
DETAIL
  6
CONTINUOUS
 62
     5
 10
-165.0
 20
-1.0
 30
0.0
 11
-165.0
 21
-5.2980070000000001
 31
0.0
  0
ARC
  5
66
  8
DETAIL
  6
CONTINUOUS
 62
     5
 10
-159.0
 20
-5.2980070000000001
 30
0.0
 40
6.0
 50
180.0
 51
245.15197900000001
  0
ARC
  5
67
  8
DETAIL
  6
CONTINUOUS
 62
     5
 10
-119.5
 20
80.0
 30
0.0
 40
100.0
 50
245.15197900000001
 51
270.0
  0
LINE
  5
68
  8
DETAIL
  6
CONTINUOUS
 62
     5
 10
0.0
 20
0.0
 30
0.0
 11
-117.824561
 21
0.0
 31
0.0
  0
LINE
  5
69
  8
DETAIL
  6
CONTINUOUS
 62
     5
 10
-119.5
 20
-19.0
 30
0.0
 11
-118.0
 21
-19.0
 31
0.0
  0
LINE
  5
6A
  8
DETAIL
  6
CONTINUOUS
 62
     5
 10
-118.0
 20
-10.742561
 30
0.0
 11
0.0
 21
-10.742561
 31
0.0
  0
LINE
  5
6B
  8
DETAIL
  6
CONTINUOUS
 62
     5
 10
-119.5
 20
0.0
 30
0.0
 11
-119.5
 21
-20.0
 31
0.0
  0
LINE
  5
6C
  8
DETAIL
  6
CONTINUOUS
 62
     5
 10
-118.0
 20
0.0
 30
0.0
 11
-118.0
 21
-20.0
 31
0.0
  0
LINE
  5
6D
  8
DETAIL
  6
CONTINUOUS
 62
     5
 10
-249.31238300000001
 20
109.1979699999999
 30
0.0
 11
-248.95530699999989
 21
106.9651209999999
 31
0.0
  0
LINE
  5
6E
  8
DETAIL
  6
CONTINUOUS
 62
     5
 10
-248.95530699999989
 20
106.9651209999999
 30
0.0
 11
-248.4565549999999
 21
104.76563299999989
 31
0.0
  0
LINE
  5
6F
  8
DETAIL
  6
CONTINUOUS
 62
     5
 10
-248.4565549999999
 20
104.76563299999989
 30
0.0
 11
-247.81827599999991
 21
102.6059819999999
 31
0.0
  0
LINE
  5
70
  8
DETAIL
  6
CONTINUOUS
 62
     5
 10
-247.81827599999991
 20
102.6059819999999
 30
0.0
 11
-247.6012879999999
 21
101.9713389999999
 31
0.0
  0
LINE
  5
71
  8
DETAIL
  6
CONTINUOUS
 62
     5
 10
-247.740206
 20
102.365262
 30
0.0
 11
-247.9571949999999
 21
102.999906
 31
0.0
  0
LINE
  5
72
  8
DETAIL
  6
CONTINUOUS
 62
     5
 10
-247.6012879999999
 20
101.9713389999999
 30
0.0
 11
-247.04178399999989
 21
100.49290499999999
 31
0.0
  0
LINE
  5
73
  8
DETAIL
  6
CONTINUOUS
 62
     5
 10
-247.04178399999989
 20
100.49290499999999
 30
0.0
 11
-246.13004100000001
 21
98.432579000000004
 31
0.0
  0
LINE
  5
74
  8
DETAIL
  6
CONTINUOUS
 62
     5
 10
-246.13004100000001
 20
98.432579000000004
 30
0.0
 11
-245.08518799999999
 21
96.431484000000012
 31
0.0
  0
LINE
  5
75
  8
DETAIL
  6
CONTINUOUS
 62
     5
 10
-245.08518799999999
 20
96.431484000000012
 30
0.0
 11
-243.91100800000001
 21
94.495455000000007
 31
0.0
  0
LINE
  5
76
  8
DETAIL
  6
CONTINUOUS
 62
     5
 10
-243.91100800000001
 20
94.495455000000007
 30
0.0
 11
-242.610488
 21
92.630706000000004
 31
0.0
  0
LINE
  5
77
  8
DETAIL
  6
CONTINUOUS
 62
     5
 10
-242.610488
 20
92.630706000000004
 30
0.0
 11
-241.1881589999999
 21
90.84258100000001
 31
0.0
  0
LINE
  5
78
  8
DETAIL
  6
CONTINUOUS
 62
     5
 10
-249.5988319999999
 20
113.7360989999999
 30
0.0
 11
-249.52732900000001
 21
111.4572209999999
 31
0.0
  0
LINE
  5
79
  8
DETAIL
  6
CONTINUOUS
 62
     5
 10
-249.52732900000001
 20
111.4572209999999
 30
0.0
 11
-249.31238300000001
 21
109.1979699999999
 31
0.0
  0
LINE
  5
7A
  8
DETAIL
  6
CONTINUOUS
 62
     5
 10
-249.52732900000001
 20
116.027585
 30
0.0
 11
-249.5988319999999
 21
113.7360989999999
 31
0.0
  0
LINE
  5
7B
  8
DETAIL
  6
CONTINUOUS
 62
     5
 10
-248.4565549999999
 20
122.90797999999999
 30
0.0
 11
-248.95530699999989
 21
120.6205479999999
 31
0.0
  0
LINE
  5
7C
  8
DETAIL
  6
CONTINUOUS
 62
     5
 10
-248.95530699999989
 20
120.6205479999999
 30
0.0
 11
-249.31238300000001
 21
118.3247379999999
 31
0.0
  0
LINE
  5
7D
  8
DETAIL
  6
CONTINUOUS
 62
     5
 10
-249.31238300000001
 20
118.3247379999999
 30
0.0
 11
-249.52732900000001
 21
116.027585
 31
0.0
  0
LINE
  5
7E
  8
DETAIL
  6
CONTINUOUS
 62
     5
 10
-247.04178399999989
 20
127.4301699999999
 30
0.0
 11
-247.81827599999991
 21
125.1801759999999
 31
0.0
  0
LINE
  5
7F
  8
DETAIL
  6
CONTINUOUS
 62
     5
 10
-247.81827599999991
 20
125.1801759999999
 30
0.0
 11
-248.4565549999999
 21
122.90797999999999
 31
0.0
  0
LINE
  5
80
  8
DETAIL
  6
CONTINUOUS
 62
     5
 10
-243.91100800000001
 20
133.97966099999999
 30
0.0
 11
-245.08518799999999
 21
131.83659199999991
 31
0.0
  0
LINE
  5
81
  8
DETAIL
  6
CONTINUOUS
 62
     5
 10
-245.08518799999999
 20
131.83659199999991
 30
0.0
 11
-246.13004100000001
 21
129.65126100000001
 31
0.0
  0
LINE
  5
82
  8
DETAIL
  6
CONTINUOUS
 62
     5
 10
-246.13004100000001
 20
129.65126100000001
 30
0.0
 11
-247.04178399999989
 21
127.4301699999999
 31
0.0
  0
LINE
  5
83
  8
DETAIL
  6
CONTINUOUS
 62
     5
 10
-237.00872799999991
 20
86.664278999999993
 30
0.0
 11
-234.369429
 21
84.640423999999996
 31
0.0
  0
LINE
  5
84
  8
DETAIL
  6
CONTINUOUS
 62
     5
 10
-237.00872799999991
 20
86.686581000000004
 30
0.0
 11
-229.2306979999999
 21
80.542466000000005
 31
0.0
  0
LINE
  5
85
  8
DETAIL
  6
CONTINUOUS
 62
     5
 10
-229.2306979999999
 20
80.542466000000005
 30
0.0
 11
-205.21833000000001
 21
81.925211999999988
 31
0.0
  0
LINE
  5
86
  8
DETAIL
  6
CONTINUOUS
 62
     5
 10
-241.1881589999999
 20
90.84258100000001
 30
0.0
 11
-239.647806
 21
89.136892000000003
 31
0.0
  0
LINE
  5
87
  8
DETAIL
  6
CONTINUOUS
 62
     5
 10
-239.647806
 20
89.136892000000003
 30
0.0
 11
-237.99465499999999
 21
87.518445999999997
 31
0.0
  0
LINE
  5
88
  8
DETAIL
  6
CONTINUOUS
 62
     5
 10
-237.99465499999999
 20
87.518445999999997
 30
0.0
 11
-237.00872799999991
 21
86.664278999999993
 31
0.0
  0
LINE
  5
89
  8
DETAIL
  6
CONTINUOUS
 62
     5
 10
-237.00872799999991
 20
86.664278999999993
 30
0.0
 11
-234.369429
 21
84.640423999999996
 31
0.0
  0
LINE
  5
8A
  8
DETAIL
  6
CONTINUOUS
 62
     5
 10
-241.1881589999999
 20
138.1126459999999
 30
0.0
 11
-242.610488
 21
136.07372599999999
 31
0.0
  0
LINE
  5
8B
  8
DETAIL
  6
CONTINUOUS
 62
     5
 10
-242.610488
 20
136.07372599999999
 30
0.0
 11
-243.91100800000001
 21
133.97966099999999
 31
0.0
  0
LINE
  5
8C
  8
DETAIL
  6
CONTINUOUS
 62
     5
 10
-237.99465499999999
 20
141.99988200000001
 30
0.0
 11
-239.647806
 21
140.0899399999999
 31
0.0
  0
LINE
  5
8D
  8
DETAIL
  6
CONTINUOUS
 62
     5
 10
-239.647806
 20
140.0899399999999
 30
0.0
 11
-241.1881589999999
 21
138.1126459999999
 31
0.0
  0
LINE
  5
8E
  8
DETAIL
  6
CONTINUOUS
 62
     5
 10
-234.369429
 20
145.51712900000001
 30
0.0
 11
-237.00872799999991
 21
143.02789399999989
 31
0.0
  0
LINE
  5
8F
  8
DETAIL
  6
CONTINUOUS
 62
     5
 10
-237.00872799999991
 20
143.02789399999989
 30
0.0
 11
-237.99465499999999
 21
141.99988200000001
 31
0.0
  0
LINE
  5
90
  8
DETAIL
  6
CONTINUOUS
 62
     5
 10
-238.12888799999999
 20
141.9420879999999
 30
0.0
 11
-229.555768
 21
150.05145899999999
 31
0.0
  0
LINE
  5
91
  8
DETAIL
  6
CONTINUOUS
 62
     5
 10
-205.72182000000001
 20
152.47326499999991
 30
0.0
 11
-229.555768
 21
150.05145899999999
 31
0.0
  0
LINE
  5
92
  8
DETAIL
  6
CONTINUOUS
 62
     5
 10
-93.982291000000004
 20
182.0
 30
0.0
 11
-93.909164000000004
 21
182.0
 31
0.0
  0
LINE
  5
93
  8
DETAIL
  6
CONTINUOUS
 62
     5
 10
-93.982291000000004
 20
182.0
 30
0.0
 11
-93.909164000000004
 21
182.0
 31
0.0
  0
ARC
  5
94
  8
DETAIL
  6
CONTINUOUS
 62
     5
 10
-107.09841899999989
 20
192.5
 30
0.0
 40
0.5
 50
0.5
 51
90.0
  0
ARC
  5
95
  8
DETAIL
  6
CONTINUOUS
 62
     5
 10
-107.618403
 20
192.5
 30
0.0
 40
0.5
 50
90.0
 51
179.49999999999989
  0
ARC
  5
96
  8
DETAIL
  6
CONTINUOUS
 62
     5
 10
-109.9527579999999
 20
191.0
 30
0.0
 40
2.0
 50
90.0
 51
160.20112399999991
  0
ARC
  5
97
  8
DETAIL
  6
CONTINUOUS
 62
     5
 10
-105.1868379999999
 20
191.0
 30
0.0
 40
2.0
 50
45.0
 51
90.0
  0
ARC
  5
98
  8
DETAIL
  6
CONTINUOUS
 62
     5
 10
-101.180774
 20
182.751295
 30
0.0
 40
5.0
 50
4.999064999999999
 51
45.0
  0
ARC
  5
99
  8
DETAIL
  6
CONTINUOUS
 62
     5
 10
-79.612408000000002
 20
162.5
 30
0.0
 40
2.5
 50
0.8680510000000001
 51
90.0
  0
ARC
  5
9A
  8
DETAIL
  6
CONTINUOUS
 62
     5
 10
-94.099799000000004
 20
162.5
 30
0.0
 40
2.5
 50
90.0
 51
179.0
  0
ARC
  5
9B
  8
DETAIL
  6
CONTINUOUS
 62
     5
 10
-61.387591999999998
 20
162.5
 30
0.0
 40
2.5
 50
90.0
 51
179.13194899999999
  0
ARC
  5
9C
  8
DETAIL
  6
CONTINUOUS
 62
     5
 10
39.289084000000003
 20
162.5
 30
0.0
 40
2.5
 50
0.9027680000000001
 51
90.0
  0
ARC
  5
9D
  8
DETAIL
  6
CONTINUOUS
 62
     5
 10
57.612407999999988
 20
162.5
 30
0.0
 40
2.5
 50
90.0
 51
179.13194899999999
  0
ARC
  5
9E
  8
DETAIL
  6
CONTINUOUS
 62
     5
 10
121.41317099999991
 20
162.5
 30
0.0
 40
2.5
 50
1.0
 51
90.0
  0
LINE
  5
9F
  8
DETAIL
  6
CONTINUOUS
 62
     5
 10
-111.83453299999999
 20
191.67743899999999
 30
0.0
 11
-114.8070689999999
 21
183.4203949999999
 31
0.0
  0
LINE
  5
A0
  8
DETAIL
  6
CONTINUOUS
 62
     5
 10
-108.12088300000001
 20
192.09021799999991
 30
0.0
 11
-108.12281
 21
191.99718899999999
 31
0.0
  0
LINE
  5
A1
  8
DETAIL
  6
CONTINUOUS
 62
     5
 10
-108.1173169999999
 20
192.1794459999999
 30
0.0
 11
-108.12088300000001
 21
192.09021799999991
 31
0.0
  0
LINE
  5
A2
  8
DETAIL
  6
CONTINUOUS
 62
     5
 10
-108.1120309999999
 20
192.26480000000001
 30
0.0
 11
-108.1173169999999
 21
192.1794459999999
 31
0.0
  0
LINE
  5
A3
  8
DETAIL
  6
CONTINUOUS
 62
     5
 10
-108.1052659999999
 20
192.346498
 30
0.0
 11
-108.1120309999999
 21
192.26480000000001
 31
0.0
  0
LINE
  5
A4
  8
DETAIL
  6
CONTINUOUS
 62
     5
 10
-108.097207
 20
192.42469199999999
 30
0.0
 11
-108.1052659999999
 21
192.346498
 31
0.0
  0
LINE
  5
A5
  8
DETAIL
  6
CONTINUOUS
 62
     5
 10
-108.087946
 20
192.499503
 30
0.0
 11
-108.097207
 21
192.42469199999999
 31
0.0
  0
LINE
  5
A6
  8
DETAIL
  6
CONTINUOUS
 62
     5
 10
-108.0776139999999
 20
192.57106999999991
 30
0.0
 11
-108.087946
 21
192.499503
 31
0.0
  0
LINE
  5
A7
  8
DETAIL
  6
CONTINUOUS
 62
     5
 10
-108.0662769999999
 20
192.6394929999999
 30
0.0
 11
-108.0776139999999
 21
192.57106999999991
 31
0.0
  0
LINE
  5
A8
  8
DETAIL
  6
CONTINUOUS
 62
     5
 10
-108.054062
 20
192.70493799999991
 30
0.0
 11
-108.0662769999999
 21
192.6394929999999
 31
0.0
  0
LINE
  5
A9
  8
DETAIL
  6
CONTINUOUS
 62
     5
 10
-108.0409249999999
 20
192.76734799999991
 30
0.0
 11
-108.054062
 21
192.70493799999991
 31
0.0
  0
LINE
  5
AA
  8
DETAIL
  6
CONTINUOUS
 62
     5
 10
-114.09359499999999
 20
75.008725999999996
 30
0.0
 11
-114.44175899999991
 21
174.75
 31
0.0
  0
LINE
  5
AB
  8
DETAIL
  6
CONTINUOUS
 62
     5
 10
-118.758411
 20
0.0
 30
0.0
 11
-115.7081389999999
 21
174.75
 31
0.0
  0
LINE
  5
AC
  8
DETAIL
  6
CONTINUOUS
 62
     5
 10
-114.958411
 20
174.75
 30
0.0
 11
-114.954047
 21
175.0
 31
0.0
  0
LINE
  5
AD
  8
DETAIL
  6
CONTINUOUS
 62
     5
 10
-95.951959000000002
 20
174.62173200000001
 30
0.0
 11
-95.692991000000006
 21
174.691124
 31
0.0
  0
LINE
  5
AE
  8
DETAIL
  6
CONTINUOUS
 62
     5
 10
-95.692991000000006
 20
174.691124
 30
0.0
 11
-95.570350000000005
 21
174.72332900000001
 31
0.0
  0
LINE
  5
AF
  8
DETAIL
  6
CONTINUOUS
 62
     5
 10
-95.570350000000005
 20
174.72332900000001
 30
0.0
 11
-95.511364
 21
174.73845800000001
 31
0.0
  0
LINE
  5
B0
  8
DETAIL
  6
CONTINUOUS
 62
     5
 10
-95.464958999999993
 20
174.74960999999999
 30
0.0
 11
-95.461652000000001
 21
174.75
 31
0.0
  0
LINE
  5
B1
  8
DETAIL
  6
CONTINUOUS
 62
     5
 10
-95.474418999999997
 20
174.74752599999991
 30
0.0
 11
-95.464958999999993
 21
174.74960999999999
 31
0.0
  0
LINE
  5
B2
  8
DETAIL
  6
CONTINUOUS
 62
     5
 10
-95.489964999999984
 20
174.74380099999991
 30
0.0
 11
-95.474418999999997
 21
174.74752599999991
 31
0.0
  0
LINE
  5
B3
  8
DETAIL
  6
CONTINUOUS
 62
     5
 10
-95.511364
 20
174.73845800000001
 30
0.0
 11
-95.489964999999984
 21
174.74380099999991
 31
0.0
  0
LINE
  5
B4
  8
DETAIL
  6
CONTINUOUS
 62
     5
 10
-105.1868379999999
 20
193.0
 30
0.0
 11
-109.9527579999999
 21
193.0
 31
0.0
  0
LINE
  5
B5
  8
DETAIL
  6
CONTINUOUS
 62
     5
 10
-106.662761
 20
192.70493799999991
 30
0.0
 11
-106.67589699999991
 21
192.76734799999991
 31
0.0
  0
LINE
  5
B6
  8
DETAIL
  6
CONTINUOUS
 62
     5
 10
-106.65054499999989
 20
192.6394929999999
 30
0.0
 11
-106.662761
 21
192.70493799999991
 31
0.0
  0
LINE
  5
B7
  8
DETAIL
  6
CONTINUOUS
 62
     5
 10
-106.63920899999999
 20
192.57106999999991
 30
0.0
 11
-106.65054499999989
 21
192.6394929999999
 31
0.0
  0
LINE
  5
B8
  8
DETAIL
  6
CONTINUOUS
 62
     5
 10
-106.62887600000001
 20
192.499503
 30
0.0
 11
-106.63920899999999
 21
192.57106999999991
 31
0.0
  0
LINE
  5
B9
  8
DETAIL
  6
CONTINUOUS
 62
     5
 10
-106.6196149999999
 20
192.42469199999999
 30
0.0
 11
-106.62887600000001
 21
192.499503
 31
0.0
  0
LINE
  5
BA
  8
DETAIL
  6
CONTINUOUS
 62
     5
 10
-106.61155599999999
 20
192.346498
 30
0.0
 11
-106.6196149999999
 21
192.42469199999999
 31
0.0
  0
LINE
  5
BB
  8
DETAIL
  6
CONTINUOUS
 62
     5
 10
-106.6047919999999
 20
192.26480000000001
 30
0.0
 11
-106.61155599999999
 21
192.346498
 31
0.0
  0
LINE
  5
BC
  8
DETAIL
  6
CONTINUOUS
 62
     5
 10
-106.59950600000001
 20
192.1794459999999
 30
0.0
 11
-106.6047919999999
 21
192.26480000000001
 31
0.0
  0
LINE
  5
BD
  8
DETAIL
  6
CONTINUOUS
 62
     5
 10
-106.5959389999999
 20
192.09021799999991
 30
0.0
 11
-106.59950600000001
 21
192.1794459999999
 31
0.0
  0
LINE
  5
BE
  8
DETAIL
  6
CONTINUOUS
 62
     5
 10
-106.59401200000001
 20
191.99718899999999
 30
0.0
 11
-106.5959389999999
 21
192.09021799999991
 31
0.0
  0
LINE
  5
BF
  8
DETAIL
  6
CONTINUOUS
 62
     5
 10
-106.358411
 20
165.0
 30
0.0
 11
-106.44568
 21
175.0
 31
0.0
  0
LINE
  5
C0
  8
DETAIL
  6
CONTINUOUS
 62
     5
 10
-108.12281
 20
191.99718899999999
 30
0.0
 11
-108.210054
 21
182.0
 31
0.0
  0
LINE
  5
C1
  8
DETAIL
  6
CONTINUOUS
 62
     5
 10
-108.20328000000001
 20
182.42242300000001
 30
0.0
 11
-108.206457
 21
182.41224
 31
0.0
  0
LINE
  5
C2
  8
DETAIL
  6
CONTINUOUS
 62
     5
 10
-108.19395799999999
 20
182.43254400000001
 30
0.0
 11
-108.20328000000001
 21
182.42242300000001
 31
0.0
  0
LINE
  5
C3
  8
DETAIL
  6
CONTINUOUS
 62
     5
 10
-108.178597
 20
182.44231099999999
 30
0.0
 11
-108.19395799999999
 21
182.43254400000001
 31
0.0
  0
LINE
  5
C4
  8
DETAIL
  6
CONTINUOUS
 62
     5
 10
-108.15736699999999
 20
182.45165800000001
 30
0.0
 11
-108.178597
 21
182.44231099999999
 31
0.0
  0
LINE
  5
C5
  8
DETAIL
  6
CONTINUOUS
 62
     5
 10
-108.130509
 20
182.46047499999989
 30
0.0
 11
-108.15736699999999
 21
182.45165800000001
 31
0.0
  0
LINE
  5
C6
  8
DETAIL
  6
CONTINUOUS
 62
     5
 10
-108.098332
 20
182.4686439999999
 30
0.0
 11
-108.130509
 21
182.46047499999989
 31
0.0
  0
LINE
  5
C7
  8
DETAIL
  6
CONTINUOUS
 62
     5
 10
-108.061211
 20
182.47607099999991
 30
0.0
 11
-108.098332
 21
182.4686439999999
 31
0.0
  0
LINE
  5
C8
  8
DETAIL
  6
CONTINUOUS
 62
     5
 10
-108.01958500000001
 20
182.48264900000001
 30
0.0
 11
-108.061211
 21
182.47607099999991
 31
0.0
  0
LINE
  5
C9
  8
DETAIL
  6
CONTINUOUS
 62
     5
 10
-107.973949
 20
182.488305
 30
0.0
 11
-108.01958500000001
 21
182.48264900000001
 31
0.0
  0
LINE
  5
CA
  8
DETAIL
  6
CONTINUOUS
 62
     5
 10
-107.924857
 20
182.4929479999999
 30
0.0
 11
-107.973949
 21
182.488305
 31
0.0
  0
LINE
  5
CB
  8
DETAIL
  6
CONTINUOUS
 62
     5
 10
-107.872862
 20
182.49653599999999
 30
0.0
 11
-107.924857
 21
182.4929479999999
 31
0.0
  0
LINE
  5
CC
  8
DETAIL
  6
CONTINUOUS
 62
     5
 10
-107.818736
 20
182.49898400000001
 30
0.0
 11
-107.872862
 21
182.49653599999999
 31
0.0
  0
LINE
  5
CD
  8
DETAIL
  6
CONTINUOUS
 62
     5
 10
-107.76329199999989
 20
182.50028699999999
 30
0.0
 11
-107.818736
 21
182.49898400000001
 31
0.0
  0
LINE
  5
CE
  8
DETAIL
  6
CONTINUOUS
 62
     5
 10
-106.954262
 20
182.500272
 30
0.0
 11
-107.76329199999989
 21
182.50028699999999
 31
0.0
  0
LINE
  5
CF
  8
DETAIL
  6
CONTINUOUS
 62
     5
 10
-106.51352299999991
 20
182.422506
 30
0.0
 11
-106.51036599999991
 21
182.41224
 31
0.0
  0
LINE
  5
D0
  8
DETAIL
  6
CONTINUOUS
 62
     5
 10
-106.5228019999999
 20
182.43249399999991
 30
0.0
 11
-106.51352299999991
 21
182.422506
 31
0.0
  0
LINE
  5
D1
  8
DETAIL
  6
CONTINUOUS
 62
     5
 10
-106.538124
 20
182.44225499999999
 30
0.0
 11
-106.5228019999999
 21
182.43249399999991
 31
0.0
  0
LINE
  5
D2
  8
DETAIL
  6
CONTINUOUS
 62
     5
 10
-106.559333
 20
182.45161200000001
 30
0.0
 11
-106.538124
 21
182.44225499999999
 31
0.0
  0
LINE
  5
D3
  8
DETAIL
  6
CONTINUOUS
 62
     5
 10
-106.586201
 20
182.4604379999999
 30
0.0
 11
-106.559333
 21
182.45161200000001
 31
0.0
  0
LINE
  5
D4
  8
DETAIL
  6
CONTINUOUS
 62
     5
 10
-106.6184199999999
 20
182.46862799999991
 30
0.0
 11
-106.586201
 21
182.4604379999999
 31
0.0
  0
LINE
  5
D5
  8
DETAIL
  6
CONTINUOUS
 62
     5
 10
-106.65561099999999
 20
182.47606499999989
 30
0.0
 11
-106.6184199999999
 21
182.46862799999991
 31
0.0
  0
LINE
  5
D6
  8
DETAIL
  6
CONTINUOUS
 62
     5
 10
-106.697327
 20
182.48266199999989
 30
0.0
 11
-106.65561099999999
 21
182.47606499999989
 31
0.0
  0
LINE
  5
D7
  8
DETAIL
  6
CONTINUOUS
 62
     5
 10
-106.7430539999999
 20
182.48831599999991
 30
0.0
 11
-106.697327
 21
182.48266199999989
 31
0.0
  0
LINE
  5
D8
  8
DETAIL
  6
CONTINUOUS
 62
     5
 10
-106.792222
 20
182.4929689999999
 30
0.0
 11
-106.7430539999999
 21
182.48831599999991
 31
0.0
  0
LINE
  5
D9
  8
DETAIL
  6
CONTINUOUS
 62
     5
 10
-106.844168
 20
182.4965379999999
 30
0.0
 11
-106.792222
 21
182.4929689999999
 31
0.0
  0
LINE
  5
DA
  8
DETAIL
  6
CONTINUOUS
 62
     5
 10
-106.8983639999999
 20
182.4989929999999
 30
0.0
 11
-106.844168
 21
182.4965379999999
 31
0.0
  0
LINE
  5
DB
  8
DETAIL
  6
CONTINUOUS
 62
     5
 10
-106.954262
 20
182.500272
 30
0.0
 11
-106.8983639999999
 21
182.4989929999999
 31
0.0
  0
LINE
  5
DC
  8
DETAIL
  6
CONTINUOUS
 62
     5
 10
-95.461652000000001
 20
174.75
 30
0.0
 11
-95.483525
 21
175.0
 31
0.0
  0
LINE
  5
DD
  8
DETAIL
  6
CONTINUOUS
 62
     5
 10
-98.118724
 20
75.50269200000001
 30
0.0
 11
-96.599418
 21
162.54363099999989
 31
0.0
  0
LINE
  5
DE
  8
DETAIL
  6
CONTINUOUS
 62
     5
 10
-114.44175899999991
 20
174.75
 30
0.0
 11
-115.9489659999999
 21
174.75
 31
0.0
  0
LINE
  5
DF
  8
DETAIL
  6
CONTINUOUS
 62
     5
 10
-77.112695000000002
 20
162.5378739999999
 30
0.0
 11
-74.650000000000006
 21
0.0
 31
0.0
  0
LINE
  5
E0
  8
DETAIL
  6
CONTINUOUS
 62
     5
 10
121.41317099999991
 20
165.0
 30
0.0
 11
-114.407725
 21
165.0
 31
0.0
  0
LINE
  5
E1
  8
DETAIL
  6
CONTINUOUS
 62
     5
 10
-114.80375600000001
 20
183.42028999999999
 30
0.0
 11
-114.8070689999999
 21
183.4203949999999
 31
0.0
  0
LINE
  5
E2
  8
DETAIL
  6
CONTINUOUS
 62
     5
 10
-114.7941909999999
 20
183.41901100000001
 30
0.0
 11
-114.80375600000001
 21
183.42028999999999
 31
0.0
  0
LINE
  5
E3
  8
DETAIL
  6
CONTINUOUS
 62
     5
 10
-114.77844499999991
 20
183.4165999999999
 30
0.0
 11
-114.7941909999999
 21
183.41901100000001
 31
0.0
  0
LINE
  5
E4
  8
DETAIL
  6
CONTINUOUS
 62
     5
 10
-114.7567479999999
 20
183.4130649999999
 30
0.0
 11
-114.77844499999991
 21
183.4165999999999
 31
0.0
  0
LINE
  5
E5
  8
DETAIL
  6
CONTINUOUS
 62
     5
 10
-114.6968699999999
 20
183.40290200000001
 30
0.0
 11
-114.7567479999999
 21
183.4130649999999
 31
0.0
  0
LINE
  5
E6
  8
DETAIL
  6
CONTINUOUS
 62
     5
 10
-114.57220700000001
 20
183.3809939999999
 30
0.0
 11
-114.6968699999999
 21
183.40290200000001
 31
0.0
  0
LINE
  5
E7
  8
DETAIL
  6
CONTINUOUS
 62
     5
 10
-114.3085899999999
 20
183.33327600000001
 30
0.0
 11
-114.57220700000001
 21
183.3809939999999
 31
0.0
  0
LINE
  5
E8
  8
DETAIL
  6
CONTINUOUS
 62
     5
 10
-66.349999999999994
 20
0.0
 30
0.0
 11
-63.887305000000012
 21
162.5378739999999
 31
0.0
  0
LINE
  5
E9
  8
DETAIL
  6
CONTINUOUS
 62
     5
 10
-90.858411000000004
 20
165.0
 30
0.0
 11
-95.461652000000001
 21
174.75
 31
0.0
  0
LINE
  5
EA
  8
DETAIL
  6
CONTINUOUS
 62
     5
 10
126.8828239999999
 20
0.029489
 30
0.0
 11
126.8243879999999
 21
0.052018
 31
0.0
  0
LINE
  5
EB
  8
DETAIL
  6
CONTINUOUS
 62
     5
 10
126.7690639999999
 20
0.080469
 30
0.0
 11
126.746624
 21
0.095127
 31
0.0
  0
LINE
  5
EC
  8
DETAIL
  6
CONTINUOUS
 62
     5
 10
126.8243879999999
 20
0.052018
 30
0.0
 11
126.7690639999999
 21
0.080469
 31
0.0
  0
LINE
  5
ED
  8
DETAIL
  6
CONTINUOUS
 62
     5
 10
-115.7019899999999
 20
174.7459879999999
 30
0.0
 11
-115.70784399999999
 21
174.75
 31
0.0
  0
LINE
  5
EE
  8
DETAIL
  6
CONTINUOUS
 62
     5
 10
-115.6873189999999
 20
174.73357499999989
 30
0.0
 11
-115.7019899999999
 21
174.7459879999999
 31
0.0
  0
LINE
  5
EF
  8
DETAIL
  6
CONTINUOUS
 62
     5
 10
-115.6639939999999
 20
174.71217999999999
 30
0.0
 11
-115.6873189999999
 21
174.73357499999989
 31
0.0
  0
LINE
  5
F0
  8
DETAIL
  6
CONTINUOUS
 62
     5
 10
-115.63153200000001
 20
174.681397
 30
0.0
 11
-115.6639939999999
 21
174.71217999999999
 31
0.0
  0
LINE
  5
F1
  8
DETAIL
  6
CONTINUOUS
 62
     5
 10
-115.589471
 20
174.640951
 30
0.0
 11
-115.63153200000001
 21
174.681397
 31
0.0
  0
LINE
  5
F2
  8
DETAIL
  6
CONTINUOUS
 62
     5
 10
-115.5379209999999
 20
174.590712
 30
0.0
 11
-115.589471
 21
174.640951
 31
0.0
  0
LINE
  5
F3
  8
DETAIL
  6
CONTINUOUS
 62
     5
 10
-115.40622
 20
174.46109300000001
 30
0.0
 11
-115.5379209999999
 21
174.590712
 31
0.0
  0
LINE
  5
F4
  8
DETAIL
  6
CONTINUOUS
 62
     5
 10
-115.129654
 20
174.18589700000001
 30
0.0
 11
-115.40622
 21
174.46109300000001
 31
0.0
  0
LINE
  5
F5
  8
DETAIL
  6
CONTINUOUS
 62
     5
 10
-114.437359
 20
173.48938699999999
 30
0.0
 11
-115.129654
 21
174.18589700000001
 31
0.0
  0
LINE
  5
F6
  8
DETAIL
  6
CONTINUOUS
 62
     5
 10
-97.645240000000015
 20
186.28682900000001
 30
0.0
 11
-103.77262499999991
 21
192.4142139999999
 31
0.0
  0
LINE
  5
F7
  8
DETAIL
  6
CONTINUOUS
 62
     5
 10
-114.09531
 20
75.5
 30
0.0
 11
-98.118770999999995
 21
75.5
 31
0.0
  0
LINE
  5
F8
  8
DETAIL
  6
CONTINUOUS
 62
     5
 10
41.788772999999992
 20
162.53938899999989
 30
0.0
 11
44.350000000000001
 21
0.0
 31
0.0
  0
LINE
  5
F9
  8
DETAIL
  6
CONTINUOUS
 62
     5
 10
52.649999999999999
 20
0.0
 30
0.0
 11
55.112695000000002
 21
162.5378739999999
 31
0.0
  0
LINE
  5
FA
  8
DETAIL
  6
CONTINUOUS
 62
     5
 10
126.943273
 20
0.013088
 30
0.0
 11
126.8828239999999
 21
0.029489
 31
0.0
  0
LINE
  5
FB
  8
DETAIL
  6
CONTINUOUS
 62
     5
 10
127.0042429999999
 20
0.003314
 30
0.0
 11
126.943273
 21
0.013088
 31
0.0
  0
LINE
  5
FC
  8
DETAIL
  6
CONTINUOUS
 62
     5
 10
127.066233
 20
0.0
 30
0.0
 11
127.0042429999999
 21
0.003314
 31
0.0
  0
LINE
  5
FD
  8
DETAIL
  6
CONTINUOUS
 62
     5
 10
126.75
 20
0.0
 30
0.0
 11
123.9127899999999
 21
162.54363099999989
 31
0.0
  0
LINE
  5
FE
  8
DETAIL
  6
CONTINUOUS
 62
     5
 10
126.67066799999991
 20
4.5449349999999988
 30
0.0
 11
126.748203
 21
0.0
 31
0.0
  0
LINE
  5
FF
  8
DETAIL
  6
CONTINUOUS
 62
     5
 10
-96.095945
 20
182.0
 30
0.0
 11
-96.199801000000008
 21
183.187074
 31
0.0
  0
LINE
  5
100
  8
DETAIL
  6
CONTINUOUS
 62
     5
 10
-106.50676799999989
 20
182.0
 30
0.0
 11
-106.59401200000001
 21
191.99718899999999
 31
0.0
  0
LINE
  5
101
  8
DETAIL
  6
CONTINUOUS
 62
     5
 10
-108.271143
 20
175.0
 30
0.0
 11
-108.358411
 21
165.0
 31
0.0
  0
LINE
  5
102
  8
DETAIL
  6
CONTINUOUS
 62
     5
 10
-114.831862
 20
182.0
 30
0.0
 11
-114.8070689999999
 21
183.4203949999999
 31
0.0
  0
ARC
  5
103
  8
DETAIL
  6
CONTINUOUS
 62
     5
 10
94.355562000000006
 20
167.5
 30
0.0
 40
0.5
 50
3.0
 51
90.0
  0
LINE
  5
104
  8
DETAIL
  6
CONTINUOUS
 62
     5
 10
94.987267000000003
 20
165.0
 30
0.0
 11
94.854877000000002
 21
167.52616800000001
 31
0.0
  0
LINE
  5
105
  8
DETAIL
  6
CONTINUOUS
 62
     5
 10
94.355562000000006
 20
168.0
 30
0.0
 11
-92.274793000000003
 21
168.0
 31
0.0
  0
ARC
  5
106
  8
DETAIL
  6
CONTINUOUS
 62
     5
 10
47.999996000000003
 20
194.5000169999999
 30
0.0
 40
5.5
 50
0.0
 51
90.0
  0
LINE
  5
107
  8
DETAIL
  6
CONTINUOUS
 62
     5
 10
53.499996000000003
 20
194.5000169999999
 30
0.0
 11
53.499996000000003
 21
168.0
 31
0.0
  0
ARC
  5
108
  8
DETAIL
  6
CONTINUOUS
 62
     5
 10
-23.000004000000001
 20
194.5000169999999
 30
0.0
 40
5.5
 50
90.0
 51
180.0
  0
LINE
  5
109
  8
DETAIL
  6
CONTINUOUS
 62
     5
 10
47.999996000000003
 20
200.0000169999999
 30
0.0
 11
12.999995999999999
 21
200.0000169999999
 31
0.0
  0
LINE
  5
10A
  8
DETAIL
  6
CONTINUOUS
 62
     5
 10
-23.000004000000001
 20
200.0000169999999
 30
0.0
 11
12.999995999999999
 21
200.0000169999999
 31
0.0
  0
LINE
  5
10B
  8
DETAIL
  6
CONTINUOUS
 62
     5
 10
-117.73135499999999
 20
181.287453
 30
0.0
 11
-117.945728
 21
177.0
 31
0.0
  0
LINE
  5
10C
  8
DETAIL
  6
CONTINUOUS
 62
     5
 10
-117.73135499999999
 20
181.287453
 30
0.0
 11
-117.945728
 21
177.0
 31
0.0
  0
LINE
  5
10D
  8
DETAIL
  6
CONTINUOUS
 62
     5
 10
-117.945728
 20
177.0
 30
0.0
 11
-121.945728
 21
177.0
 31
0.0
  0
LINE
  5
10E
  8
DETAIL
  6
CONTINUOUS
 62
     5
 10
-123.9453639999999
 20
175.0
 30
0.0
 11
-127.0
 21
0.0
 31
0.0
  0
ARC
  5
10F
  8
DETAIL
  6
CONTINUOUS
 62
     5
 10
-121.945728
 20
175.0
 30
0.0
 40
2.0
 50
90.0
 51
180.0
  0
ARC
  5
110
  8
DETAIL
  6
CONTINUOUS
 62
     5
 10
-121.945728
 20
175.0
 30
0.0
 40
2.0
 50
90.0
 51
180.0
  0
LINE
  5
111
  8
DETAIL
  6
CONTINUOUS
 62
     5
 10
-115.944602
 20
175.0
 30
0.0
 11
-118.99923799999991
 21
0.0
 31
0.0
  0
ARC
  5
112
  8
DETAIL
  6
CONTINUOUS
 62
     5
 10
-116.9822909999999
 20
181.25
 30
0.0
 40
0.75
 50
90.0
 51
177.137595
  0
LINE
  5
113
  8
DETAIL
  6
CONTINUOUS
 62
     5
 10
-116.9822909999999
 20
182.0
 30
0.0
 11
-116.9091639999999
 21
182.0
 31
0.0
  0
LINE
  5
114
  8
DETAIL
  6
CONTINUOUS
 62
     5
 10
-116.9822909999999
 20
182.0
 30
0.0
 11
-116.9091639999999
 21
182.0
 31
0.0
  0
ARC
  5
115
  8
DETAIL
  6
CONTINUOUS
 62
     5
 10
-116.9822909999999
 20
181.25
 30
0.0
 40
0.75
 50
90.0
 51
177.137595
  0
LINE
  5
116
  8
DETAIL
  6
CONTINUOUS
 62
     5
 10
-116.9822909999999
 20
182.0
 30
0.0
 11
-88.919420000000002
 21
182.0
 31
0.0
  0
LINE
  5
117
  8
DETAIL
  6
CONTINUOUS
 62
     5
 10
-116.9822909999999
 20
182.0
 30
0.0
 11
-88.919420000000002
 21
182.0
 31
0.0
  0
LINE
  5
118
  8
DETAIL
  6
CONTINUOUS
 62
     5
 10
-87.945728000000003
 20
175.0
 30
0.0
 11
-115.944602
 21
175.0
 31
0.0
  0
LINE
  5
119
  8
DETAIL
  6
CONTINUOUS
 62
     5
 10
-88.982291000000004
 20
182.0
 30
0.0
 11
-88.919420000000002
 21
182.0
 31
0.0
  0
LINE
  5
11A
  8
DETAIL
  6
CONTINUOUS
 62
     5
 10
-88.169897999999989
 20
181.276769
 30
0.0
 11
-87.945728000000003
 21
175.0
 31
0.0
  0
ARC
  5
11B
  8
DETAIL
  6
CONTINUOUS
 62
     5
 10
-88.919420000000002
 20
181.25
 30
0.0
 40
0.75
 50
2.0454080000000001
 51
90.0
  0
ARC
  5
11C
  8
DETAIL
  6
CONTINUOUS
 62
     5
 10
-88.919420000000002
 20
181.25
 30
0.0
 40
0.75
 50
2.0454080000000001
 51
90.0
  0
LINE
  5
11D
  8
DETAIL
  6
CONTINUOUS
 62
     5
 10
-88.169897999999989
 20
181.276769
 30
0.0
 11
-87.945728000000003
 21
175.0
 31
0.0
  0
LINE
  5
11E
  8
DETAIL
  6
CONTINUOUS
 62
     5
 10
-88.982291000000004
 20
182.0
 30
0.0
 11
-88.919420000000002
 21
182.0
 31
0.0
  0
LINE
  5
11F
  8
BASIS
  6
DASHDOT
 62
     6
 10
-125.10612500000001
 20
108.4999999999999
 30
0.0
 11
-265.78472799999992
 21
108.4999999999999
 31
0.0
  0
ARC
  5
120
  8
DETAIL
  6
CONTINUOUS
 62
     5
 10
-236.50872799999999
 20
59.995578999999999
 30
0.0
 40
0.5
 50
180.0
 51
269.5
  0
ARC
  5
121
  8
DETAIL
  6
CONTINUOUS
 62
     5
 10
-236.50872799999999
 20
59.995578999999999
 30
0.0
 40
0.5
 50
180.0
 51
269.5
  0
ARC
  5
122
  8
DETAIL
  6
CONTINUOUS
 62
     5
 10
-236.50872799999999
 20
157.00442100000001
 30
0.0
 40
0.5
 50
90.5
 51
180.0
  0
ARC
  5
123
  8
DETAIL
  6
CONTINUOUS
 62
     5
 10
-236.50872799999999
 20
157.00442100000001
 30
0.0
 40
0.5
 50
90.5
 51
180.0
  0
ARC
  5
124
  8
DETAIL
  6
CONTINUOUS
 62
     5
 10
-125.1512509999999
 20
163.21343899999999
 30
0.0
 40
1.0
 50
271.0
 51
359.0
  0
ARC
  5
125
  8
DETAIL
  6
CONTINUOUS
 62
     5
 10
-125.1512509999999
 20
163.21343899999999
 30
0.0
 40
1.0
 50
271.0
 51
359.0
  0
LINE
  5
126
  8
DETAIL
  6
CONTINUOUS
 62
     5
 10
-167.03490400000001
 20
161.49966000000001
 30
0.0
 11
-125.1337989999999
 21
162.21359200000001
 31
0.0
  0
LINE
  5
127
  8
DETAIL
  6
CONTINUOUS
 62
     5
 10
-167.03490400000001
 20
161.49966000000001
 30
0.0
 11
-125.1337989999999
 21
162.21359200000001
 31
0.0
  0
ARC
  5
128
  8
DETAIL
  6
CONTINUOUS
 62
     5
 10
-202.7543169999999
 20
159.1878649999999
 30
0.0
 40
2.0
 50
90.5
 51
135.0
  0
LINE
  5
129
  8
DETAIL
  6
CONTINUOUS
 62
     5
 10
-206.43015700000001
 20
158.340452
 30
0.0
 11
-204.168531
 21
160.602079
 31
0.0
  0
ARC
  5
12A
  8
DETAIL
  6
CONTINUOUS
 62
     5
 10
-207.844371
 20
159.7546659999999
 30
0.0
 40
2.0
 50
270.5
 51
315.0
  0
LINE
  5
12B
  8
DETAIL
  6
CONTINUOUS
 62
     5
 10
-167.03490400000001
 20
161.49966000000001
 30
0.0
 11
-202.77177
 21
161.1877889999999
 31
0.0
  0
LINE
  5
12C
  8
DETAIL
  6
CONTINUOUS
 62
     5
 10
-167.03490400000001
 20
161.49966000000001
 30
0.0
 11
-202.77177
 21
161.1877889999999
 31
0.0
  0
ARC
  5
12D
  8
DETAIL
  6
CONTINUOUS
 62
     5
 10
-207.844371
 20
159.7546659999999
 30
0.0
 40
2.0
 50
270.5
 51
315.0
  0
ARC
  5
12E
  8
DETAIL
  6
CONTINUOUS
 62
     5
 10
-202.7543169999999
 20
159.1878649999999
 30
0.0
 40
2.0
 50
90.5
 51
135.0
  0
LINE
  5
12F
  8
DETAIL
  6
CONTINUOUS
 62
     5
 10
-207.00872799999999
 20
157.93760800000001
 30
0.0
 11
-207.00872799999999
 21
59.062392000000003
 31
0.0
  0
LINE
  5
130
  8
DETAIL
  6
CONTINUOUS
 62
     5
 10
-203.58996099999999
 20
55.995077000000002
 30
0.0
 11
-203.58996099999999
 21
161.00492299999991
 31
0.0
  0
LINE
  5
131
  8
DETAIL
  6
CONTINUOUS
 62
     5
 10
-167.00872799999991
 20
55.50011099999999
 30
0.0
 11
-167.00872799999991
 21
161.50011699999999
 31
0.0
  0
LINE
  5
132
  8
DETAIL
  6
CONTINUOUS
 62
     5
 10
-203.58996099999999
 20
85.120975999999999
 30
0.0
 11
-203.58996099999999
 21
108.4999999999999
 31
0.0
  0
LINE
  5
133
  8
DETAIL
  6
CONTINUOUS
 62
     5
 10
-203.58996099999999
 20
85.120975999999999
 30
0.0
 11
-203.58996099999999
 21
108.4999999999999
 31
0.0
  0
LINE
  5
134
  8
DETAIL
  6
CONTINUOUS
 62
     5
 10
-167.00872799999991
 20
57.5
 30
0.0
 11
-167.00872799999991
 21
57.513089999999998
 31
0.0
  0
LINE
  5
135
  8
DETAIL
  6
CONTINUOUS
 62
     5
 10
-167.00872799999991
 20
57.499999000000003
 30
0.0
 11
-167.00872799999991
 21
57.5
 31
0.0
  0
LINE
  5
136
  8
DETAIL
  6
CONTINUOUS
 62
     5
 10
-167.00872799999991
 20
58.013089999999998
 30
0.0
 11
-167.00872799999991
 21
58.017454000000001
 31
0.0
  0
LINE
  5
137
  8
DETAIL
  6
CONTINUOUS
 62
     5
 10
-167.00872799999991
 20
58.013089999999998
 30
0.0
 11
-167.00872799999991
 21
58.017454000000001
 31
0.0
  0
LINE
  5
138
  8
DETAIL
  6
CONTINUOUS
 62
     5
 10
-167.00872799999991
 20
57.499999000000003
 30
0.0
 11
-167.00872799999991
 21
57.5
 31
0.0
  0
LINE
  5
139
  8
DETAIL
  6
CONTINUOUS
 62
     5
 10
-167.00872799999991
 20
57.5
 30
0.0
 11
-167.00872799999991
 21
57.513089999999998
 31
0.0
  0
LINE
  5
13A
  8
DETAIL
  6
CONTINUOUS
 62
     5
 10
-126.092337
 20
52.0
 30
0.0
 11
-167.115015
 21
55.501038999999992
 31
0.0
  0
LINE
  5
13B
  8
DETAIL
  6
CONTINUOUS
 62
     5
 10
-126.092337
 20
52.0
 30
0.0
 11
-167.115015
 21
55.501038999999992
 31
0.0
  0
LINE
  5
13C
  8
DETAIL
  6
CONTINUOUS
 62
     5
 10
-167.115015
 20
55.501038999999992
 30
0.0
 11
-202.77177
 21
55.812210999999998
 31
0.0
  0
LINE
  5
13D
  8
DETAIL
  6
CONTINUOUS
 62
     5
 10
-167.115015
 20
55.501038999999992
 30
0.0
 11
-202.77177
 21
55.812210999999998
 31
0.0
  0
LINE
  5
13E
  8
DETAIL
  6
CONTINUOUS
 62
     5
 10
-207.82691799999989
 20
59.245257999999993
 30
0.0
 11
-236.51309099999989
 21
59.495598000000001
 31
0.0
  0
LINE
  5
13F
  8
DETAIL
  6
CONTINUOUS
 62
     5
 10
-206.43015700000001
 20
58.659548000000001
 30
0.0
 11
-204.168531
 21
56.397920999999997
 31
0.0
  0
ARC
  5
140
  8
DETAIL
  6
CONTINUOUS
 62
     5
 10
-207.844371
 20
57.245334
 30
0.0
 40
2.0
 50
45.0
 51
89.500000000000014
  0
ARC
  5
141
  8
DETAIL
  6
CONTINUOUS
 62
     5
 10
-202.7543169999999
 20
57.812134999999991
 30
0.0
 40
2.0
 50
225.0
 51
269.5
  0
ARC
  5
142
  8
DETAIL
  6
CONTINUOUS
 62
     5
 10
-236.50872799999999
 20
59.995578999999999
 30
0.0
 40
0.5
 50
180.0
 51
269.5
  0
ARC
  5
143
  8
DETAIL
  6
CONTINUOUS
 62
     5
 10
-236.50872799999999
 20
59.995578999999999
 30
0.0
 40
0.5
 50
180.0
 51
269.5
  0
ARC
  5
144
  8
DETAIL
  6
CONTINUOUS
 62
     5
 10
-202.7543169999999
 20
57.812134999999991
 30
0.0
 40
2.0
 50
225.0
 51
269.5
  0
ARC
  5
145
  8
DETAIL
  6
CONTINUOUS
 62
     5
 10
-207.844371
 20
57.245334
 30
0.0
 40
2.0
 50
45.0
 51
89.500000000000014
  0
LINE
  5
146
  8
DETAIL
  6
CONTINUOUS
 62
     5
 10
-206.43015700000001
 20
58.659548000000001
 30
0.0
 11
-204.168531
 21
56.397920999999997
 31
0.0
  0
LINE
  5
147
  8
DETAIL
  6
CONTINUOUS
 62
     5
 10
-207.82691799999989
 20
59.245257999999993
 30
0.0
 11
-236.51309099999989
 21
59.495598000000001
 31
0.0
  0
ARC
  5
148
  8
DETAIL
  6
CONTINUOUS
 62
     5
 10
-236.50872799999999
 20
157.00442100000001
 30
0.0
 40
0.5
 50
90.5
 51
180.0
  0
LINE
  5
149
  8
DETAIL
  6
CONTINUOUS
 62
     5
 10
-237.00872799999991
 20
157.00442100000001
 30
0.0
 11
-237.00872799999991
 21
59.995578999999999
 31
0.0
  0
LINE
  5
14A
  8
DETAIL
  6
CONTINUOUS
 62
     5
 10
-207.82691799999989
 20
157.75474199999991
 30
0.0
 11
-236.51309099999989
 21
157.50440199999991
 31
0.0
  0
LINE
  5
14B
  8
DETAIL
  6
CONTINUOUS
 62
     5
 10
-207.82691799999989
 20
157.75474199999991
 30
0.0
 11
-236.51309099999989
 21
157.50440199999991
 31
0.0
  0
TEXT
  5
14C
  8
ETC
  6
CONTINUOUS
 62
    61
 10
453.51084500000002
 20
1169.976711
 30
0.0
 40
64.0
  1
VD-15ZC9-BL_4
 41
0.9
  0
TEXT
  5
14D
  8
ETC
  6
CONTINUOUS
 62
    61
 10
449.32485099999991
 20
1052.0214009999991
 30
0.0
 40
64.0
  1
èÀïCÉ¯
 41
0.9
  0
TEXT
  5
14E
  8
ETC
  6
CONTINUOUS
 62
    61
 10
499.93235399999998
 20
945.10046499999987
 30
0.0
 40
40.0
  1
VD-15ZC9-BL
 41
0.9
  0
TEXT
  5
14F
  8
ETC
  6
CONTINUOUS
 62
    61
 10
499.93235399999998
 20
870.63149899999996
 30
0.0
 40
40.0
  1
VD-15ZC9
 41
0.9
  0
TEXT
  5
150
  8
ETC
  6
CONTINUOUS
 62
    61
 10
499.93235399999998
 20
796.85769900000003
 30
0.0
 40
40.0
  1
VD-15ZLC9
 41
0.9
  0
TEXT
  5
151
  8
ETC
  6
CONTINUOUS
 62
    61
 10
499.93235399999998
 20
719.17238599999996
 30
0.0
 40
40.0
  1
VD-15ZLC9-S
 41
0.9
  0
TEXT
  5
152
  8
ETC
  6
CONTINUOUS
 62
    61
 10
499.93235399999998
 20
644.70342000000005
 30
0.0
 40
40.0
  1

 41
0.9
  0
TEXT
  5
153
  8
ETC
  6
CONTINUOUS
 62
    61
 10
982.89422899999977
 20
945.10046499999987
 30
0.0
 40
40.0
  1
VD-15ZLPC9-S
 41
0.9
  0
TEXT
  5
154
  8
ETC
  6
CONTINUOUS
 62
    61
 10
982.89422899999977
 20
870.63149899999996
 30
0.0
 40
40.0
  1
VD-15ZPC9
 41
0.9
  0
TEXT
  5
155
  8
ETC
  6
CONTINUOUS
 62
    61
 10
982.89422899999977
 20
796.85769900000003
 30
0.0
 40
40.0
  1
VD-15ZPC9-BL
 41
0.9
  0
TEXT
  5
156
  8
ETC
  6
CONTINUOUS
 62
    61
 10
982.89422899999977
 20
719.17238599999996
 30
0.0
 40
40.0
  1
VD-15ZPPC9-BL
 41
0.9
  0
LINE
  5
157
  8
NOTE
  6
CONTINUOUS
 62
     4
 39
50.0
 10
-85.0
 20
-7.477714999999999
 30
0.0
 11
-85.0
 21
9.9933689999999995
 31
0.0
  0
CIRCLE
  5
158
  8
FIX
  6
CONTINUOUS
 62
    11
 39
50.0
 10
-85.0
 20
0.0
 30
0.0
 40
2.5
  0
LINE
  5
159
  8
NOTE
  6
CONTINUOUS
 62
     4
 39
50.0
 10
85.0
 20
-7.477714999999999
 30
0.0
 11
85.0
 21
9.9933689999999995
 31
0.0
  0
CIRCLE
  5
15A
  8
FIX
  6
CONTINUOUS
 62
    11
 39
50.0
 10
85.0
 20
0.0
 30
0.0
 40
2.5
  0
LINE
  5
15B
  8
NOTE
  6
CONTINUOUS
 62
     4
 39
50.0
 10
141.5
 20
-7.477714999999999
 30
0.0
 11
141.5
 21
9.9933689999999995
 31
0.0
  0
CIRCLE
  5
15C
  8
FIX
  6
CONTINUOUS
 62
    11
 39
50.0
 10
141.5
 20
0.0
 30
0.0
 40
2.5
  0
LINE
  5
15D
  8
SIZE
  6
CONTINUOUS
 62
    30
 10
-85.0
 20
-27.477715
 30
0.0
 11
-85.0
 21
-237.043396
 31
0.0
  0
LINE
  5
15E
  8
SIZE
  6
CONTINUOUS
 62
    30
 10
85.0
 20
-27.477715
 30
0.0
 11
85.0
 21
-237.043396
 31
0.0
  0
LINE
  5
15F
  8
SIZE
  6
CONTINUOUS
 62
    30
 10
-97.0
 20
-217.04339599999989
 30
0.0
 11
-109.0
 21
-217.04339599999989
 31
0.0
  0
LINE
  5
160
  8
SIZE
  6
CONTINUOUS
 62
    30
 10
97.0
 20
-217.04339599999989
 30
0.0
 11
109.0
 21
-217.04339599999989
 31
0.0
  0
LINE
  5
161
  8
SIZE
  6
CONTINUOUS
 62
    30
 10
-85.0
 20
-217.04339599999989
 30
0.0
 11
85.0
 21
-217.04339599999989
 31
0.0
  0
CIRCLE
  5
162
  8
SIZE
  6
CONTINUOUS
 62
    30
 10
-85.0
 20
-217.04339599999989
 30
0.0
 40
6.0
  0
LINE
  5
163
  8
SIZE
  6
CONTINUOUS
 62
    30
 10
-85.0
 20
-217.04339599999989
 30
0.0
 11
-97.0
 21
-217.04339599999989
 31
0.0
  0
CIRCLE
  5
164
  8
SIZE
  6
CONTINUOUS
 62
    30
 10
85.0
 20
-217.04339599999989
 30
0.0
 40
6.0
  0
LINE
  5
165
  8
SIZE
  6
CONTINUOUS
 62
    30
 10
85.0
 20
-217.04339599999989
 30
0.0
 11
97.0
 21
-217.04339599999989
 31
0.0
  0
TEXT
  5
166
  8
SIZE
  6
CONTINUOUS
 62
    30
 10
-68.571428571428569
 20
-192.043396
 30
0.0
 40
64.0
  1
170
 41
0.9
 72
     1
 11
0.0
 21
-192.043396
 31
0.0
  0
POINT
  5
167
  8
DEFPOINTS
  6
CONTINUOUS
 62
    30
 10
-85.0
 20
-7.477714999999999
 30
0.0
  0
POINT
  5
168
  8
DEFPOINTS
  6
CONTINUOUS
 62
    30
 10
85.0
 20
-7.477714999999999
 30
0.0
  0
POINT
  5
169
  8
DEFPOINTS
  6
CONTINUOUS
 62
    30
 10
85.0
 20
-217.04339599999989
 30
0.0
  0
LINE
  5
16A
  8
SIZE
  6
CONTINUOUS
 62
    30
 10
-141.5
 20
-27.477715
 30
0.0
 11
-141.5
 21
-374.96883800000001
 31
0.0
  0
LINE
  5
16B
  8
SIZE
  6
CONTINUOUS
 62
    30
 10
141.5
 20
-27.477715
 30
0.0
 11
141.5
 21
-374.96883800000001
 31
0.0
  0
LINE
  5
16C
  8
SIZE
  6
CONTINUOUS
 62
    30
 10
-129.49999999999989
 20
-354.96883800000001
 30
0.0
 11
129.49999999999989
 21
-354.96883800000001
 31
0.0
  0
CIRCLE
  5
16D
  8
SIZE
  6
CONTINUOUS
 62
    30
 10
-141.5
 20
-354.96883800000001
 30
0.0
 40
6.0
  0
LINE
  5
16E
  8
SIZE
  6
CONTINUOUS
 62
    30
 10
-141.5
 20
-354.96883800000001
 30
0.0
 11
-129.49999999999989
 21
-354.96883800000001
 31
0.0
  0
CIRCLE
  5
16F
  8
SIZE
  6
CONTINUOUS
 62
    30
 10
141.5
 20
-354.96883800000001
 30
0.0
 40
6.0
  0
LINE
  5
170
  8
SIZE
  6
CONTINUOUS
 62
    30
 10
141.5
 20
-354.96883800000001
 30
0.0
 11
129.49999999999989
 21
-354.96883800000001
 31
0.0
  0
TEXT
  5
171
  8
SIZE
  6
CONTINUOUS
 62
    30
 10
-74.057142857142836
 20
-329.96883800000001
 30
0.0
 40
64.0
  1
283
 41
0.9
 72
     1
 11
0.0
 21
-329.96883800000001
 31
0.0
  0
POINT
  5
172
  8
DEFPOINTS
  6
CONTINUOUS
 62
    30
 10
-141.5
 20
-7.477714999999999
 30
0.0
  0
POINT
  5
173
  8
DEFPOINTS
  6
CONTINUOUS
 62
    30
 10
141.5
 20
-7.477714999999999
 30
0.0
  0
POINT
  5
174
  8
DEFPOINTS
  6
CONTINUOUS
 62
    30
 10
141.5
 20
-354.96883800000001
 30
0.0
  0
LINE
  5
175
  8
SIZE
  6
CONTINUOUS
 62
    30
 10
-165.0
 20
-25.298006999999998
 30
0.0
 11
-165.0
 21
-516.64029299999993
 31
0.0
  0
LINE
  5
176
  8
SIZE
  6
CONTINUOUS
 62
    30
 10
165.0
 20
-25.298006999999998
 30
0.0
 11
165.0
 21
-516.64029299999993
 31
0.0
  0
LINE
  5
177
  8
SIZE
  6
CONTINUOUS
 62
    30
 10
-153.0
 20
-496.64029299999999
 30
0.0
 11
153.0
 21
-496.64029299999999
 31
0.0
  0
CIRCLE
  5
178
  8
SIZE
  6
CONTINUOUS
 62
    30
 10
-165.0
 20
-496.64029299999999
 30
0.0
 40
6.0
  0
LINE
  5
179
  8
SIZE
  6
CONTINUOUS
 62
    30
 10
-165.0
 20
-496.64029299999999
 30
0.0
 11
-153.0
 21
-496.64029299999999
 31
0.0
  0
CIRCLE
  5
17A
  8
SIZE
  6
CONTINUOUS
 62
    30
 10
165.0
 20
-496.64029299999999
 30
0.0
 40
6.0
  0
LINE
  5
17B
  8
SIZE
  6
CONTINUOUS
 62
    30
 10
165.0
 20
-496.64029299999999
 30
0.0
 11
153.0
 21
-496.64029299999999
 31
0.0
  0
TEXT
  5
17C
  8
SIZE
  6
CONTINUOUS
 62
    30
 10
-110.5371428571428
 20
-471.64029299999999
 30
0.0
 40
64.0
  1
üá330
 41
0.9
 72
     1
 11
0.0
 21
-471.64029299999999
 31
0.0
  0
POINT
  5
17D
  8
DEFPOINTS
  6
CONTINUOUS
 62
    30
 10
-165.0
 20
-5.2980070000000001
 30
0.0
  0
POINT
  5
17E
  8
DEFPOINTS
  6
CONTINUOUS
 62
    30
 10
165.0
 20
-5.2980070000000001
 30
0.0
  0
POINT
  5
17F
  8
DEFPOINTS
  6
CONTINUOUS
 62
    30
 10
165.0
 20
-496.64029299999999
 30
0.0
  0
LINE
  5
180
  8
SIZE
  6
CONTINUOUS
 62
    30
 10
-184.0
 20
0.0
 30
0.0
 11
-629.92432999999994
 21
0.0
 31
0.0
  0
LINE
  5
181
  8
SIZE
  6
CONTINUOUS
 62
    30
 10
-147.08392499999999
 20
52.0
 30
0.0
 11
-629.92432999999994
 21
52.0
 31
0.0
  0
LINE
  5
182
  8
SIZE
  6
CONTINUOUS
 62
    30
 10
-609.92432999999994
 20
64.0
 30
0.0
 11
-609.92432999999994
 21
76.0
 31
0.0
  0
LINE
  5
183
  8
SIZE
  6
CONTINUOUS
 62
    30
 10
-609.92432999999994
 20
-12.0
 30
0.0
 11
-609.92432999999994
 21
-167.2571429999999
 31
0.0
  0
LINE
  5
184
  8
SIZE
  6
CONTINUOUS
 62
    30
 10
-609.92432999999994
 20
52.0
 30
0.0
 11
-609.92432999999994
 21
0.0
 31
0.0
  0
CIRCLE
  5
185
  8
SIZE
  6
CONTINUOUS
 62
    30
 10
-609.92432999999994
 20
52.0
 30
0.0
 40
6.0
  0
LINE
  5
186
  8
SIZE
  6
CONTINUOUS
 62
    30
 10
-609.92432999999994
 20
52.0
 30
0.0
 11
-609.92432999999994
 21
64.0
 31
0.0
  0
CIRCLE
  5
187
  8
SIZE
  6
CONTINUOUS
 62
    30
 10
-609.92432999999994
 20
0.0
 30
0.0
 40
6.0
  0
LINE
  5
188
  8
SIZE
  6
CONTINUOUS
 62
    30
 10
-609.92432999999994
 20
0.0
 30
0.0
 11
-609.92432999999994
 21
-12.0
 31
0.0
  0
TEXT
  5
189
  8
SIZE
  6
CONTINUOUS
 62
    30
 10
-634.92432999999994
 20
-142.25714242857131
 30
0.0
 40
64.0
  1
52
 50
90.0
 41
0.9
 72
     1
 11
-634.92432999999994
 21
-95.628570999999994
 31
0.0
  0
POINT
  5
18A
  8
DEFPOINTS
  6
CONTINUOUS
 62
    30
 10
-164.0
 20
0.0
 30
0.0
  0
POINT
  5
18B
  8
DEFPOINTS
  6
CONTINUOUS
 62
    30
 10
-127.08392499999989
 20
52.0
 30
0.0
  0
POINT
  5
18C
  8
DEFPOINTS
  6
CONTINUOUS
 62
    30
 10
-609.92432999999994
 20
52.0
 30
0.0
  0
LINE
  5
18D
  8
SIZE
  6
CONTINUOUS
 62
    30
 10
-184.0
 20
0.0
 30
0.0
 11
-749.16232599999989
 21
0.0
 31
0.0
  0
LINE
  5
18E
  8
SIZE
  6
CONTINUOUS
 62
    30
 10
-285.78472799999992
 20
108.4999999999999
 30
0.0
 11
-749.16232599999989
 21
108.4999999999999
 31
0.0
  0
LINE
  5
18F
  8
SIZE
  6
CONTINUOUS
 62
    30
 10
-729.16232600000001
 20
96.5
 30
0.0
 11
-729.16232600000001
 21
12.0
 31
0.0
  0
LINE
  5
190
  8
SIZE
  6
CONTINUOUS
 62
    30
 10
-729.16232600000001
 20
0.0
 30
0.0
 11
-729.16232600000001
 21
-196.40000000000001
 31
0.0
  0
CIRCLE
  5
191
  8
SIZE
  6
CONTINUOUS
 62
    30
 10
-729.16232600000001
 20
108.4999999999999
 30
0.0
 40
6.0
  0
LINE
  5
192
  8
SIZE
  6
CONTINUOUS
 62
    30
 10
-729.16232600000001
 20
108.4999999999999
 30
0.0
 11
-729.16232600000001
 21
96.5
 31
0.0
  0
CIRCLE
  5
193
  8
SIZE
  6
CONTINUOUS
 62
    30
 10
-729.16232600000001
 20
0.0
 30
0.0
 40
6.0
  0
LINE
  5
194
  8
SIZE
  6
CONTINUOUS
 62
    30
 10
-729.16232600000001
 20
0.0
 30
0.0
 11
-729.16232600000001
 21
12.0
 31
0.0
  0
TEXT
  5
195
  8
SIZE
  6
CONTINUOUS
 62
    30
 10
-754.16232600000001
 20
-171.39999999999989
 30
0.0
 40
64.0
  1
109
 50
90.0
 41
0.9
 72
     1
 11
-754.16232600000001
 21
-104.2
 31
0.0
  0
POINT
  5
196
  8
DEFPOINTS
  6
CONTINUOUS
 62
    30
 10
-164.0
 20
0.0
 30
0.0
  0
POINT
  5
197
  8
DEFPOINTS
  6
CONTINUOUS
 62
    30
 10
-265.78472799999992
 20
108.4999999999999
 30
0.0
  0
POINT
  5
198
  8
DEFPOINTS
  6
CONTINUOUS
 62
    30
 10
-729.16232600000001
 20
108.4999999999999
 30
0.0
  0
LINE
  5
199
  8
SIZE
  6
CONTINUOUS
 62
    30
 10
-184.0
 20
0.0
 30
0.0
 11
-887.47841300000005
 21
0.0
 31
0.0
  0
LINE
  5
19A
  8
SIZE
  6
CONTINUOUS
 62
    30
 10
-130.94434699999991
 20
193.0
 30
0.0
 11
-887.47841300000005
 21
193.0
 31
0.0
  0
LINE
  5
19B
  8
SIZE
  6
CONTINUOUS
 62
    30
 10
-867.47841300000005
 20
12.0
 30
0.0
 11
-867.47841300000005
 21
181.0
 31
0.0
  0
CIRCLE
  5
19C
  8
SIZE
  6
CONTINUOUS
 62
    30
 10
-867.47841300000005
 20
0.0
 30
0.0
 40
6.0
  0
LINE
  5
19D
  8
SIZE
  6
CONTINUOUS
 62
    30
 10
-867.47841300000005
 20
0.0
 30
0.0
 11
-867.47841300000005
 21
12.0
 31
0.0
  0
CIRCLE
  5
19E
  8
SIZE
  6
CONTINUOUS
 62
    30
 10
-867.47841300000005
 20
193.0
 30
0.0
 40
6.0
  0
LINE
  5
19F
  8
SIZE
  6
CONTINUOUS
 62
    30
 10
-867.47841300000005
 20
193.0
 30
0.0
 11
-867.47841300000005
 21
181.0
 31
0.0
  0
TEXT
  5
1A0
  8
SIZE
  6
CONTINUOUS
 62
    30
 10
-892.47841300000005
 20
27.928571428571441
 30
0.0
 40
64.0
  1
193
 50
90.0
 41
0.9
 72
     1
 11
-892.47841300000005
 21
96.5
 31
0.0
  0
POINT
  5
1A1
  8
DEFPOINTS
  6
CONTINUOUS
 62
    30
 10
-164.0
 20
0.0
 30
0.0
  0
POINT
  5
1A2
  8
DEFPOINTS
  6
CONTINUOUS
 62
    30
 10
-110.94434699999989
 20
193.0
 30
0.0
  0
POINT
  5
1A3
  8
DEFPOINTS
  6
CONTINUOUS
 62
    30
 10
-867.47841300000005
 20
193.0
 30
0.0
  0
LINE
  5
1A4
  8
SIZE
  6
CONTINUOUS
 62
    30
 10
184.0
 20
0.0
 30
0.0
 11
587.50957000000005
 21
0.0
 31
0.0
  0
LINE
  5
1A5
  8
SIZE
  6
CONTINUOUS
 62
    30
 10
139.5
 20
-20.0
 30
0.0
 11
587.50957000000005
 21
-20.0
 31
0.0
  0
LINE
  5
1A6
  8
SIZE
  6
CONTINUOUS
 62
    30
 10
567.50957000000005
 20
12.0
 30
0.0
 11
567.50957000000005
 21
24.0
 31
0.0
  0
LINE
  5
1A7
  8
SIZE
  6
CONTINUOUS
 62
    30
 10
567.50957000000005
 20
-32.0
 30
0.0
 11
567.50957000000005
 21
-187.2571429999999
 31
0.0
  0
LINE
  5
1A8
  8
SIZE
  6
CONTINUOUS
 62
    30
 10
567.50957000000005
 20
0.0
 30
0.0
 11
567.50957000000005
 21
-20.0
 31
0.0
  0
CIRCLE
  5
1A9
  8
SIZE
  6
CONTINUOUS
 62
    30
 10
567.50957000000005
 20
0.0
 30
0.0
 40
6.0
  0
LINE
  5
1AA
  8
SIZE
  6
CONTINUOUS
 62
    30
 10
567.50957000000005
 20
0.0
 30
0.0
 11
567.50957000000005
 21
12.0
 31
0.0
  0
CIRCLE
  5
1AB
  8
SIZE
  6
CONTINUOUS
 62
    30
 10
567.50957000000005
 20
-20.0
 30
0.0
 40
6.0
  0
LINE
  5
1AC
  8
SIZE
  6
CONTINUOUS
 62
    30
 10
567.50957000000005
 20
-20.0
 30
0.0
 11
567.50957000000005
 21
-32.0
 31
0.0
  0
TEXT
  5
1AD
  8
SIZE
  6
CONTINUOUS
 62
    30
 10
542.50957000000005
 20
-162.2571424285714
 30
0.0
 40
64.0
  1
20
 50
90.0
 41
0.9
 72
     1
 11
542.50957000000005
 21
-115.62857099999989
 31
0.0
  0
POINT
  5
1AE
  8
DEFPOINTS
  6
CONTINUOUS
 62
    30
 10
164.0
 20
0.0
 30
0.0
  0
POINT
  5
1AF
  8
DEFPOINTS
  6
CONTINUOUS
 62
    30
 10
119.5
 20
-20.0
 30
0.0
  0
POINT
  5
1B0
  8
DEFPOINTS
  6
CONTINUOUS
 62
    30
 10
567.50957000000005
 20
-20.0
 30
0.0
  0
LINE
  5
1B1
  8
SIZE
  6
CONTINUOUS
 62
    30
 10
184.0
 20
0.0
 30
0.0
 11
587.50957000000005
 21
0.0
 31
0.0
  0
LINE
  5
1B2
  8
SIZE
  6
CONTINUOUS
 62
    30
 10
67.999995999999996
 20
200.0000169999999
 30
0.0
 11
587.50957000000005
 21
200.0000169999999
 31
0.0
  0
LINE
  5
1B3
  8
SIZE
  6
CONTINUOUS
 62
    30
 10
567.50957000000005
 20
12.0
 30
0.0
 11
567.50957000000005
 21
188.0000169999999
 31
0.0
  0
CIRCLE
  5
1B4
  8
SIZE
  6
CONTINUOUS
 62
    30
 10
567.50957000000005
 20
0.0
 30
0.0
 40
6.0
  0
LINE
  5
1B5
  8
SIZE
  6
CONTINUOUS
 62
    30
 10
567.50957000000005
 20
0.0
 30
0.0
 11
567.50957000000005
 21
12.0
 31
0.0
  0
CIRCLE
  5
1B6
  8
SIZE
  6
CONTINUOUS
 62
    30
 10
567.50957000000005
 20
200.0000169999999
 30
0.0
 40
6.0
  0
LINE
  5
1B7
  8
SIZE
  6
CONTINUOUS
 62
    30
 10
567.50957000000005
 20
200.0000169999999
 30
0.0
 11
567.50957000000005
 21
188.0000169999999
 31
0.0
  0
TEXT
  5
1B8
  8
SIZE
  6
CONTINUOUS
 62
    30
 10
542.50957000000005
 20
25.942865142857141
 30
0.0
 40
64.0
  1
200
 50
90.0
 41
0.9
 72
     1
 11
542.50957000000005
 21
100.00000799999989
 31
0.0
  0
POINT
  5
1B9
  8
DEFPOINTS
  6
CONTINUOUS
 62
    30
 10
164.0
 20
0.0
 30
0.0
  0
POINT
  5
1BA
  8
DEFPOINTS
  6
CONTINUOUS
 62
    30
 10
47.999996000000003
 20
200.0000169999999
 30
0.0
  0
POINT
  5
1BB
  8
DEFPOINTS
  6
CONTINUOUS
 62
    30
 10
567.50957000000005
 20
200.0000169999999
 30
0.0
  0
LINE
  5
1BC
  8
SIZE
  6
CONTINUOUS
 62
    30
 10
-242.17000400000001
 20
157.629572
 30
0.0
 11
-346.44400000000002
 21
157.629572
 31
0.0
  0
LINE
  5
1BD
  8
SIZE
  6
CONTINUOUS
 62
    30
 10
-242.17000400000001
 20
59.370427999999997
 30
0.0
 11
-346.44400000000002
 21
59.370427999999997
 31
0.0
  0
LINE
  5
1BE
  8
SIZE
  6
CONTINUOUS
 62
    30
 10
-326.44400000000002
 20
145.62957199999991
 30
0.0
 11
-326.44400000000002
 21
71.370428000000004
 31
0.0
  0
LINE
  5
1BF
  8
SIZE
  6
CONTINUOUS
 62
    30
 10
-326.44400000000002
 20
59.370427999999997
 30
0.0
 11
-326.44400000000002
 21
-193.58001200000001
 31
0.0
  0
CIRCLE
  5
1C0
  8
SIZE
  6
CONTINUOUS
 62
    30
 10
-326.44400000000002
 20
157.629572
 30
0.0
 40
6.0
  0
LINE
  5
1C1
  8
SIZE
  6
CONTINUOUS
 62
    30
 10
-326.44400000000002
 20
157.629572
 30
0.0
 11
-326.44400000000002
 21
145.62957199999991
 31
0.0
  0
CIRCLE
  5
1C2
  8
SIZE
  6
CONTINUOUS
 62
    30
 10
-326.44400000000002
 20
59.370427999999997
 30
0.0
 40
6.0
  0
LINE
  5
1C3
  8
SIZE
  6
CONTINUOUS
 62
    30
 10
-326.44400000000002
 20
59.370427999999997
 30
0.0
 11
-326.44400000000002
 21
71.370428000000004
 31
0.0
  0
TEXT
  5
1C4
  8
SIZE
  6
CONTINUOUS
 62
    30
 10
-351.44400000000002
 20
-182.84286942857139
 30
0.0
 40
64.0
  1
âË98
 50
90.0
 41
0.9
 72
     1
 11
-351.44400000000002
 21
-95.894297999999992
 31
0.0
  0
POINT
  5
1C5
  8
DEFPOINTS
  6
CONTINUOUS
 62
    30
 10
-222.17000399999989
 20
157.629572
 30
0.0
  0
POINT
  5
1C6
  8
DEFPOINTS
  6
CONTINUOUS
 62
    30
 10
-222.17000399999989
 20
59.370427999999997
 30
0.0
  0
POINT
  5
1C7
  8
DEFPOINTS
  6
CONTINUOUS
 62
    30
 10
-326.44400000000002
 20
59.370427999999997
 30
0.0
  0
LINE
  5
1C8
  8
SIZE
  6
CONTINUOUS
 62
    30
 10
-222.77177
 20
161.1877889999999
 30
0.0
 11
-476.30809900000003
 21
161.1877889999999
 31
0.0
  0
LINE
  5
1C9
  8
SIZE
  6
CONTINUOUS
 62
    30
 10
-222.77177
 20
55.812210999999998
 30
0.0
 11
-476.30809900000003
 21
55.812210999999998
 31
0.0
  0
LINE
  5
1CA
  8
SIZE
  6
CONTINUOUS
 62
    30
 10
-456.30809900000003
 20
149.1877889999999
 30
0.0
 11
-456.30809900000003
 21
67.812211000000005
 31
0.0
  0
LINE
  5
1CB
  8
SIZE
  6
CONTINUOUS
 62
    30
 10
-456.30809900000003
 20
55.812210999999998
 30
0.0
 11
-456.30809900000003
 21
-239.99027100000001
 31
0.0
  0
CIRCLE
  5
1CC
  8
SIZE
  6
CONTINUOUS
 62
    30
 10
-456.30809900000003
 20
161.1877889999999
 30
0.0
 40
6.0
  0
LINE
  5
1CD
  8
SIZE
  6
CONTINUOUS
 62
    30
 10
-456.30809900000003
 20
161.1877889999999
 30
0.0
 11
-456.30809900000003
 21
149.1877889999999
 31
0.0
  0
CIRCLE
  5
1CE
  8
SIZE
  6
CONTINUOUS
 62
    30
 10
-456.30809900000003
 20
55.812210999999998
 30
0.0
 40
6.0
  0
LINE
  5
1CF
  8
SIZE
  6
CONTINUOUS
 62
    30
 10
-456.30809900000003
 20
55.812210999999998
 30
0.0
 11
-456.30809900000003
 21
67.812211000000005
 31
0.0
  0
TEXT
  5
1D0
  8
SIZE
  6
CONTINUOUS
 62
    30
 10
-481.30809900000003
 20
-229.25312757142851
 30
0.0
 40
64.0
  1
âË105
 50
90.0
 41
0.9
 72
     1
 11
-481.30809900000003
 21
-120.3616989999999
 31
0.0
  0
POINT
  5
1D1
  8
DEFPOINTS
  6
CONTINUOUS
 62
    30
 10
-202.77177
 20
161.1877889999999
 30
0.0
  0
POINT
  5
1D2
  8
DEFPOINTS
  6
CONTINUOUS
 62
    30
 10
-202.77177
 20
55.812210999999998
 30
0.0
  0
POINT
  5
1D3
  8
DEFPOINTS
  6
CONTINUOUS
 62
    30
 10
-456.30809900000003
 20
55.812210999999998
 30
0.0
  0
ARC
  5
1D4
  8
DETAIL
  6
CONTINUOUS
 62
     5
 10
131.810036
 20
117.4468879999999
 30
0.0
 40
2.0
 50
91.0
 51
181.00358399999999
  0
ARC
  5
1D5
  8
DETAIL
  6
CONTINUOUS
 62
     5
 10
130.11453599999999
 20
119.08421299999991
 30
0.0
 40
5.2000000000000002
 50
91.0
 51
181.0
  0
ARC
  5
1D6
  8
DETAIL
  6
CONTINUOUS
 62
     5
 10
130.12290999999999
 20
119.0760309999999
 30
0.0
 40
5.2083329999999997
 50
91.116623000000004
 51
181.00358399999999
  0
LINE
  5
1D7
  8
DETAIL
  6
CONTINUOUS
 62
     5
 10
159.999999
 20
120.0
 30
0.0
 11
159.91506399999989
 21
124.8659249999999
 31
0.0
  0
LINE
  5
1D8
  8
DETAIL
  6
CONTINUOUS
 62
     5
 10
159.999999
 20
120.0
 30
0.0
 11
131.77513099999999
 21
119.446583
 31
0.0
  0
LINE
  5
1D9
  8
DETAIL
  6
CONTINUOUS
 62
     5
 10
159.91506399999989
 20
124.8659249999999
 30
0.0
 11
130.02141199999991
 21
124.28337500000001
 31
0.0
  0
LINE
  5
1DA
  8
NOTE
  6
CONTINUOUS
 62
     4
 10
142.90096899999989
 20
101.5550659999999
 30
0.0
 11
142.21314699999991
 21
140.96036000000001
 31
0.0
  0
ARC
  5
1DB
  8
DETAIL
  6
CONTINUOUS
 62
     5
 10
88.953912000000003
 20
2.2921740000000002
 30
0.0
 40
3.0
 50
181.0
 51
229.47900899999991
  0
LINE
  5
1DC
  8
DETAIL
  6
CONTINUOUS
 62
     5
 10
121.824962
 20
124.140311
 30
0.0
 11
83.830748999999997
 21
123.4771199999999
 31
0.0
  0
LINE
  5
1DD
  8
DETAIL
  6
CONTINUOUS
 62
     5
 10
131.86640700000001
 20
0.040757
 30
0.0
 11
129.8103429999999
 21
117.411858
 31
0.0
  0
LINE
  5
1DE
  8
DETAIL
  6
CONTINUOUS
 62
     5
 10
124.9094399999999
 20
119.32674299999989
 30
0.0
 11
83.915683999999999
 21
118.6111939999999
 31
0.0
  0
LINE
  5
1DF
  8
DETAIL
  6
CONTINUOUS
 62
     5
 10
121.909897
 20
119.27438599999989
 30
0.0
 11
121.824962
 21
124.140311
 31
0.0
  0
LINE
  5
1E0
  8
DETAIL
  6
CONTINUOUS
 62
     5
 10
85.954369000000014
 20
2.2398159999999989
 30
0.0
 11
83.830748999999997
 21
123.4771199999999
 31
0.0
  0
ARC
  5
1E1
  8
DETAIL
  6
CONTINUOUS
 62
     5
 10
116.85391899999991
 20
132.320313
 30
0.0
 40
1.0
 50
1.0
 51
91.0
  0
LINE
  5
1E2
  8
DETAIL
  6
CONTINUOUS
 62
     5
 10
117.94044699999991
 20
127.371855
 30
0.0
 11
117.85376699999991
 21
132.33776499999991
 31
0.0
  0
LINE
  5
1E3
  8
DETAIL
  6
CONTINUOUS
 62
     5
 10
115.9989259999999
 20
124.004124
 30
0.0
 11
115.940752
 21
127.33695
 31
0.0
  0
LINE
  5
1E4
  8
DETAIL
  6
CONTINUOUS
 62
     5
 10
118.27902399999989
 20
107.97480999999991
 30
0.0
 11
118.083557
 21
119.173104
 31
0.0
  0
ARC
  5
1E5
  8
DETAIL
  6
CONTINUOUS
 62
     5
 10
117.27917600000001
 20
107.9573569999999
 30
0.0
 40
1.0
 50
271.0
 51
1.0
  0
LINE
  5
1E6
  8
DETAIL
  6
CONTINUOUS
 62
     5
 10
117.296629
 20
106.95751
 30
0.0
 11
93.300283999999991
 21
106.538652
 31
0.0
  0
ARC
  5
1E7
  8
DETAIL
  6
CONTINUOUS
 62
     5
 10
92.857574999999997
 20
131.901455
 30
0.0
 40
1.0
 50
91.0
 51
181.0
  0
LINE
  5
1E8
  8
DETAIL
  6
CONTINUOUS
 62
     5
 10
91.857726999999997
 20
131.88400300000001
 30
0.0
 11
91.944406999999984
 21
126.9180919999999
 31
0.0
  0
LINE
  5
1E9
  8
DETAIL
  6
CONTINUOUS
 62
     5
 10
116.836467
 20
133.32015999999999
 30
0.0
 11
92.840121999999994
 21
132.90130300000001
 31
0.0
  0
LINE
  5
1EA
  8
DETAIL
  6
CONTINUOUS
 62
     5
 10
94.002277000000007
 20
123.6201719999999
 30
0.0
 11
93.944102999999998
 21
126.952997
 31
0.0
  0
LINE
  5
1EB
  8
DETAIL
  6
CONTINUOUS
 62
     5
 10
117.94044699999991
 20
127.371855
 30
0.0
 11
91.944406999999984
 21
126.9180919999999
 31
0.0
  0
LINE
  5
1EC
  8
NOTE
  6
CONTINUOUS
 62
     4
 10
105.4009689999999
 20
100.875146
 30
0.0
 11
104.71314699999991
 21
140.28043999999991
 31
0.0
  0
LINE
  5
1ED
  8
DETAIL
  6
CONTINUOUS
 62
     5
 10
92.282983999999985
 20
107.521047
 30
0.0
 11
92.087517000000005
 21
118.7193409999999
 31
0.0
  0
ARC
  5
1EE
  8
DETAIL
  6
CONTINUOUS
 62
     5
 10
93.282831999999985
 20
107.5385
 30
0.0
 40
1.0
 50
181.0
 51
271.0
  0
LINE
  5
1EF
  8
SIZE
  6
CONTINUOUS
 62
    30
 10
184.0
 20
0.0
 30
0.0
 11
424.18625099999991
 21
0.0
 31
0.0
  0
LINE
  5
1F0
  8
SIZE
  6
CONTINUOUS
 62
    30
 10
179.999999
 20
120.0
 30
0.0
 11
424.18625099999991
 21
120.0
 31
0.0
  0
LINE
  5
1F1
  8
SIZE
  6
CONTINUOUS
 62
    30
 10
404.18625099999991
 20
12.0
 30
0.0
 11
404.18625099999991
 21
108.0
 31
0.0
  0
LINE
  5
1F2
  8
SIZE
  6
CONTINUOUS
 62
    30
 10
404.18625099999991
 20
120.0
 30
0.0
 11
404.18625099999991
 21
382.23925299999991
 31
0.0
  0
CIRCLE
  5
1F3
  8
SIZE
  6
CONTINUOUS
 62
    30
 10
404.18625099999991
 20
0.0
 30
0.0
 40
6.0
  0
LINE
  5
1F4
  8
SIZE
  6
CONTINUOUS
 62
    30
 10
404.18625099999991
 20
0.0
 30
0.0
 11
404.18625099999991
 21
12.0
 31
0.0
  0
CIRCLE
  5
1F5
  8
SIZE
  6
CONTINUOUS
 62
    30
 10
404.18625099999991
 20
120.0
 30
0.0
 40
6.0
  0
LINE
  5
1F6
  8
SIZE
  6
CONTINUOUS
 62
    30
 10
404.18625099999991
 20
120.0
 30
0.0
 11
404.18625099999991
 21
108.0
 31
0.0
  0
TEXT
  5
1F7
  8
SIZE
  6
CONTINUOUS
 62
    30
 10
379.18625099999991
 20
220.09639542857141
 30
0.0
 40
64.0
  1
120
 50
90.0
 41
0.9
 72
     1
 11
379.18625099999991
 21
288.667824
 31
0.0
  0
POINT
  5
1F8
  8
DEFPOINTS
  6
CONTINUOUS
 62
    30
 10
164.0
 20
0.0
 30
0.0
  0
POINT
  5
1F9
  8
DEFPOINTS
  6
CONTINUOUS
 62
    30
 10
159.999999
 20
120.0
 30
0.0
  0
POINT
  5
1FA
  8
DEFPOINTS
  6
CONTINUOUS
 62
    30
 10
404.18625099999991
 20
120.0
 30
0.0
  0
LINE
  5
1FB
  8
SIZE
  6
CONTINUOUS
 62
    30
 10
-237.00872799999991
 20
177.00442100000001
 30
0.0
 11
-237.00872799999991
 21
362.15119499999997
 31
0.0
  0
LINE
  5
1FC
  8
SIZE
  6
CONTINUOUS
 62
    30
 10
-207.00872799999999
 20
177.00442100000001
 30
0.0
 11
-207.00872799999999
 21
362.15119499999997
 31
0.0
  0
LINE
  5
1FD
  8
SIZE
  6
CONTINUOUS
 62
    30
 10
-195.00872799999991
 20
342.15119499999997
 30
0.0
 11
-183.00872799999991
 21
342.15119499999997
 31
0.0
  0
LINE
  5
1FE
  8
SIZE
  6
CONTINUOUS
 62
    30
 10
-249.00872799999999
 20
342.15119499999997
 30
0.0
 11
-404.26587000000001
 21
342.15119499999997
 31
0.0
  0
LINE
  5
1FF
  8
SIZE
  6
CONTINUOUS
 62
    30
 10
-207.00872799999999
 20
342.15119499999997
 30
0.0
 11
-237.00872799999991
 21
342.15119499999997
 31
0.0
  0
CIRCLE
  5
200
  8
SIZE
  6
CONTINUOUS
 62
    30
 10
-207.00872799999999
 20
342.15119499999997
 30
0.0
 40
6.0
  0
LINE
  5
201
  8
SIZE
  6
CONTINUOUS
 62
    30
 10
-207.00872799999999
 20
342.15119499999997
 30
0.0
 11
-195.00872799999991
 21
342.15119499999997
 31
0.0
  0
CIRCLE
  5
202
  8
SIZE
  6
CONTINUOUS
 62
    30
 10
-237.00872799999991
 20
342.15119499999997
 30
0.0
 40
6.0
  0
LINE
  5
203
  8
SIZE
  6
CONTINUOUS
 62
    30
 10
-237.00872799999991
 20
342.15119499999997
 30
0.0
 11
-249.00872799999999
 21
342.15119499999997
 31
0.0
  0
TEXT
  5
204
  8
SIZE
  6
CONTINUOUS
 62
    30
 10
-379.26587042857142
 20
367.15119499999997
 30
0.0
 40
64.0
  1
30
 41
0.9
 72
     1
 11
-332.63729899999998
 21
367.15119499999997
 31
0.0
  0
POINT
  5
205
  8
DEFPOINTS
  6
CONTINUOUS
 62
    30
 10
-237.00872799999991
 20
157.00442100000001
 30
0.0
  0
POINT
  5
206
  8
DEFPOINTS
  6
CONTINUOUS
 62
    30
 10
-207.00872799999999
 20
157.00442100000001
 30
0.0
  0
POINT
  5
207
  8
DEFPOINTS
  6
CONTINUOUS
 62
    30
 10
-207.00872799999999
 20
342.15119499999997
 30
0.0
  0
LINE
  5
208
  8
SIZE
  6
CONTINUOUS
 62
    30
 10
-237.00872799999991
 20
177.00442100000001
 30
0.0
 11
-237.00872799999991
 21
506.29041999999998
 31
0.0
  0
LINE
  5
209
  8
SIZE
  6
CONTINUOUS
 62
    30
 10
-167.00872799999991
 20
177.00442100000001
 30
0.0
 11
-167.00872799999991
 21
506.29041999999998
 31
0.0
  0
LINE
  5
20A
  8
SIZE
  6
CONTINUOUS
 62
    30
 10
-155.00872799999991
 20
486.29041999999998
 30
0.0
 11
-143.00872799999991
 21
486.29041999999998
 31
0.0
  0
LINE
  5
20B
  8
SIZE
  6
CONTINUOUS
 62
    30
 10
-249.00872799999999
 20
486.29041999999998
 30
0.0
 11
-404.26587000000001
 21
486.29041999999998
 31
0.0
  0
LINE
  5
20C
  8
SIZE
  6
CONTINUOUS
 62
    30
 10
-167.00872799999991
 20
486.29041999999998
 30
0.0
 11
-237.00872799999991
 21
486.29041999999998
 31
0.0
  0
CIRCLE
  5
20D
  8
SIZE
  6
CONTINUOUS
 62
    30
 10
-167.00872799999991
 20
486.29041999999998
 30
0.0
 40
6.0
  0
LINE
  5
20E
  8
SIZE
  6
CONTINUOUS
 62
    30
 10
-167.00872799999991
 20
486.29041999999998
 30
0.0
 11
-155.00872799999991
 21
486.29041999999998
 31
0.0
  0
CIRCLE
  5
20F
  8
SIZE
  6
CONTINUOUS
 62
    30
 10
-237.00872799999991
 20
486.29041999999998
 30
0.0
 40
6.0
  0
LINE
  5
210
  8
SIZE
  6
CONTINUOUS
 62
    30
 10
-237.00872799999991
 20
486.29041999999998
 30
0.0
 11
-249.00872799999999
 21
486.29041999999998
 31
0.0
  0
TEXT
  5
211
  8
SIZE
  6
CONTINUOUS
 62
    30
 10
-379.26587042857142
 20
511.29041999999998
 30
0.0
 40
64.0
  1
70
 41
0.9
 72
     1
 11
-332.63729899999998
 21
511.29041999999998
 31
0.0
  0
POINT
  5
212
  8
DEFPOINTS
  6
CONTINUOUS
 62
    30
 10
-237.00872799999991
 20
157.00442100000001
 30
0.0
  0
POINT
  5
213
  8
DEFPOINTS
  6
CONTINUOUS
 62
    30
 10
-167.00872799999991
 20
157.00442100000001
 30
0.0
  0
POINT
  5
214
  8
DEFPOINTS
  6
CONTINUOUS
 62
    30
 10
-167.00872799999991
 20
486.29041999999998
 30
0.0
  0
LINE
  5
215
  8
SIZE
  6
CONTINUOUS
 62
    30
 10
-127.0
 20
20.0
 30
0.0
 11
-127.0
 21
648.24780099999998
 31
0.0
  0
LINE
  5
216
  8
SIZE
  6
CONTINUOUS
 62
    30
 10
-237.00872799999991
 20
177.00442100000001
 30
0.0
 11
-237.00872799999991
 21
648.24780099999998
 31
0.0
  0
LINE
  5
217
  8
SIZE
  6
CONTINUOUS
 62
    30
 10
-115.0
 20
628.24780099999998
 30
0.0
 11
-103.0
 21
628.24780099999998
 31
0.0
  0
LINE
  5
218
  8
SIZE
  6
CONTINUOUS
 62
    30
 10
-249.00872799999999
 20
628.24780099999998
 30
0.0
 11
-261.00872799999991
 21
628.24780099999998
 31
0.0
  0
LINE
  5
219
  8
SIZE
  6
CONTINUOUS
 62
    30
 10
-127.0
 20
628.24780099999998
 30
0.0
 11
-237.00872799999991
 21
628.24780099999998
 31
0.0
  0
CIRCLE
  5
21A
  8
SIZE
  6
CONTINUOUS
 62
    30
 10
-127.0
 20
628.24780099999998
 30
0.0
 40
6.0
  0
LINE
  5
21B
  8
SIZE
  6
CONTINUOUS
 62
    30
 10
-127.0
 20
628.24780099999998
 30
0.0
 11
-115.0
 21
628.24780099999998
 31
0.0
  0
CIRCLE
  5
21C
  8
SIZE
  6
CONTINUOUS
 62
    30
 10
-237.00872799999991
 20
628.24780099999998
 30
0.0
 40
6.0
  0
LINE
  5
21D
  8
SIZE
  6
CONTINUOUS
 62
    30
 10
-237.00872799999991
 20
628.24780099999998
 30
0.0
 11
-249.00872799999999
 21
628.24780099999998
 31
0.0
  0
TEXT
  5
21E
  8
SIZE
  6
CONTINUOUS
 62
    30
 10
-245.09007828571421
 20
653.24780099999998
 30
0.0
 40
64.0
  1
110
 41
0.9
 72
     1
 11
-182.0043639999999
 21
653.24780099999998
 31
0.0
  0
POINT
  5
21F
  8
DEFPOINTS
  6
CONTINUOUS
 62
    30
 10
-127.0
 20
0.0
 30
0.0
  0
POINT
  5
220
  8
DEFPOINTS
  6
CONTINUOUS
 62
    30
 10
-237.00872799999991
 20
157.00442100000001
 30
0.0
  0
POINT
  5
221
  8
DEFPOINTS
  6
CONTINUOUS
 62
    30
 10
-237.00872799999991
 20
628.24780099999998
 30
0.0
  0
LINE
  5
222
  8
SIZE
  6
CONTINUOUS
 62
    30
 10
-237.00872799999991
 20
177.00442100000001
 30
0.0
 11
-237.00872799999991
 21
648.24780099999998
 31
0.0
  0
LINE
  5
223
  8
SIZE
  6
CONTINUOUS
 62
    30
 10
-249.56308100000001
 20
132.59666000000001
 30
0.0
 11
-249.56308100000001
 21
648.24780099999998
 31
0.0
  0
LINE
  5
224
  8
SIZE
  6
CONTINUOUS
 62
    30
 10
-225.00872799999991
 20
628.24780099999998
 30
0.0
 11
-213.00872799999999
 21
628.24780099999998
 31
0.0
  0
LINE
  5
225
  8
SIZE
  6
CONTINUOUS
 62
    30
 10
-261.56308100000001
 20
628.24780099999998
 30
0.0
 11
-487.585938
 21
628.24780099999998
 31
0.0
  0
LINE
  5
226
  8
SIZE
  6
CONTINUOUS
 62
    30
 10
-237.00872799999991
 20
628.24780099999998
 30
0.0
 11
-249.56308100000001
 21
628.24780099999998
 31
0.0
  0
CIRCLE
  5
227
  8
SIZE
  6
CONTINUOUS
 62
    30
 10
-237.00872799999991
 20
628.24780099999998
 30
0.0
 40
6.0
  0
LINE
  5
228
  8
SIZE
  6
CONTINUOUS
 62
    30
 10
-237.00872799999991
 20
628.24780099999998
 30
0.0
 11
-225.00872799999991
 21
628.24780099999998
 31
0.0
  0
CIRCLE
  5
229
  8
SIZE
  6
CONTINUOUS
 62
    30
 10
-249.56308100000001
 20
628.24780099999998
 30
0.0
 40
6.0
  0
LINE
  5
22A
  8
SIZE
  6
CONTINUOUS
 62
    30
 10
-249.56308100000001
 20
628.24780099999998
 30
0.0
 11
-261.56308100000001
 21
628.24780099999998
 31
0.0
  0
TEXT
  5
22B
  8
SIZE
  6
CONTINUOUS
 62
    30
 10
-489.46593757142853
 20
653.24780099999998
 30
0.0
 40
64.0
  1
üi13üj
 41
0.9
 72
     1
 11
-380.57450899999992
 21
653.24780099999998
 31
0.0
  0
POINT
  5
22C
  8
DEFPOINTS
  6
CONTINUOUS
 62
    30
 10
-237.00872799999991
 20
157.00442100000001
 30
0.0
  0
POINT
  5
22D
  8
DEFPOINTS
  6
CONTINUOUS
 62
    30
 10
-249.56308100000001
 20
112.59666
 30
0.0
  0
POINT
  5
22E
  8
DEFPOINTS
  6
CONTINUOUS
 62
    30
 10
-249.56308100000001
 20
628.24780099999998
 30
0.0
  0
LINE
  5
22F
  8
SIZE
  6
CONTINUOUS
 62
    30
 10
-127.0
 20
20.0
 30
0.0
 11
-127.0
 21
648.24780099999998
 31
0.0
  0
LINE
  5
230
  8
SIZE
  6
CONTINUOUS
 62
    30
 10
127.066233
 20
20.0
 30
0.0
 11
127.066233
 21
648.24780099999998
 31
0.0
  0
LINE
  5
231
  8
SIZE
  6
CONTINUOUS
 62
    30
 10
-139.0
 20
628.24780099999998
 30
0.0
 11
-151.0
 21
628.24780099999998
 31
0.0
  0
LINE
  5
232
  8
SIZE
  6
CONTINUOUS
 62
    30
 10
139.06623300000001
 20
628.24780099999998
 30
0.0
 11
151.06623300000001
 21
628.24780099999998
 31
0.0
  0
LINE
  5
233
  8
SIZE
  6
CONTINUOUS
 62
    30
 10
-127.0
 20
628.24780099999998
 30
0.0
 11
127.066233
 21
628.24780099999998
 31
0.0
  0
CIRCLE
  5
234
  8
SIZE
  6
CONTINUOUS
 62
    30
 10
-127.0
 20
628.24780099999998
 30
0.0
 40
6.0
  0
LINE
  5
235
  8
SIZE
  6
CONTINUOUS
 62
    30
 10
-127.0
 20
628.24780099999998
 30
0.0
 11
-139.0
 21
628.24780099999998
 31
0.0
  0
CIRCLE
  5
236
  8
SIZE
  6
CONTINUOUS
 62
    30
 10
127.066233
 20
628.24780099999998
 30
0.0
 40
6.0
  0
LINE
  5
237
  8
SIZE
  6
CONTINUOUS
 62
    30
 10
127.066233
 20
628.24780099999998
 30
0.0
 11
139.06623300000001
 21
628.24780099999998
 31
0.0
  0
TEXT
  5
238
  8
SIZE
  6
CONTINUOUS
 62
    30
 10
-111.8754554285714
 20
653.24780099999998
 30
0.0
 40
64.0
  1
üá254
 41
0.9
 72
     1
 11
0.033116
 21
653.24780099999998
 31
0.0
  0
POINT
  5
239
  8
DEFPOINTS
  6
CONTINUOUS
 62
    30
 10
-127.0
 20
0.0
 30
0.0
  0
POINT
  5
23A
  8
DEFPOINTS
  6
CONTINUOUS
 62
    30
 10
127.066233
 20
0.0
 30
0.0
  0
POINT
  5
23B
  8
DEFPOINTS
  6
CONTINUOUS
 62
    30
 10
127.066233
 20
628.24780099999998
 30
0.0
  0
LINE
  5
23C
  8
DETAIL
  6
CONTINUOUS
 62
     5
 10
-28.50000399999999
 20
194.5000169999999
 30
0.0
 11
-28.50000399999999
 21
168.0
 31
0.0
  0
LINE
  5
23D
  8
SIZE
  6
CONTINUOUS
 62
    30
 10
-28.50000399999999
 20
214.5000169999999
 30
0.0
 11
-28.50000399999999
 21
547.02541399999996
 31
0.0
  0
LINE
  5
23E
  8
SIZE
  6
CONTINUOUS
 62
    30
 10
53.499996000000003
 20
214.5000169999999
 30
0.0
 11
53.499996000000003
 21
547.02541399999996
 31
0.0
  0
LINE
  5
23F
  8
SIZE
  6
CONTINUOUS
 62
    30
 10
-16.500004000000001
 20
527.02541399999996
 30
0.0
 11
41.499996000000003
 21
527.02541399999996
 31
0.0
  0
LINE
  5
240
  8
SIZE
  6
CONTINUOUS
 62
    30
 10
53.499996000000003
 20
527.02541399999996
 30
0.0
 11
335.56098199999991
 21
527.02541399999996
 31
0.0
  0
CIRCLE
  5
241
  8
SIZE
  6
CONTINUOUS
 62
    30
 10
-28.50000399999999
 20
527.02541399999996
 30
0.0
 40
6.0
  0
LINE
  5
242
  8
SIZE
  6
CONTINUOUS
 62
    30
 10
-28.50000399999999
 20
527.02541399999996
 30
0.0
 11
-16.500004000000001
 21
527.02541399999996
 31
0.0
  0
CIRCLE
  5
243
  8
SIZE
  6
CONTINUOUS
 62
    30
 10
53.499996000000003
 20
527.02541399999996
 30
0.0
 40
6.0
  0
LINE
  5
244
  8
SIZE
  6
CONTINUOUS
 62
    30
 10
53.499996000000003
 20
527.02541399999996
 30
0.0
 11
41.499996000000003
 21
527.02541399999996
 31
0.0
  0
TEXT
  5
245
  8
SIZE
  6
CONTINUOUS
 62
    30
 10
150.92669657142861
 20
552.02541399999996
 30
0.0
 40
64.0
  1
âË82
 41
0.9
 72
     1
 11
237.87526800000001
 21
552.02541399999996
 31
0.0
  0
POINT
  5
246
  8
DEFPOINTS
  6
CONTINUOUS
 62
    30
 10
-28.50000399999999
 20
194.5000169999999
 30
0.0
  0
POINT
  5
247
  8
DEFPOINTS
  6
CONTINUOUS
 62
    30
 10
53.499996000000003
 20
194.5000169999999
 30
0.0
  0
POINT
  5
248
  8
DEFPOINTS
  6
CONTINUOUS
 62
    30
 10
53.499996000000003
 20
527.02541399999996
 30
0.0
  0
LINE
  5
249
  8
OUTLINE
  6
CONTINUOUS
 62
     3
 10
164.0
 20
0.0
 30
0.0
 11
117.824561
 21
0.0
 31
0.0
  0
ARC
  5
24A
  8
OUTLINE
  6
CONTINUOUS
 62
     3
 10
164.0
 20
-1.0
 30
0.0
 40
1.0
 50
0.0
 51
90.0
  0
LINE
  5
24B
  8
OUTLINE
  6
CONTINUOUS
 62
     3
 10
165.0
 20
-1.0
 30
0.0
 11
165.0
 21
-5.2980070000000001
 31
0.0
  0
ARC
  5
24C
  8
OUTLINE
  6
CONTINUOUS
 62
     3
 10
159.0
 20
-5.2980070000000001
 30
0.0
 40
6.0
 50
294.8480209999999
 51
0.0
  0
ARC
  5
24D
  8
OUTLINE
  6
CONTINUOUS
 62
     3
 10
119.5
 20
80.0
 30
0.0
 40
100.0
 50
270.0
 51
294.8480209999999
  0
LINE
  5
24E
  8
OUTLINE
  6
CONTINUOUS
 62
     3
 10
0.0
 20
-20.0
 30
0.0
 11
118.0
 21
-20.0
 31
0.0
  0
LINE
  5
24F
  8
OUTLINE
  6
CONTINUOUS
 62
     3
 10
0.0
 20
0.0
 30
0.0
 11
117.824561
 21
0.0
 31
0.0
  0
LINE
  5
250
  8
OUTLINE
  6
CONTINUOUS
 62
     3
 10
119.5
 20
-19.0
 30
0.0
 11
118.0
 21
-19.0
 31
0.0
  0
LINE
  5
251
  8
OUTLINE
  6
CONTINUOUS
 62
     3
 10
0.0
 20
-20.0
 30
0.0
 11
-118.0
 21
-20.0
 31
0.0
  0
LINE
  5
252
  8
OUTLINE
  6
CONTINUOUS
 62
     3
 10
-164.0
 20
0.0
 30
0.0
 11
-117.824561
 21
0.0
 31
0.0
  0
ARC
  5
253
  8
OUTLINE
  6
CONTINUOUS
 62
     3
 10
-164.0
 20
-1.0
 30
0.0
 40
1.0
 50
90.0
 51
180.0
  0
LINE
  5
254
  8
OUTLINE
  6
CONTINUOUS
 62
     3
 10
-165.0
 20
-1.0
 30
0.0
 11
-165.0
 21
-5.2980070000000001
 31
0.0
  0
ARC
  5
255
  8
OUTLINE
  6
CONTINUOUS
 62
     3
 10
-159.0
 20
-5.2980070000000001
 30
0.0
 40
6.0
 50
180.0
 51
245.15197900000001
  0
ARC
  5
256
  8
OUTLINE
  6
CONTINUOUS
 62
     3
 10
-119.5
 20
80.0
 30
0.0
 40
100.0
 50
245.15197900000001
 51
270.0
  0
LINE
  5
257
  8
OUTLINE
  6
CONTINUOUS
 62
     3
 10
0.0
 20
0.0
 30
0.0
 11
-117.824561
 21
0.0
 31
0.0
  0
LINE
  5
258
  8
OUTLINE
  6
CONTINUOUS
 62
     3
 10
-119.5
 20
-19.0
 30
0.0
 11
-118.0
 21
-19.0
 31
0.0
  0
LINE
  5
259
  8
OUTLINE
  6
CONTINUOUS
 62
     3
 10
-93.982291000000004
 20
182.0
 30
0.0
 11
-93.909164000000004
 21
182.0
 31
0.0
  0
LINE
  5
25A
  8
OUTLINE
  6
CONTINUOUS
 62
     3
 10
-93.982291000000004
 20
182.0
 30
0.0
 11
-93.909164000000004
 21
182.0
 31
0.0
  0
ARC
  5
25B
  8
OUTLINE
  6
CONTINUOUS
 62
     3
 10
-109.9527579999999
 20
191.0
 30
0.0
 40
2.0
 50
90.0
 51
160.20112399999991
  0
ARC
  5
25C
  8
OUTLINE
  6
CONTINUOUS
 62
     3
 10
-105.1868379999999
 20
191.0
 30
0.0
 40
2.0
 50
45.0
 51
90.0
  0
ARC
  5
25D
  8
OUTLINE
  6
CONTINUOUS
 62
     3
 10
-101.180774
 20
182.751295
 30
0.0
 40
5.0
 50
4.999064999999999
 51
45.0
  0
ARC
  5
25E
  8
OUTLINE
  6
CONTINUOUS
 62
     3
 10
121.41317099999991
 20
162.5
 30
0.0
 40
2.5
 50
1.0
 51
90.0
  0
LINE
  5
25F
  8
OUTLINE
  6
CONTINUOUS
 62
     3
 10
-111.83453299999999
 20
191.67743899999999
 30
0.0
 11
-114.8070689999999
 21
183.4203949999999
 31
0.0
  0
LINE
  5
260
  8
OUTLINE
  6
CONTINUOUS
 62
     3
 10
-95.951959000000002
 20
174.62173200000001
 30
0.0
 11
-95.692991000000006
 21
174.691124
 31
0.0
  0
LINE
  5
261
  8
OUTLINE
  6
CONTINUOUS
 62
     3
 10
-95.692991000000006
 20
174.691124
 30
0.0
 11
-95.570350000000005
 21
174.72332900000001
 31
0.0
  0
LINE
  5
262
  8
OUTLINE
  6
CONTINUOUS
 62
     3
 10
-95.570350000000005
 20
174.72332900000001
 30
0.0
 11
-95.511364
 21
174.73845800000001
 31
0.0
  0
LINE
  5
263
  8
OUTLINE
  6
CONTINUOUS
 62
     3
 10
-95.464958999999993
 20
174.74960999999999
 30
0.0
 11
-95.461652000000001
 21
174.75
 31
0.0
  0
LINE
  5
264
  8
OUTLINE
  6
CONTINUOUS
 62
     3
 10
-95.474418999999997
 20
174.74752599999991
 30
0.0
 11
-95.464958999999993
 21
174.74960999999999
 31
0.0
  0
LINE
  5
265
  8
OUTLINE
  6
CONTINUOUS
 62
     3
 10
-95.489964999999984
 20
174.74380099999991
 30
0.0
 11
-95.474418999999997
 21
174.74752599999991
 31
0.0
  0
LINE
  5
266
  8
OUTLINE
  6
CONTINUOUS
 62
     3
 10
-95.511364
 20
174.73845800000001
 30
0.0
 11
-95.489964999999984
 21
174.74380099999991
 31
0.0
  0
LINE
  5
267
  8
OUTLINE
  6
CONTINUOUS
 62
     3
 10
-105.1868379999999
 20
193.0
 30
0.0
 11
-109.9527579999999
 21
193.0
 31
0.0
  0
LINE
  5
268
  8
OUTLINE
  6
CONTINUOUS
 62
     3
 10
-95.461652000000001
 20
174.75
 30
0.0
 11
-95.483525
 21
175.0
 31
0.0
  0
LINE
  5
269
  8
OUTLINE
  6
CONTINUOUS
 62
     3
 10
121.41317099999991
 20
165.0
 30
0.0
 11
94.987267000000003
 21
165.0
 31
0.0
  0
LINE
  5
26A
  8
OUTLINE
  6
CONTINUOUS
 62
     3
 10
-92.274793000000003
 20
168.0
 30
0.0
 11
-95.461652000000001
 21
174.75
 31
0.0
  0
LINE
  5
26B
  8
OUTLINE
  6
CONTINUOUS
 62
     3
 10
126.8828239999999
 20
0.029489
 30
0.0
 11
126.8243879999999
 21
0.052018
 31
0.0
  0
LINE
  5
26C
  8
OUTLINE
  6
CONTINUOUS
 62
     3
 10
126.7690639999999
 20
0.080469
 30
0.0
 11
126.746624
 21
0.095127
 31
0.0
  0
LINE
  5
26D
  8
OUTLINE
  6
CONTINUOUS
 62
     3
 10
126.8243879999999
 20
0.052018
 30
0.0
 11
126.7690639999999
 21
0.080469
 31
0.0
  0
LINE
  5
26E
  8
OUTLINE
  6
CONTINUOUS
 62
     3
 10
-97.645240000000015
 20
186.28682900000001
 30
0.0
 11
-103.77262499999991
 21
192.4142139999999
 31
0.0
  0
LINE
  5
26F
  8
OUTLINE
  6
CONTINUOUS
 62
     3
 10
126.943273
 20
0.013088
 30
0.0
 11
126.8828239999999
 21
0.029489
 31
0.0
  0
LINE
  5
270
  8
OUTLINE
  6
CONTINUOUS
 62
     3
 10
127.0042429999999
 20
0.003314
 30
0.0
 11
126.943273
 21
0.013088
 31
0.0
  0
LINE
  5
271
  8
OUTLINE
  6
CONTINUOUS
 62
     3
 10
127.066233
 20
0.0
 30
0.0
 11
127.0042429999999
 21
0.003314
 31
0.0
  0
LINE
  5
272
  8
OUTLINE
  6
CONTINUOUS
 62
     3
 10
126.75
 20
0.0
 30
0.0
 11
123.9127899999999
 21
162.54363099999989
 31
0.0
  0
LINE
  5
273
  8
OUTLINE
  6
CONTINUOUS
 62
     3
 10
126.67066799999991
 20
4.5449349999999988
 30
0.0
 11
126.748203
 21
0.0
 31
0.0
  0
LINE
  5
274
  8
OUTLINE
  6
CONTINUOUS
 62
     3
 10
-96.095945
 20
182.0
 30
0.0
 11
-96.199801000000008
 21
183.187074
 31
0.0
  0
LINE
  5
275
  8
OUTLINE
  6
CONTINUOUS
 62
     3
 10
-114.831862
 20
182.0
 30
0.0
 11
-114.8070689999999
 21
183.4203949999999
 31
0.0
  0
ARC
  5
276
  8
OUTLINE
  6
CONTINUOUS
 62
     3
 10
94.355562000000006
 20
167.5
 30
0.0
 40
0.5
 50
3.0
 51
90.0
  0
LINE
  5
277
  8
OUTLINE
  6
CONTINUOUS
 62
     3
 10
94.987267000000003
 20
165.0
 30
0.0
 11
94.854877000000002
 21
167.52616800000001
 31
0.0
  0
LINE
  5
278
  8
OUTLINE
  6
CONTINUOUS
 62
     3
 10
94.355562000000006
 20
168.0
 30
0.0
 11
-92.274793000000003
 21
168.0
 31
0.0
  0
ARC
  5
279
  8
OUTLINE
  6
CONTINUOUS
 62
     3
 10
47.999996000000003
 20
194.5000169999999
 30
0.0
 40
5.5
 50
0.0
 51
90.0
  0
LINE
  5
27A
  8
OUTLINE
  6
CONTINUOUS
 62
     3
 10
53.499996000000003
 20
194.5000169999999
 30
0.0
 11
53.499996000000003
 21
168.0
 31
0.0
  0
LINE
  5
27B
  8
OUTLINE
  6
CONTINUOUS
 62
     3
 10
-28.50000399999999
 20
194.5000169999999
 30
0.0
 11
-28.50000399999999
 21
168.0
 31
0.0
  0
ARC
  5
27C
  8
OUTLINE
  6
CONTINUOUS
 62
     3
 10
-23.000004000000001
 20
194.5000169999999
 30
0.0
 40
5.5
 50
90.0
 51
180.0
  0
LINE
  5
27D
  8
OUTLINE
  6
CONTINUOUS
 62
     3
 10
47.999996000000003
 20
200.0000169999999
 30
0.0
 11
12.999995999999999
 21
200.0000169999999
 31
0.0
  0
LINE
  5
27E
  8
OUTLINE
  6
CONTINUOUS
 62
     3
 10
-23.000004000000001
 20
200.0000169999999
 30
0.0
 11
12.999995999999999
 21
200.0000169999999
 31
0.0
  0
LINE
  5
27F
  8
OUTLINE
  6
CONTINUOUS
 62
     3
 10
-117.73135499999999
 20
181.287453
 30
0.0
 11
-117.945728
 21
177.0
 31
0.0
  0
LINE
  5
280
  8
OUTLINE
  6
CONTINUOUS
 62
     3
 10
-117.73135499999999
 20
181.287453
 30
0.0
 11
-117.945728
 21
177.0
 31
0.0
  0
LINE
  5
281
  8
OUTLINE
  6
CONTINUOUS
 62
     3
 10
-117.945728
 20
177.0
 30
0.0
 11
-121.945728
 21
177.0
 31
0.0
  0
LINE
  5
282
  8
OUTLINE
  6
CONTINUOUS
 62
     3
 10
-123.9453639999999
 20
175.0
 30
0.0
 11
-127.0
 21
0.0
 31
0.0
  0
ARC
  5
283
  8
OUTLINE
  6
CONTINUOUS
 62
     3
 10
-121.945728
 20
175.0
 30
0.0
 40
2.0
 50
90.0
 51
180.0
  0
ARC
  5
284
  8
OUTLINE
  6
CONTINUOUS
 62
     3
 10
-121.945728
 20
175.0
 30
0.0
 40
2.0
 50
90.0
 51
180.0
  0
ARC
  5
285
  8
OUTLINE
  6
CONTINUOUS
 62
     3
 10
-116.9822909999999
 20
181.25
 30
0.0
 40
0.75
 50
90.0
 51
177.137595
  0
LINE
  5
286
  8
OUTLINE
  6
CONTINUOUS
 62
     3
 10
-116.9822909999999
 20
182.0
 30
0.0
 11
-116.9091639999999
 21
182.0
 31
0.0
  0
LINE
  5
287
  8
OUTLINE
  6
CONTINUOUS
 62
     3
 10
-116.9822909999999
 20
182.0
 30
0.0
 11
-116.9091639999999
 21
182.0
 31
0.0
  0
ARC
  5
288
  8
OUTLINE
  6
CONTINUOUS
 62
     3
 10
-116.9822909999999
 20
181.25
 30
0.0
 40
0.75
 50
90.0
 51
177.137595
  0
LINE
  5
289
  8
OUTLINE
  6
CONTINUOUS
 62
     3
 10
-116.9822909999999
 20
182.0
 30
0.0
 11
-114.831862
 21
182.0
 31
0.0
  0
LINE
  5
28A
  8
OUTLINE
  6
CONTINUOUS
 62
     3
 10
-87.945728000000003
 20
175.0
 30
0.0
 11
-95.483525
 21
175.0
 31
0.0
  0
LINE
  5
28B
  8
OUTLINE
  6
CONTINUOUS
 62
     3
 10
-88.982291000000004
 20
182.0
 30
0.0
 11
-88.919420000000002
 21
182.0
 31
0.0
  0
LINE
  5
28C
  8
OUTLINE
  6
CONTINUOUS
 62
     3
 10
-88.169897999999989
 20
181.276769
 30
0.0
 11
-87.945728000000003
 21
175.0
 31
0.0
  0
ARC
  5
28D
  8
OUTLINE
  6
CONTINUOUS
 62
     3
 10
-88.919420000000002
 20
181.25
 30
0.0
 40
0.75
 50
2.0454080000000001
 51
90.0
  0
ARC
  5
28E
  8
OUTLINE
  6
CONTINUOUS
 62
     3
 10
-88.919420000000002
 20
181.25
 30
0.0
 40
0.75
 50
2.0454080000000001
 51
90.0
  0
LINE
  5
28F
  8
OUTLINE
  6
CONTINUOUS
 62
     3
 10
-88.169897999999989
 20
181.276769
 30
0.0
 11
-87.945728000000003
 21
175.0
 31
0.0
  0
LINE
  5
290
  8
OUTLINE
  6
CONTINUOUS
 62
     3
 10
-88.982291000000004
 20
182.0
 30
0.0
 11
-88.919420000000002
 21
182.0
 31
0.0
  0
LINE
  5
291
  8
OUTLINE
  6
CONTINUOUS
 62
     3
 10
-96.095945
 20
182.0
 30
0.0
 11
-88.982291000000004
 21
182.0
 31
0.0
  0
LINE
  5
292
  8
OUTLINE
  6
CONTINUOUS
 62
     3
 39
50.0
 10
118.0
 20
-20.0
 30
0.0
 11
118.0
 21
-19.0
 31
0.0
  0
LINE
  5
293
  8
OUTLINE
  6
CONTINUOUS
 62
     3
 39
50.0
 10
119.5
 20
-20.0
 30
0.0
 11
119.5
 21
-19.0
 31
0.0
  0
LINE
  5
294
  8
OUTLINE
  6
CONTINUOUS
 62
     3
 39
50.0
 10
-119.5
 20
-20.0
 30
0.0
 11
-119.5
 21
-19.0
 31
0.0
  0
LINE
  5
295
  8
OUTLINE
  6
CONTINUOUS
 62
     3
 39
50.0
 10
-118.0
 20
-20.0
 30
0.0
 11
-118.0
 21
-19.0
 31
0.0
  0
TEXT
  5
296
  8
NOTE
  6
CONTINUOUS
 62
     4
 10
295.71624500000001
 20
434.64254799999998
 30
0.0
 40
64.0
  1
AH 4-âË15ü~22
 41
0.9
  0
LINE
  5
297
  8
NOTE
  6
CONTINUOUS
 62
     4
 39
50.0
 10
159.91506399999989
 20
124.8659249999999
 30
0.0
 11
283.55284399999999
 21
421.73318899999992
 31
0.0
  0
LINE
  5
298
  8
NOTE
  6
CONTINUOUS
 62
     4
 39
50.0
 10
921.89100000000008
 20
421.73318899999992
 30
0.0
 11
283.55284399999999
 21
421.73318899999992
 31
0.0
  0
LINE
  5
299
  8
NOTE
  6
CONTINUOUS
 62
     4
 39
50.0
 10
174.58284299999991
 20
138.69881399999991
 30
0.0
 11
159.91506399999989
 21
124.8659249999999
 31
0.0
  0
LINE
  5
29A
  8
NOTE
  6
CONTINUOUS
 62
     4
 39
50.0
 10
159.91506399999989
 20
124.8659249999999
 30
0.0
 11
161.5044509999999
 21
145.3973639999999
 31
0.0
  0
ENDSEC
  0
EOF
