  0
SECTION
  2
HEADER
  9
$ACADVER
  1
AC1009
  9
$INSBASE
 10
0.0
 20
0.0
 30
0.0
  9
$EXTMIN
 10
-871.71215800000004
 20
-1075.256979
 30
0.0
  9
$EXTMAX
 10
1590.270955142857
 20
1032.012739
 30
125.0
  9
$LIMMIN
 10
-2970.0
 20
-2100.0
  9
$LIMMAX
 10
2970.0
 20
2100.0
  9
$ORTHOMODE
 70
     0
  9
$REGENMODE
 70
     1
  9
$FILLMODE
 70
     1
  9
$QTEXTMODE
 70
     0
  9
$MIRRTEXT
 70
     0
  9
$DRAGMODE
 70
     2
  9
$LTSCALE
 40
20.0
  9
$OSMODE
 70
   943
  9
$ATTMODE
 70
     1
  9
$TEXTSIZE
 40
64.0
  9
$TRACEWID
 40
0.05
  9
$TEXTSTYLE
  7
STANDARD
  9
$CLAYER
  8
ETC
  9
$CELTYPE
  6
CONTINUOUS
  9
$CECOLOR
 62
     7
  9
$DIMSCALE
 40
1.0
  9
$DIMASZ
 40
12.0
  9
$DIMEXO
 40
20.0
  9
$DIMDLI
 40
200.0
  9
$DIMRND
 40
0.0
  9
$DIMDLE
 40
0.0
  9
$DIMEXE
 40
20.0
  9
$DIMTP
 40
0.0
  9
$DIMTM
 40
0.0
  9
$DIMTXT
 40
64.0
  9
$DIMCEN
 40
0.09
  9
$DIMTSZ
 40
0.0
  9
$DIMTOL
 70
     0
  9
$DIMLIM
 70
     0
  9
$DIMTIH
 70
     0
  9
$DIMTOH
 70
     0
  9
$DIMSE1
 70
     0
  9
$DIMSE2
 70
     0
  9
$DIMTAD
 70
     1
  9
$DIMZIN
 70
     8
  9
$DIMBLK
  1
DOT1
  9
$DIMASO
 70
     1
  9
$DIMSHO
 70
     0
  9
$DIMPOST
  1

  9
$DIMAPOST
  1

  9
$DIMALT
 70
     0
  9
$DIMALTD
 70
     2
  9
$DIMALTF
 40
25.399999999999999
  9
$DIMLFAC
 40
1.0
  9
$DIMTOFL
 70
     1
  9
$DIMTVP
 40
0.0
  9
$DIMTIX
 70
     1
  9
$DIMSOXD
 70
     0
  9
$DIMSAH
 70
     1
  9
$DIMBLK1
  1
ORIGIN
  9
$DIMBLK2
  1
ORIGIN
  9
$DIMSTYLE
  2
STANDARD
  9
$DIMCLRD
 70
     7
  9
$DIMCLRE
 70
     7
  9
$DIMCLRT
 70
     7
  9
$DIMTFAC
 40
1.0
  9
$DIMGAP
 40
25.0
  9
$LUNITS
 70
     2
  9
$LUPREC
 70
     4
  9
$SKETCHINC
 40
0.1
  9
$FILLETRAD
 40
15.0
  9
$AUNITS
 70
     1
  9
$AUPREC
 70
     3
  9
$MENU
  1
ACAD
  9
$ELEVATION
 40
0.0
  9
$PELEVATION
 40
0.0
  9
$THICKNESS
 40
50.0
  9
$LIMCHECK
 70
     0
  9
$BLIPMODE
 70
     0
  9
$CHAMFERA
 40
0.0
  9
$CHAMFERB
 40
0.0
  9
$SKPOLY
 70
     0
  9
$TDCREATE
 40
2453019.6230103709
  9
$TDUPDATE
 40
2456954.6285453588
  9
$TDINDWG
 40
1.8506562499999999
  9
$TDUSRTIMER
 40
1.8506560300999999
  9
$USRTIMER
 70
     1
  9
$ANGBASE
 50
0.0
  9
$ANGDIR
 70
     0
  9
$PDMODE
 70
     3
  9
$PDSIZE
 40
-2.0
  9
$PLINEWID
 40
0.0
  9
$COORDS
 70
     1
  9
$SPLFRAME
 70
     0
  9
$SPLINETYPE
 70
     6
  9
$SPLINESEGS
 70
     8
  9
$ATTDIA
 70
     1
  9
$ATTREQ
 70
     1
  9
$HANDLING
 70
     1
  9
$HANDSEED
  5
3F8
  9
$SURFTAB1
 70
     6
  9
$SURFTAB2
 70
     6
  9
$SURFTYPE
 70
     6
  9
$SURFU
 70
     6
  9
$SURFV
 70
     6
  9
$UCSNAME
  2

  9
$UCSORG
 10
0.0
 20
0.0
 30
0.0
  9
$UCSXDIR
 10
1.0
 20
0.0
 30
0.0
  9
$UCSYDIR
 10
0.0
 20
1.0
 30
0.0
  9
$PUCSNAME
  2

  9
$PUCSORG
 10
0.0
 20
0.0
 30
0.0
  9
$PUCSXDIR
 10
1.0
 20
0.0
 30
0.0
  9
$PUCSYDIR
 10
0.0
 20
1.0
 30
0.0
  9
$USERI1
 70
     0
  9
$USERI2
 70
     0
  9
$USERI3
 70
     0
  9
$USERI4
 70
     0
  9
$USERI5
 70
     0
  9
$USERR1
 40
20.0
  9
$USERR2
 40
0.0
  9
$USERR3
 40
0.0
  9
$USERR4
 40
0.0
  9
$USERR5
 40
0.0
  9
$WORLDVIEW
 70
     1
  9
$SHADEDGE
 70
     3
  9
$SHADEDIF
 70
    70
  9
$TILEMODE
 70
     1
  9
$MAXACTVP
 70
    48
  9
$PLIMCHECK
 70
     0
  9
$PEXTMIN
 10
-1.0000000000000000E+020
 20
-1.0000000000000000E+020
 30
-1.0000000000000000E+020
  9
$PEXTMAX
 10
1.0000000000000000E+020
 20
1.0000000000000000E+020
 30
1.0000000000000000E+020
  9
$PLIMMIN
 10
0.0
 20
0.0
  9
$PLIMMAX
 10
12.0
 20
9.0
  9
$UNITMODE
 70
     0
  9
$VISRETAIN
 70
     0
  9
$PLINEGEN
 70
     0
  9
$PSLTSCALE
 70
     0
  0
ENDSEC
  0
SECTION
  2
TABLES
  0
TABLE
  2
VPORT
 70
     1
  0
VPORT
  2
*ACTIVE
 70
     0
 10
0.0
 20
0.0
 11
1.0
 21
1.0
 12
386.98646385684521
 22
310.29548134465273
 13
0.0
 23
0.0
 14
1.0
 24
1.0
 15
0.0
 25
0.0
 16
0.0
 26
0.0
 36
1.0
 17
0.0
 27
0.0
 37
0.0
 40
3607.492041600724
 41
1.3299620733249049
 42
50.0
 43
0.0
 44
0.0
 50
0.0
 51
0.0
 71
     0
 72
  1000
 73
     1
 74
     0
 75
     0
 76
     0
 77
     0
 78
     0
  0
ENDTAB
  0
TABLE
  2
LTYPE
 70
     4
  0
LTYPE
  2
CONTINUOUS
 70
     0
  3
Ä└É³
 72
    65
 73
     0
 40
0.0
  0
LTYPE
  2
DASHDOT
 70
     0
  3
____ _ ____ _ ____ _ ____ _ ____ _ ____ _ ____
 72
    65
 73
     4
 40
5.5
 49
4.0
 49
-0.6
 49
0.3
 49
-0.6
  0
LTYPE
  2
DASHED
 70
     0
  3
-- -- -- -- -- -- -- -- -- -- -- -- -- -- --
 72
    65
 73
     2
 40
0.75
 49
0.5
 49
-0.25
  0
ENDTAB
  0
TABLE
  2
LAYER
 70
    12
  0
LAYER
  2
0
 70
     0
 62
     7
  6
CONTINUOUS
  0
LAYER
  2
NOTE
 70
     0
 62
     4
  6
CONTINUOUS
  0
LAYER
  2
BASIS
 70
     0
 62
     6
  6
DASHDOT
  0
LAYER
  2
OUTLINE
 70
     0
 62
     3
  6
CONTINUOUS
  0
LAYER
  2
DETAIL
 70
     0
 62
     5
  6
CONTINUOUS
  0
LAYER
  2
SIZE
 70
     0
 62
    30
  6
CONTINUOUS
  0
LAYER
  2
ARRANGE
 70
     0
 62
     1
  6
CONTINUOUS
  0
LAYER
  2
DEFPOINTS
 70
     0
 62
     7
  6
CONTINUOUS
  0
LAYER
  2
ETC
 70
     0
 62
    61
  6
CONTINUOUS
  0
LAYER
  2
FIX
 70
     0
 62
    11
  6
CONTINUOUS
  0
LAYER
  2
SERVICESPACE
 70
     0
 62
     2
  6
DASHDOT
  0
LAYER
  2
SYMBOLLINE
 70
     0
 62
    15
  6
CONTINUOUS
  0
ENDTAB
  0
TABLE
  2
STYLE
 70
     2
  0
STYLE
  2
STANDARD
 70
     0
 40
64.0
 41
0.9
 50
0.0
 71
     0
 42
64.0
  3
SIMPLEX.shx
  4
BIGFONT.shx
  0
STYLE
  2
ANNOTATIVE
 70
     0
 40
0.0
 41
1.0
 50
0.0
 71
     0
 42
0.2
  3
txt
  4

  0
ENDTAB
  0
TABLE
  2
VIEW
 70
     1
  0
VIEW
  2
ALL
 70
     0
 40
4282.6198080000004
 10
0.0
 20
41.309904000000003
 41
5940.0
 11
0.0
 21
0.0
 31
1.0
 12
0.0
 22
0.0
 32
0.0
 42
50.0
 43
0.0
 44
0.0
 50
0.0
 71
     0
  0
ENDTAB
  0
TABLE
  2
UCS
 70
     0
  0
ENDTAB
  0
TABLE
  2
APPID
 70
    18
  0
APPID
  2
ACAD
 70
     0
  0
APPID
  2
ACADANNOTATIVE
 70
     0
  0
APPID
  2
AUTOCAD_POSTSCRIPT_FIGURE
 70
     0
  0
APPID
  2
ACAD_EXEMPT_FROM_CAD_STANDARDS
 70
     0
  0
APPID
  2
ACAD_PSEXT
 70
     0
  0
APPID
  2
ACAUTHENVIRON
 70
     0
  0
APPID
  2
GENIUS_GENOENT_13
 70
     0
  0
APPID
  2
GENIUS_GENCFG_13
 70
     0
  0
APPID
  2
GENIUS_GENCFG0_13
 70
     0
  0
APPID
  2
GENIUS_GENCFG1_13
 70
     0
  0
APPID
  2
GENIUS_GENCFG2_13
 70
     0
  0
APPID
  2
GENIUS_GENCFG3_13
 70
     0
  0
APPID
  2
GENIUS_GENCFG4_13
 70
     0
  0
APPID
  2
GENIUS_GEVCFG0_13
 70
     0
  0
APPID
  2
CONTENTBLOCKICON
 70
     0
  0
APPID
  2
CONTENTBLOCKDESCRIPTION
 70
     0
  0
APPID
  2
ACAD_NAV_VCDISPLAY
 70
     0
  0
APPID
  2
ACAD_MLEADERVER
 70
     0
  0
ENDTAB
  0
TABLE
  2
DIMSTYLE
 70
     2
  0
DIMSTYLE
  2
STANDARD
 70
     0
  3

  4

  5

  6

  7

 40
1.0
 41
0.18
 42
0.0625
 43
0.38
 44
0.18
 45
0.0
 46
0.0
 47
0.0
 48
0.0
140
0.18
141
0.09
142
0.0
143
25.399999999999999
144
1.0
145
0.0
146
1.0
147
0.09
 71
     0
 72
     0
 73
     1
 74
     1
 75
     0
 76
     0
 77
     0
 78
     0
170
     0
171
     2
172
     0
173
     0
174
     0
175
     0
176
     7
177
     7
178
     7
  0
DIMSTYLE
  2
ANNOTATIVE
 70
     0
  3

  4

  5

  6

  7

 40
1.0
 41
0.18
 42
0.0625
 43
0.38
 44
0.18
 45
0.0
 46
0.0
 47
0.0
 48
0.0
140
0.18
141
0.09
142
0.0
143
25.399999999999999
144
1.0
145
0.0
146
1.0
147
0.09
 71
     0
 72
     0
 73
     1
 74
     1
 75
     0
 76
     0
 77
     0
 78
     0
170
     0
171
     2
172
     0
173
     0
174
     0
175
     0
176
     0
177
     0
178
     0
  0
ENDTAB
  0
ENDSEC
  0
SECTION
  2
BLOCKS
  0
BLOCK
  8
0
  2
$MODEL_SPACE
 70
     0
 10
0.0
 20
0.0
 30
0.0
  3
$MODEL_SPACE
  1

  0
ENDBLK
  5
366
  8
0
  0
BLOCK
 67
     1
  8
0
  2
$PAPER_SPACE
 70
     0
 10
0.0
 20
0.0
 30
0.0
  3
$PAPER_SPACE
  1

  0
ENDBLK
  5
362
 67
     1
  8
0
  0
BLOCK
  8
0
  2
DOT1
 70
     0
 10
0.0
 20
0.0
 30
0.0
  3
DOT1
  1

  0
CIRCLE
  5
44
  8
SIZE
  6
CONTINUOUS
 62
     7
 10
0.0
 20
0.0
 30
0.0
 40
3.0
  0
ENDBLK
  5
45
  8
0
  0
BLOCK
  8
0
  2
_ORIGIN
 70
     0
 10
0.0
 20
0.0
 30
0.0
  3
_ORIGIN
  1

  0
CIRCLE
  5
48
  8
0
  6
CONTINUOUS
 62
     7
 10
0.0
 20
0.0
 30
0.0
 40
0.5
  0
LINE
  5
49
  8
0
  6
CONTINUOUS
 62
     7
 10
0.0
 20
0.0
 30
0.0
 11
-1.0
 21
0.0
 31
0.0
  0
ENDBLK
  5
4A
  8
0
  0
ENDSEC
  0
SECTION
  2
ENTITIES
  0
TEXT
  5
4B
  8
ETC
  6
CONTINUOUS
 62
    61
 10
594.70658900000001
 20
836.6935279999999
 30
0.0
 40
64.0
  1
VD-15ZFVC2-HM_1
 41
0.9
  0
TEXT
  5
4C
  8
ETC
  6
CONTINUOUS
 62
    61
 10
590.52059499999996
 20
718.73821799999996
 30
0.0
 40
64.0
  1
èÀïCÉ¯
 41
0.9
  0
TEXT
  5
4D
  8
ETC
  6
CONTINUOUS
 62
    61
 10
641.12809800000014
 20
614.68675607340344
 30
0.0
 40
40.0
  1
VD-15ZFVC2-HM
 41
0.9
  0
CIRCLE
  5
4E
  8
ARRANGE
  6
CONTINUOUS
 62
     1
 10
0.0
 20
0.0
 30
0.0
 40
40.0
  0
POINT
  5
4F
  8
ARRANGE
  6
CONTINUOUS
 62
     1
 10
0.0
 20
0.0
 30
0.0
 39
50.0
  0
LINE
  5
50
  8
BASIS
  6
DASHDOT
 62
     6
 39
50.0
 10
0.0
 20
-294.78704800000008
 30
0.0
 11
0.0
 21
274.78704800000003
 31
0.0
  0
LINE
  5
51
  8
BASIS
  6
DASHDOT
 62
     6
 39
50.0
 10
295.77917799999989
 20
0.0
 30
0.0
 11
-295.77917799999989
 21
0.0
 31
0.0
  0
LINE
  5
52
  8
NOTE
  6
CONTINUOUS
 62
     4
 39
50.0
 10
90.0
 20
-81.518071000000006
 30
0.0
 11
90.0
 21
-48.481929000000001
 31
0.0
  0
LINE
  5
53
  8
NOTE
  6
CONTINUOUS
 62
     4
 39
50.0
 10
107.5855959999999
 20
-65.0
 30
0.0
 11
72.414404000000005
 21
-65.0
 31
0.0
  0
CIRCLE
  5
54
  8
FIX
  6
CONTINUOUS
 62
    11
 39
50.0
 10
141.5
 20
85.0
 30
0.0
 40
2.5
  0
TEXT
  5
55
  8
NOTE
  6
CONTINUOUS
 62
     4
 10
-47.525105999999987
 20
-371.10894999999988
 30
0.0
 40
64.0
  1
EA
 41
0.9
  0
TEXT
  5
56
  8
NOTE
  6
CONTINUOUS
 62
     4
 10
280.92798599999992
 20
308.26433300000002
 30
0.0
 40
64.0
  1
EL
 41
0.9
  0
LINE
  5
57
  8
NOTE
  6
CONTINUOUS
 62
     4
 39
50.0
 10
380.94152700000001
 20
294.13422700000001
 30
0.0
 11
262.92535299999992
 21
294.13422700000001
 31
0.0
  0
LINE
  5
58
  8
NOTE
  6
CONTINUOUS
 62
     4
 39
50.0
 10
262.92535299999992
 20
294.13422700000001
 30
0.0
 11
90.0
 21
-65.0
 31
0.0
  0
TEXT
  5
59
  8
NOTE
  6
CONTINUOUS
 62
     4
 10
324.37335699999988
 20
-252.90127699999999
 30
0.0
 40
64.0
  1
8-âË5
 41
0.9
  0
LINE
  5
5A
  8
NOTE
  6
CONTINUOUS
 62
     4
 39
50.0
 10
583.88090899999975
 20
-265.61427099999992
 30
0.0
 11
281.66204099999999
 21
-265.61427099999992
 31
0.0
  0
LINE
  5
5B
  8
NOTE
  6
CONTINUOUS
 62
     4
 39
50.0
 10
281.66204099999999
 20
-265.61427099999992
 30
0.0
 11
141.5
 21
-85.0
 31
0.0
  0
LINE
  5
5C
  8
NOTE
  6
CONTINUOUS
 62
     4
 39
50.0
 10
141.5
 20
-85.0
 30
0.0
 11
152.01110299999991
 21
-118.0029149999999
 31
0.0
  0
LINE
  5
5D
  8
NOTE
  6
CONTINUOUS
 62
     4
 39
50.0
 10
141.5
 20
-85.0
 30
0.0
 11
170.8600999999999
 21
-103.375534
 31
0.0
  0
CIRCLE
  5
5E
  8
FIX
  6
CONTINUOUS
 62
    11
 39
50.0
 10
85.0
 20
141.5
 30
0.0
 40
2.5
  0
LINE
  5
5F
  8
NOTE
  6
CONTINUOUS
 62
     4
 39
50.0
 10
90.0
 20
-65.0
 30
0.0
 11
95.661064999999994
 21
-43.654105999999992
 31
0.0
  0
LINE
  5
60
  8
NOTE
  6
CONTINUOUS
 62
     4
 10
142.9127219999998
 20
91.993071
 30
0.0
 11
142.9127219999998
 21
118.006929
 31
0.0
  0
LINE
  5
61
  8
NOTE
  6
CONTINUOUS
 62
     4
 10
105.412722
 20
127.849338
 30
0.0
 11
105.412722
 21
157.15066200000001
 31
0.0
  0
LINE
  5
62
  8
NOTE
  6
CONTINUOUS
 62
     4
 10
92.041560000000004
 20
142.5
 30
0.0
 11
118.783885
 21
142.5
 31
0.0
  0
LINE
  5
63
  8
NOTE
  6
CONTINUOUS
 62
     4
 10
127.25345
 20
105.0
 30
0.0
 11
158.5719949999999
 21
105.0
 31
0.0
  0
LINE
  5
64
  8
NOTE
  6
CONTINUOUS
 62
     4
 10
-104.587278
 20
-125.14133200000001
 30
0.0
 11
-104.587278
 21
-159.85866799999991
 31
0.0
  0
LINE
  5
65
  8
NOTE
  6
CONTINUOUS
 62
     4
 10
-124.470353
 20
-105.0
 30
0.0
 11
-155.70420200000001
 21
-105.0
 31
0.0
  0
LINE
  5
66
  8
NOTE
  6
CONTINUOUS
 62
     4
 10
-142.087278
 20
-91.510824999999997
 30
0.0
 11
-142.087278
 21
-118.489175
 31
0.0
  0
LINE
  5
67
  8
NOTE
  6
CONTINUOUS
 62
     4
 10
-88.632332000000005
 20
-142.5
 30
0.0
 11
-120.54222300000001
 21
-142.5
 31
0.0
  0
TEXT
  5
68
  8
NOTE
  6
CONTINUOUS
 62
     4
 10
-47.525105999999987
 20
290.94456100000002
 30
0.0
 40
64.0
  1
RA1
 41
0.9
  0
CIRCLE
  5
69
  8
FIX
  6
CONTINUOUS
 62
    11
 39
50.0
 10
-141.5
 20
85.0
 30
0.0
 40
2.5
  0
LINE
  5
6A
  8
NOTE
  6
CONTINUOUS
 62
     4
 39
125.0
 10
-141.5
 20
93.454633999999984
 30
0.0
 11
-141.5
 21
76.766518000000005
 31
0.0
  0
LINE
  5
6B
  8
NOTE
  6
CONTINUOUS
 62
     4
 39
125.0
 10
-133.85719900000001
 20
85.0
 30
0.0
 11
-149.804081
 21
85.0
 31
0.0
  0
CIRCLE
  5
6C
  8
FIX
  6
CONTINUOUS
 62
    11
 39
50.0
 10
-85.0
 20
141.5
 30
0.0
 40
2.5
  0
LINE
  5
6D
  8
NOTE
  6
CONTINUOUS
 62
     4
 39
125.0
 10
-85.0
 20
149.84405799999999
 30
0.0
 11
-85.0
 21
133.15594200000001
 31
0.0
  0
LINE
  5
6E
  8
NOTE
  6
CONTINUOUS
 62
     4
 39
125.0
 10
-77.026559000000006
 20
141.5
 30
0.0
 11
-92.973440999999994
 21
141.5
 31
0.0
  0
CIRCLE
  5
6F
  8
FIX
  6
CONTINUOUS
 62
    11
 39
50.0
 10
141.5
 20
-85.0
 30
0.0
 40
2.5
  0
LINE
  5
70
  8
NOTE
  6
CONTINUOUS
 62
     4
 39
125.0
 10
141.5
 20
-93.454633999999984
 30
0.0
 11
141.5
 21
-76.766518000000005
 31
0.0
  0
LINE
  5
71
  8
NOTE
  6
CONTINUOUS
 62
     4
 39
125.0
 10
133.85719900000001
 20
-85.0
 30
0.0
 11
149.804081
 21
-85.0
 31
0.0
  0
CIRCLE
  5
72
  8
FIX
  6
CONTINUOUS
 62
    11
 39
50.0
 10
85.0
 20
-141.5
 30
0.0
 40
2.5
  0
LINE
  5
73
  8
NOTE
  6
CONTINUOUS
 62
     4
 39
125.0
 10
85.0
 20
-149.84405799999999
 30
0.0
 11
85.0
 21
-133.15594200000001
 31
0.0
  0
LINE
  5
74
  8
NOTE
  6
CONTINUOUS
 62
     4
 39
125.0
 10
77.026559000000006
 20
-141.5
 30
0.0
 11
92.973440999999994
 21
-141.5
 31
0.0
  0
CIRCLE
  5
75
  8
FIX
  6
CONTINUOUS
 62
    11
 39
50.0
 10
-141.5
 20
-85.0
 30
0.0
 40
2.5
  0
CIRCLE
  5
76
  8
FIX
  6
CONTINUOUS
 62
    11
 39
50.0
 10
-85.0
 20
-141.5
 30
0.0
 40
2.5
  0
TEXT
  5
77
  8
NOTE
  6
CONTINUOUS
 62
     4
 10
330.87055199999992
 20
-17.623522000000001
 30
0.0
 40
64.0
  1
RA2
 41
0.9
  0
TEXT
  5
78
  8
NOTE
  6
CONTINUOUS
 62
     4
 10
-487.38181699999978
 20
-17.623522000000001
 30
0.0
 40
64.0
  1
RA3
 41
0.9
  0
LINE
  5
79
  8
SIZE
  6
CONTINUOUS
 62
    30
 10
-49.049410999999999
 20
-254.3005069999999
 30
0.0
 11
-49.049410999999999
 21
-454.09781199999998
 31
0.0
  0
LINE
  5
7A
  8
SIZE
  6
CONTINUOUS
 62
    30
 10
49.049410999999999
 20
-254.3005069999999
 30
0.0
 11
49.049410999999999
 21
-454.09781199999998
 31
0.0
  0
LINE
  5
7B
  8
SIZE
  6
CONTINUOUS
 62
    30
 10
-37.049410999999999
 20
-434.09781199999992
 30
0.0
 11
37.049410999999999
 21
-434.09781199999992
 31
0.0
  0
LINE
  5
7C
  8
SIZE
  6
CONTINUOUS
 62
    30
 10
49.049410999999999
 20
-434.09781199999992
 30
0.0
 11
346.14677799999993
 21
-434.09781199999992
 31
0.0
  0
CIRCLE
  5
7D
  8
SIZE
  6
CONTINUOUS
 62
    30
 10
-49.049410999999999
 20
-434.09781199999992
 30
0.0
 40
6.0
  0
LINE
  5
7E
  8
SIZE
  6
CONTINUOUS
 62
    30
 10
-49.049410999999999
 20
-434.09781199999992
 30
0.0
 11
-37.049410999999999
 21
-434.09781199999992
 31
0.0
  0
CIRCLE
  5
7F
  8
SIZE
  6
CONTINUOUS
 62
    30
 10
49.049410999999999
 20
-434.09781199999992
 30
0.0
 40
6.0
  0
LINE
  5
80
  8
SIZE
  6
CONTINUOUS
 62
    30
 10
49.049410999999999
 20
-434.09781199999992
 30
0.0
 11
37.049410999999999
 21
-434.09781199999992
 31
0.0
  0
TEXT
  5
81
  8
SIZE
  6
CONTINUOUS
 62
    30
 10
158.76963557142841
 20
-409.09781199999992
 30
0.0
 40
64.0
  1
âË98
 41
0.9
 72
     1
 11
245.71820699999989
 21
-409.09781199999992
 31
0.0
  0
POINT
  5
82
  8
DEFPOINTS
  6
CONTINUOUS
 62
    30
 10
-49.049410999999999
 20
-234.30050700000001
 30
0.0
  0
POINT
  5
83
  8
DEFPOINTS
  6
CONTINUOUS
 62
    30
 10
49.049410999999999
 20
-234.30050700000001
 30
0.0
  0
POINT
  5
84
  8
DEFPOINTS
  6
CONTINUOUS
 62
    30
 10
49.049410999999999
 20
-434.09781199999992
 30
0.0
  0
LINE
  5
85
  8
SIZE
  6
CONTINUOUS
 62
    30
 10
-52.517041999999982
 20
-222.568973
 30
0.0
 11
-52.517041999999982
 21
-577.77994899999976
 31
0.0
  0
LINE
  5
86
  8
SIZE
  6
CONTINUOUS
 62
    30
 10
52.517029999999998
 20
-222.56897499999991
 30
0.0
 11
52.517029999999998
 21
-577.77994899999976
 31
0.0
  0
LINE
  5
87
  8
SIZE
  6
CONTINUOUS
 62
    30
 10
-40.517041999999982
 20
-557.77994899999999
 30
0.0
 11
40.517029999999977
 21
-557.77994899999999
 31
0.0
  0
LINE
  5
88
  8
SIZE
  6
CONTINUOUS
 62
    30
 10
52.517029999999998
 20
-557.77994899999999
 30
0.0
 11
390.31154700000002
 21
-557.77994899999999
 31
0.0
  0
CIRCLE
  5
89
  8
SIZE
  6
CONTINUOUS
 62
    30
 10
-52.517041999999982
 20
-557.77994899999999
 30
0.0
 40
6.0
  0
LINE
  5
8A
  8
SIZE
  6
CONTINUOUS
 62
    30
 10
-52.517041999999982
 20
-557.77994899999999
 30
0.0
 11
-40.517041999999982
 21
-557.77994899999999
 31
0.0
  0
CIRCLE
  5
8B
  8
SIZE
  6
CONTINUOUS
 62
    30
 10
52.517029999999998
 20
-557.77994899999999
 30
0.0
 40
6.0
  0
LINE
  5
8C
  8
SIZE
  6
CONTINUOUS
 62
    30
 10
52.517029999999998
 20
-557.77994899999999
 30
0.0
 11
40.517029999999977
 21
-557.77994899999999
 31
0.0
  0
TEXT
  5
8D
  8
SIZE
  6
CONTINUOUS
 62
    30
 10
159.04868942857141
 20
-532.77994899999999
 30
0.0
 40
64.0
  1
âË105
 41
0.9
 72
     1
 11
267.94011799999998
 21
-532.77994899999999
 31
0.0
  0
POINT
  5
8E
  8
DEFPOINTS
  6
CONTINUOUS
 62
    30
 10
-52.517041999999982
 20
-202.56897299999989
 30
0.0
  0
POINT
  5
8F
  8
DEFPOINTS
  6
CONTINUOUS
 62
    30
 10
52.517029999999998
 20
-202.56897499999999
 30
0.0
  0
POINT
  5
90
  8
DEFPOINTS
  6
CONTINUOUS
 62
    30
 10
52.517029999999998
 20
-557.77994899999999
 30
0.0
  0
LINE
  5
91
  8
SIZE
  6
CONTINUOUS
 62
    30
 10
-85.0
 20
-169.8440579999999
 30
0.0
 11
-85.0
 21
-707.35170900000003
 31
0.0
  0
LINE
  5
92
  8
SIZE
  6
CONTINUOUS
 62
    30
 10
85.0
 20
-169.8440579999999
 30
0.0
 11
85.0
 21
-707.35170900000003
 31
0.0
  0
LINE
  5
93
  8
SIZE
  6
CONTINUOUS
 62
    30
 10
-97.0
 20
-687.3517089999998
 30
0.0
 11
-109.0
 21
-687.3517089999998
 31
0.0
  0
LINE
  5
94
  8
SIZE
  6
CONTINUOUS
 62
    30
 10
97.0
 20
-687.3517089999998
 30
0.0
 11
109.0
 21
-687.3517089999998
 31
0.0
  0
LINE
  5
95
  8
SIZE
  6
CONTINUOUS
 62
    30
 10
-85.0
 20
-687.3517089999998
 30
0.0
 11
85.0
 21
-687.3517089999998
 31
0.0
  0
CIRCLE
  5
96
  8
SIZE
  6
CONTINUOUS
 62
    30
 10
-85.0
 20
-687.3517089999998
 30
0.0
 40
6.0
  0
LINE
  5
97
  8
SIZE
  6
CONTINUOUS
 62
    30
 10
-85.0
 20
-687.3517089999998
 30
0.0
 11
-97.0
 21
-687.3517089999998
 31
0.0
  0
CIRCLE
  5
98
  8
SIZE
  6
CONTINUOUS
 62
    30
 10
85.0
 20
-687.3517089999998
 30
0.0
 40
6.0
  0
LINE
  5
99
  8
SIZE
  6
CONTINUOUS
 62
    30
 10
85.0
 20
-687.3517089999998
 30
0.0
 11
97.0
 21
-687.3517089999998
 31
0.0
  0
TEXT
  5
9A
  8
SIZE
  6
CONTINUOUS
 62
    30
 10
-68.571428571428569
 20
-662.3517089999998
 30
0.0
 40
64.0
  1
170
 41
0.9
 72
     1
 11
0.0
 21
-662.3517089999998
 31
0.0
  0
POINT
  5
9B
  8
DEFPOINTS
  6
CONTINUOUS
 62
    30
 10
-85.0
 20
-149.84405799999999
 30
0.0
  0
POINT
  5
9C
  8
DEFPOINTS
  6
CONTINUOUS
 62
    30
 10
85.0
 20
-149.84405799999999
 30
0.0
  0
POINT
  5
9D
  8
DEFPOINTS
  6
CONTINUOUS
 62
    30
 10
85.0
 20
-687.3517089999998
 30
0.0
  0
LINE
  5
9E
  8
SIZE
  6
CONTINUOUS
 62
    30
 10
-141.5
 20
-113.454634
 30
0.0
 11
-141.5
 21
-823.18101000000001
 31
0.0
  0
LINE
  5
9F
  8
SIZE
  6
CONTINUOUS
 62
    30
 10
141.5
 20
-113.454634
 30
0.0
 11
141.5
 21
-823.18101000000001
 31
0.0
  0
LINE
  5
A0
  8
SIZE
  6
CONTINUOUS
 62
    30
 10
-129.4999999999998
 20
-803.1810099999999
 30
0.0
 11
129.4999999999998
 21
-803.1810099999999
 31
0.0
  0
CIRCLE
  5
A1
  8
SIZE
  6
CONTINUOUS
 62
    30
 10
-141.5
 20
-803.1810099999999
 30
0.0
 40
6.0
  0
LINE
  5
A2
  8
SIZE
  6
CONTINUOUS
 62
    30
 10
-141.5
 20
-803.1810099999999
 30
0.0
 11
-129.4999999999998
 21
-803.1810099999999
 31
0.0
  0
CIRCLE
  5
A3
  8
SIZE
  6
CONTINUOUS
 62
    30
 10
141.5
 20
-803.1810099999999
 30
0.0
 40
6.0
  0
LINE
  5
A4
  8
SIZE
  6
CONTINUOUS
 62
    30
 10
141.5
 20
-803.1810099999999
 30
0.0
 11
129.4999999999998
 21
-803.1810099999999
 31
0.0
  0
TEXT
  5
A5
  8
SIZE
  6
CONTINUOUS
 62
    30
 10
-74.057142857142836
 20
-778.18101000000001
 30
0.0
 40
64.0
  1
283
 41
0.9
 72
     1
 11
0.0
 21
-778.18101000000001
 31
0.0
  0
POINT
  5
A6
  8
DEFPOINTS
  6
CONTINUOUS
 62
    30
 10
-141.5
 20
-93.454633999999984
 30
0.0
  0
POINT
  5
A7
  8
DEFPOINTS
  6
CONTINUOUS
 62
    30
 10
141.5
 20
-93.454633999999984
 30
0.0
  0
POINT
  5
A8
  8
DEFPOINTS
  6
CONTINUOUS
 62
    30
 10
141.5
 20
-803.1810099999999
 30
0.0
  0
LINE
  5
A9
  8
SIZE
  6
CONTINUOUS
 62
    30
 10
-153.0
 20
-173.0
 30
0.0
 11
-153.0
 21
-946.47050000000002
 31
0.0
  0
LINE
  5
AA
  8
SIZE
  6
CONTINUOUS
 62
    30
 10
153.0
 20
-173.0
 30
0.0
 11
153.0
 21
-946.47050000000002
 31
0.0
  0
LINE
  5
AB
  8
SIZE
  6
CONTINUOUS
 62
    30
 10
-141.0
 20
-926.47050000000013
 30
0.0
 11
141.0
 21
-926.47050000000013
 31
0.0
  0
CIRCLE
  5
AC
  8
SIZE
  6
CONTINUOUS
 62
    30
 10
-153.0
 20
-926.47050000000013
 30
0.0
 40
6.0
  0
LINE
  5
AD
  8
SIZE
  6
CONTINUOUS
 62
    30
 10
-153.0
 20
-926.47050000000013
 30
0.0
 11
-141.0
 21
-926.47050000000013
 31
0.0
  0
CIRCLE
  5
AE
  8
SIZE
  6
CONTINUOUS
 62
    30
 10
153.0
 20
-926.47050000000013
 30
0.0
 40
6.0
  0
LINE
  5
AF
  8
SIZE
  6
CONTINUOUS
 62
    30
 10
153.0
 20
-926.47050000000013
 30
0.0
 11
141.0
 21
-926.47050000000013
 31
0.0
  0
TEXT
  5
B0
  8
SIZE
  6
CONTINUOUS
 62
    30
 10
-72.685714285714283
 20
-901.47050000000013
 30
0.0
 40
64.0
  1
306
 41
0.9
 72
     1
 11
0.0
 21
-901.47050000000013
 31
0.0
  0
POINT
  5
B1
  8
DEFPOINTS
  6
CONTINUOUS
 62
    30
 10
-153.0
 20
-153.0
 30
0.0
  0
POINT
  5
B2
  8
DEFPOINTS
  6
CONTINUOUS
 62
    30
 10
153.0
 20
-153.0
 30
0.0
  0
POINT
  5
B3
  8
DEFPOINTS
  6
CONTINUOUS
 62
    30
 10
153.0
 20
-926.47050000000013
 30
0.0
  0
LINE
  5
B4
  8
SIZE
  6
CONTINUOUS
 62
    30
 10
-165.0
 20
-170.0
 30
0.0
 11
-165.0
 21
-1075.256979
 31
0.0
  0
LINE
  5
B5
  8
SIZE
  6
CONTINUOUS
 62
    30
 10
165.0
 20
-170.0
 30
0.0
 11
165.0
 21
-1075.256979
 31
0.0
  0
LINE
  5
B6
  8
SIZE
  6
CONTINUOUS
 62
    30
 10
-153.0
 20
-1055.2569789999991
 30
0.0
 11
153.0
 21
-1055.2569789999991
 31
0.0
  0
CIRCLE
  5
B7
  8
SIZE
  6
CONTINUOUS
 62
    30
 10
-165.0
 20
-1055.2569789999991
 30
0.0
 40
6.0
  0
LINE
  5
B8
  8
SIZE
  6
CONTINUOUS
 62
    30
 10
-165.0
 20
-1055.2569789999991
 30
0.0
 11
-153.0
 21
-1055.2569789999991
 31
0.0
  0
CIRCLE
  5
B9
  8
SIZE
  6
CONTINUOUS
 62
    30
 10
165.0
 20
-1055.2569789999991
 30
0.0
 40
6.0
  0
LINE
  5
BA
  8
SIZE
  6
CONTINUOUS
 62
    30
 10
165.0
 20
-1055.2569789999991
 30
0.0
 11
153.0
 21
-1055.2569789999991
 31
0.0
  0
TEXT
  5
BB
  8
SIZE
  6
CONTINUOUS
 62
    30
 10
-110.5371428571428
 20
-1030.256979
 30
0.0
 40
64.0
  1
üá330
 41
0.9
 72
     1
 11
0.0
 21
-1030.256979
 31
0.0
  0
POINT
  5
BC
  8
DEFPOINTS
  6
CONTINUOUS
 62
    30
 10
-165.0
 20
-150.0
 30
0.0
  0
POINT
  5
BD
  8
DEFPOINTS
  6
CONTINUOUS
 62
    30
 10
165.0
 20
-150.0
 30
0.0
  0
POINT
  5
BE
  8
DEFPOINTS
  6
CONTINUOUS
 62
    30
 10
165.0
 20
-1055.2569789999991
 30
0.0
  0
LINE
  5
BF
  8
SIZE
  6
CONTINUOUS
 62
    30
 10
-49.049410999999999
 20
227.16095000000001
 30
0.0
 11
-49.049410999999999
 21
529.00418399999978
 31
0.0
  0
LINE
  5
C0
  8
SIZE
  6
CONTINUOUS
 62
    30
 10
49.049410999999999
 20
227.16095000000001
 30
0.0
 11
49.049410999999999
 21
529.00418399999978
 31
0.0
  0
LINE
  5
C1
  8
SIZE
  6
CONTINUOUS
 62
    30
 10
-37.049410999999999
 20
509.00418400000001
 30
0.0
 11
37.049410999999999
 21
509.00418400000001
 31
0.0
  0
LINE
  5
C2
  8
SIZE
  6
CONTINUOUS
 62
    30
 10
49.049410999999999
 20
509.00418400000001
 30
0.0
 11
346.168091
 21
509.00418400000001
 31
0.0
  0
CIRCLE
  5
C3
  8
SIZE
  6
CONTINUOUS
 62
    30
 10
-49.049410999999999
 20
509.00418400000001
 30
0.0
 40
6.0
  0
LINE
  5
C4
  8
SIZE
  6
CONTINUOUS
 62
    30
 10
-49.049410999999999
 20
509.00418400000001
 30
0.0
 11
-37.049410999999999
 21
509.00418400000001
 31
0.0
  0
CIRCLE
  5
C5
  8
SIZE
  6
CONTINUOUS
 62
    30
 10
49.049410999999999
 20
509.00418400000001
 30
0.0
 40
6.0
  0
LINE
  5
C6
  8
SIZE
  6
CONTINUOUS
 62
    30
 10
49.049410999999999
 20
509.00418400000001
 30
0.0
 11
37.049410999999999
 21
509.00418400000001
 31
0.0
  0
TEXT
  5
C7
  8
SIZE
  6
CONTINUOUS
 62
    30
 10
158.79094757142849
 20
534.00418400000001
 30
0.0
 40
64.0
  1
âË98
 41
0.9
 72
     1
 11
245.739519
 21
534.00418400000001
 31
0.0
  0
POINT
  5
C8
  8
DEFPOINTS
  6
CONTINUOUS
 62
    30
 10
-49.049410999999999
 20
207.16095000000001
 30
0.0
  0
POINT
  5
C9
  8
DEFPOINTS
  6
CONTINUOUS
 62
    30
 10
49.049410999999999
 20
207.16095000000001
 30
0.0
  0
POINT
  5
CA
  8
DEFPOINTS
  6
CONTINUOUS
 62
    30
 10
49.049410999999999
 20
509.00418400000001
 30
0.0
  0
LINE
  5
CB
  8
SIZE
  6
CONTINUOUS
 62
    30
 10
-52.517041999999982
 20
198.17596700000001
 30
0.0
 11
-52.517041999999982
 21
649.0041839999999
 31
0.0
  0
LINE
  5
CC
  8
SIZE
  6
CONTINUOUS
 62
    30
 10
52.517029999999998
 20
198.17596800000001
 30
0.0
 11
52.517029999999998
 21
649.0041839999999
 31
0.0
  0
LINE
  5
CD
  8
SIZE
  6
CONTINUOUS
 62
    30
 10
-40.517041999999982
 20
629.00418400000001
 30
0.0
 11
40.517029999999977
 21
629.00418400000001
 31
0.0
  0
LINE
  5
CE
  8
SIZE
  6
CONTINUOUS
 62
    30
 10
52.517029999999998
 20
629.00418400000001
 30
0.0
 11
371.35684700000002
 21
629.00418400000001
 31
0.0
  0
CIRCLE
  5
CF
  8
SIZE
  6
CONTINUOUS
 62
    30
 10
-52.517041999999982
 20
629.00418400000001
 30
0.0
 40
6.0
  0
LINE
  5
D0
  8
SIZE
  6
CONTINUOUS
 62
    30
 10
-52.517041999999982
 20
629.00418400000001
 30
0.0
 11
-40.517041999999982
 21
629.00418400000001
 31
0.0
  0
CIRCLE
  5
D1
  8
SIZE
  6
CONTINUOUS
 62
    30
 10
52.517029999999998
 20
629.00418400000001
 30
0.0
 40
6.0
  0
LINE
  5
D2
  8
SIZE
  6
CONTINUOUS
 62
    30
 10
52.517029999999998
 20
629.00418400000001
 30
0.0
 11
40.517029999999977
 21
629.00418400000001
 31
0.0
  0
TEXT
  5
D3
  8
SIZE
  6
CONTINUOUS
 62
    30
 10
140.0939894285714
 20
654.00418400000001
 30
0.0
 40
64.0
  1
âË105
 41
0.9
 72
     1
 11
248.98541800000001
 21
654.00418400000001
 31
0.0
  0
POINT
  5
D4
  8
DEFPOINTS
  6
CONTINUOUS
 62
    30
 10
-52.517041999999982
 20
178.17596700000001
 30
0.0
  0
POINT
  5
D5
  8
DEFPOINTS
  6
CONTINUOUS
 62
    30
 10
52.517029999999998
 20
178.17596800000001
 30
0.0
  0
POINT
  5
D6
  8
DEFPOINTS
  6
CONTINUOUS
 62
    30
 10
52.517029999999998
 20
629.00418400000001
 30
0.0
  0
LINE
  5
D7
  8
SIZE
  6
CONTINUOUS
 62
    30
 10
90.0
 20
-28.481929000000001
 30
0.0
 11
90.0
 21
415.52077199999991
 31
0.0
  0
LINE
  5
D8
  8
SIZE
  6
CONTINUOUS
 62
    30
 10
0.0
 20
219.66885600000001
 30
0.0
 11
0.0
 21
415.52077199999991
 31
0.0
  0
LINE
  5
D9
  8
SIZE
  6
CONTINUOUS
 62
    30
 10
12.0
 20
395.52077200000002
 30
0.0
 11
78.0
 21
395.52077200000002
 31
0.0
  0
LINE
  5
DA
  8
SIZE
  6
CONTINUOUS
 62
    30
 10
90.0
 20
395.52077200000002
 30
0.0
 11
339.37121999999988
 21
395.52077200000002
 31
0.0
  0
CIRCLE
  5
DB
  8
SIZE
  6
CONTINUOUS
 62
    30
 10
0.0
 20
395.52077200000002
 30
0.0
 40
6.0
  0
LINE
  5
DC
  8
SIZE
  6
CONTINUOUS
 62
    30
 10
0.0
 20
395.52077200000002
 30
0.0
 11
12.0
 21
395.52077200000002
 31
0.0
  0
CIRCLE
  5
DD
  8
SIZE
  6
CONTINUOUS
 62
    30
 10
90.0
 20
395.52077200000002
 30
0.0
 40
6.0
  0
LINE
  5
DE
  8
SIZE
  6
CONTINUOUS
 62
    30
 10
90.0
 20
395.52077200000002
 30
0.0
 11
78.0
 21
395.52077200000002
 31
0.0
  0
TEXT
  5
DF
  8
SIZE
  6
CONTINUOUS
 62
    30
 10
221.11407757142851
 20
420.52077200000002
 30
0.0
 40
64.0
  1
90
 41
0.9
 72
     1
 11
267.74264899999991
 21
420.52077200000002
 31
0.0
  0
POINT
  5
E0
  8
DEFPOINTS
  6
CONTINUOUS
 62
    30
 10
90.0
 20
-48.481929000000001
 30
0.0
  0
POINT
  5
E1
  8
DEFPOINTS
  6
CONTINUOUS
 62
    30
 10
0.0
 20
199.66885600000001
 30
0.0
  0
POINT
  5
E2
  8
DEFPOINTS
  6
CONTINUOUS
 62
    30
 10
0.0
 20
395.52077200000002
 30
0.0
  0
LINE
  5
E3
  8
SIZE
  6
CONTINUOUS
 62
    30
 10
-104.587278
 20
-105.14133199999991
 30
0.0
 11
-104.587278
 21
731.17295499999989
 31
0.0
  0
LINE
  5
E4
  8
SIZE
  6
CONTINUOUS
 62
    30
 10
105.412722
 20
177.15066200000001
 30
0.0
 11
105.412722
 21
731.17295499999989
 31
0.0
  0
LINE
  5
E5
  8
SIZE
  6
CONTINUOUS
 62
    30
 10
-92.587277999999998
 20
711.17295499999977
 30
0.0
 11
93.412722000000002
 21
711.17295499999977
 31
0.0
  0
CIRCLE
  5
E6
  8
SIZE
  6
CONTINUOUS
 62
    30
 10
-104.587278
 20
711.17295499999977
 30
0.0
 40
6.0
  0
LINE
  5
E7
  8
SIZE
  6
CONTINUOUS
 62
    30
 10
-104.587278
 20
711.17295499999977
 30
0.0
 11
-92.587277999999998
 21
711.17295499999977
 31
0.0
  0
CIRCLE
  5
E8
  8
SIZE
  6
CONTINUOUS
 62
    30
 10
105.412722
 20
711.17295499999977
 30
0.0
 40
6.0
  0
LINE
  5
E9
  8
SIZE
  6
CONTINUOUS
 62
    30
 10
105.412722
 20
711.17295499999977
 30
0.0
 11
93.412722000000002
 21
711.17295499999977
 31
0.0
  0
TEXT
  5
EA
  8
SIZE
  6
CONTINUOUS
 62
    30
 10
-68.158706571428553
 20
736.17295499999989
 30
0.0
 40
64.0
  1
210
 41
0.9
 72
     1
 11
0.4127220000000025
 21
736.17295499999989
 31
0.0
  0
POINT
  5
EB
  8
DEFPOINTS
  6
CONTINUOUS
 62
    30
 10
-104.587278
 20
-125.14133200000001
 30
0.0
  0
POINT
  5
EC
  8
DEFPOINTS
  6
CONTINUOUS
 62
    30
 10
105.412722
 20
157.15066200000001
 30
0.0
  0
POINT
  5
ED
  8
DEFPOINTS
  6
CONTINUOUS
 62
    30
 10
105.412722
 20
711.17295499999977
 30
0.0
  0
LINE
  5
EE
  8
SIZE
  6
CONTINUOUS
 62
    30
 10
142.9127219999998
 20
138.00692900000001
 30
0.0
 11
142.9127219999998
 21
851.20928000000015
 31
0.0
  0
LINE
  5
EF
  8
SIZE
  6
CONTINUOUS
 62
    30
 10
-142.087278
 20
-64.5
 30
0.0
 11
-142.087278
 21
851.20928000000015
 31
0.0
  0
LINE
  5
F0
  8
SIZE
  6
CONTINUOUS
 62
    30
 10
130.912722
 20
831.20928000000004
 30
0.0
 11
-130.08727799999991
 21
831.20928000000004
 31
0.0
  0
CIRCLE
  5
F1
  8
SIZE
  6
CONTINUOUS
 62
    30
 10
142.9127219999998
 20
831.20928000000004
 30
0.0
 40
6.0
  0
LINE
  5
F2
  8
SIZE
  6
CONTINUOUS
 62
    30
 10
142.9127219999998
 20
831.20928000000004
 30
0.0
 11
130.912722
 21
831.20928000000004
 31
0.0
  0
CIRCLE
  5
F3
  8
SIZE
  6
CONTINUOUS
 62
    30
 10
-142.087278
 20
831.20928000000004
 30
0.0
 40
6.0
  0
LINE
  5
F4
  8
SIZE
  6
CONTINUOUS
 62
    30
 10
-142.087278
 20
831.20928000000004
 30
0.0
 11
-130.08727799999991
 21
831.20928000000004
 31
0.0
  0
TEXT
  5
F5
  8
SIZE
  6
CONTINUOUS
 62
    30
 10
-73.644420857142819
 20
856.20928000000004
 30
0.0
 40
64.0
  1
285
 41
0.9
 72
     1
 11
0.4127220000000025
 21
856.20928000000004
 31
0.0
  0
POINT
  5
F6
  8
DEFPOINTS
  6
CONTINUOUS
 62
    30
 10
142.9127219999998
 20
118.006929
 30
0.0
  0
POINT
  5
F7
  8
DEFPOINTS
  6
CONTINUOUS
 62
    30
 10
-142.087278
 20
-84.500000000000014
 30
0.0
  0
POINT
  5
F8
  8
DEFPOINTS
  6
CONTINUOUS
 62
    30
 10
-142.087278
 20
831.20928000000004
 30
0.0
  0
LINE
  5
F9
  8
SIZE
  6
CONTINUOUS
 62
    30
 10
-69.049411000000006
 20
-236.553956
 30
0.0
 11
-421.49204999999989
 21
-236.553956
 31
0.0
  0
LINE
  5
FA
  8
SIZE
  6
CONTINUOUS
 62
    30
 10
-66.235562000000002
 20
-206.829826
 30
0.0
 11
-421.49204999999989
 21
-206.829826
 31
0.0
  0
LINE
  5
FB
  8
SIZE
  6
CONTINUOUS
 62
    30
 10
-401.49205000000001
 20
-194.82982599999991
 30
0.0
 11
-401.49205000000001
 21
-182.829826
 31
0.0
  0
LINE
  5
FC
  8
SIZE
  6
CONTINUOUS
 62
    30
 10
-401.49205000000001
 20
-248.55395599999991
 30
0.0
 11
-401.49205000000001
 21
-432.81109899999979
 31
0.0
  0
LINE
  5
FD
  8
SIZE
  6
CONTINUOUS
 62
    30
 10
-401.49205000000001
 20
-206.829826
 30
0.0
 11
-401.49205000000001
 21
-236.553956
 31
0.0
  0
CIRCLE
  5
FE
  8
SIZE
  6
CONTINUOUS
 62
    30
 10
-401.49205000000001
 20
-206.829826
 30
0.0
 40
6.0
  0
LINE
  5
FF
  8
SIZE
  6
CONTINUOUS
 62
    30
 10
-401.49205000000001
 20
-206.829826
 30
0.0
 11
-401.49205000000001
 21
-194.82982599999991
 31
0.0
  0
CIRCLE
  5
100
  8
SIZE
  6
CONTINUOUS
 62
    30
 10
-401.49205000000001
 20
-236.553956
 30
0.0
 40
6.0
  0
LINE
  5
101
  8
SIZE
  6
CONTINUOUS
 62
    30
 10
-401.49205000000001
 20
-236.553956
 30
0.0
 11
-401.49205000000001
 21
-248.55395599999991
 31
0.0
  0
TEXT
  5
102
  8
SIZE
  6
CONTINUOUS
 62
    30
 10
-426.49205000000001
 20
-407.81109942857131
 30
0.0
 40
64.0
  1
30
 50
90.0
 41
0.9
 72
     1
 11
-426.49205000000001
 21
-361.18252799999988
 31
0.0
  0
POINT
  5
103
  8
DEFPOINTS
  6
CONTINUOUS
 62
    30
 10
-49.049410999999999
 20
-236.553956
 30
0.0
  0
POINT
  5
104
  8
DEFPOINTS
  6
CONTINUOUS
 62
    30
 10
-46.235562000000002
 20
-206.829826
 30
0.0
  0
POINT
  5
105
  8
DEFPOINTS
  6
CONTINUOUS
 62
    30
 10
-401.49205000000001
 20
-206.829826
 30
0.0
  0
LINE
  5
106
  8
SIZE
  6
CONTINUOUS
 62
    30
 10
-69.049411000000006
 20
-236.553956
 30
0.0
 11
-539.98975299999995
 21
-236.553956
 31
0.0
  0
LINE
  5
107
  8
SIZE
  6
CONTINUOUS
 62
    30
 10
-69.0
 20
-166.27101999999999
 30
0.0
 11
-539.98975299999995
 21
-166.27101999999999
 31
0.0
  0
LINE
  5
108
  8
SIZE
  6
CONTINUOUS
 62
    30
 10
-519.98975299999995
 20
-154.27101999999991
 30
0.0
 11
-519.98975299999995
 21
-142.27101999999999
 31
0.0
  0
LINE
  5
109
  8
SIZE
  6
CONTINUOUS
 62
    30
 10
-519.98975299999995
 20
-248.55395599999991
 30
0.0
 11
-519.98975299999995
 21
-432.81109899999979
 31
0.0
  0
LINE
  5
10A
  8
SIZE
  6
CONTINUOUS
 62
    30
 10
-519.98975299999995
 20
-166.27101999999999
 30
0.0
 11
-519.98975299999995
 21
-236.553956
 31
0.0
  0
CIRCLE
  5
10B
  8
SIZE
  6
CONTINUOUS
 62
    30
 10
-519.98975299999995
 20
-166.27101999999999
 30
0.0
 40
6.0
  0
LINE
  5
10C
  8
SIZE
  6
CONTINUOUS
 62
    30
 10
-519.98975299999995
 20
-166.27101999999999
 30
0.0
 11
-519.98975299999995
 21
-154.27101999999991
 31
0.0
  0
CIRCLE
  5
10D
  8
SIZE
  6
CONTINUOUS
 62
    30
 10
-519.98975299999995
 20
-236.553956
 30
0.0
 40
6.0
  0
LINE
  5
10E
  8
SIZE
  6
CONTINUOUS
 62
    30
 10
-519.98975299999995
 20
-236.553956
 30
0.0
 11
-519.98975299999995
 21
-248.55395599999991
 31
0.0
  0
TEXT
  5
10F
  8
SIZE
  6
CONTINUOUS
 62
    30
 10
-544.98975299999995
 20
-407.81109942857131
 30
0.0
 40
64.0
  1
70
 50
90.0
 41
0.9
 72
     1
 11
-544.98975299999995
 21
-361.18252799999999
 31
0.0
  0
POINT
  5
110
  8
DEFPOINTS
  6
CONTINUOUS
 62
    30
 10
-49.049410999999999
 20
-236.553956
 30
0.0
  0
POINT
  5
111
  8
DEFPOINTS
  6
CONTINUOUS
 62
    30
 10
-49.0
 20
-166.27101999999999
 30
0.0
  0
POINT
  5
112
  8
DEFPOINTS
  6
CONTINUOUS
 62
    30
 10
-519.98975299999995
 20
-166.27101999999999
 30
0.0
  0
LINE
  5
113
  8
SIZE
  6
CONTINUOUS
 62
    30
 10
-69.049411000000006
 20
-236.553956
 30
0.0
 11
-691.88048300000003
 21
-236.553956
 31
0.0
  0
LINE
  5
114
  8
SIZE
  6
CONTINUOUS
 62
    30
 10
-144.65554
 20
-126.7184169999999
 30
0.0
 11
-691.88048300000003
 21
-126.7184169999999
 31
0.0
  0
LINE
  5
115
  8
SIZE
  6
CONTINUOUS
 62
    30
 10
-671.88048300000003
 20
-138.7184169999999
 30
0.0
 11
-671.88048300000003
 21
-224.553956
 31
0.0
  0
LINE
  5
116
  8
SIZE
  6
CONTINUOUS
 62
    30
 10
-671.88048300000003
 20
-236.553956
 30
0.0
 11
-671.88048300000003
 21
-458.21109899999999
 31
0.0
  0
CIRCLE
  5
117
  8
SIZE
  6
CONTINUOUS
 62
    30
 10
-671.88048300000003
 20
-126.7184169999999
 30
0.0
 40
6.0
  0
LINE
  5
118
  8
SIZE
  6
CONTINUOUS
 62
    30
 10
-671.88048300000003
 20
-126.7184169999999
 30
0.0
 11
-671.88048300000003
 21
-138.7184169999999
 31
0.0
  0
CIRCLE
  5
119
  8
SIZE
  6
CONTINUOUS
 62
    30
 10
-671.88048300000003
 20
-236.553956
 30
0.0
 40
6.0
  0
LINE
  5
11A
  8
SIZE
  6
CONTINUOUS
 62
    30
 10
-671.88048300000003
 20
-236.553956
 30
0.0
 11
-671.88048300000003
 21
-224.553956
 31
0.0
  0
TEXT
  5
11B
  8
SIZE
  6
CONTINUOUS
 62
    30
 10
-696.88048300000003
 20
-433.21109928571428
 30
0.0
 40
64.0
  1
110
 50
90.0
 41
0.9
 72
     1
 11
-696.88048300000003
 21
-370.12538499999999
 31
0.0
  0
POINT
  5
11C
  8
DEFPOINTS
  6
CONTINUOUS
 62
    30
 10
-49.049410999999999
 20
-236.553956
 30
0.0
  0
POINT
  5
11D
  8
DEFPOINTS
  6
CONTINUOUS
 62
    30
 10
-124.6555399999999
 20
-126.7184169999999
 30
0.0
  0
POINT
  5
11E
  8
DEFPOINTS
  6
CONTINUOUS
 62
    30
 10
-671.88048300000003
 20
-126.7184169999999
 30
0.0
  0
LINE
  5
11F
  8
SIZE
  6
CONTINUOUS
 62
    30
 10
-144.65554
 20
-126.7184169999999
 30
0.0
 11
-691.88048300000003
 21
-126.7184169999999
 31
0.0
  0
LINE
  5
120
  8
SIZE
  6
CONTINUOUS
 62
    30
 10
-131.67348200000001
 20
127.0011039999999
 30
0.0
 11
-691.88048300000003
 21
127.0011039999999
 31
0.0
  0
LINE
  5
121
  8
SIZE
  6
CONTINUOUS
 62
    30
 10
-671.88048300000003
 20
-138.7184169999999
 30
0.0
 11
-671.88048300000003
 21
-150.7184169999999
 31
0.0
  0
LINE
  5
122
  8
SIZE
  6
CONTINUOUS
 62
    30
 10
-671.88048300000003
 20
139.001104
 30
0.0
 11
-671.88048300000003
 21
151.001104
 31
0.0
  0
LINE
  5
123
  8
SIZE
  6
CONTINUOUS
 62
    30
 10
-671.88048300000003
 20
-126.7184169999999
 30
0.0
 11
-671.88048300000003
 21
127.0011039999999
 31
0.0
  0
CIRCLE
  5
124
  8
SIZE
  6
CONTINUOUS
 62
    30
 10
-671.88048300000003
 20
-126.7184169999999
 30
0.0
 40
6.0
  0
LINE
  5
125
  8
SIZE
  6
CONTINUOUS
 62
    30
 10
-671.88048300000003
 20
-126.7184169999999
 30
0.0
 11
-671.88048300000003
 21
-138.7184169999999
 31
0.0
  0
CIRCLE
  5
126
  8
SIZE
  6
CONTINUOUS
 62
    30
 10
-671.88048300000003
 20
127.0011039999999
 30
0.0
 40
6.0
  0
LINE
  5
127
  8
SIZE
  6
CONTINUOUS
 62
    30
 10
-671.88048300000003
 20
127.0011039999999
 30
0.0
 11
-671.88048300000003
 21
139.001104
 31
0.0
  0
TEXT
  5
128
  8
SIZE
  6
CONTINUOUS
 62
    30
 10
-696.88048300000003
 20
-111.7672274285713
 30
0.0
 40
64.0
  1
üá254
 50
90.0
 41
0.9
 72
     1
 11
-696.88048300000003
 21
0.1413440000001117
 31
0.0
  0
POINT
  5
129
  8
DEFPOINTS
  6
CONTINUOUS
 62
    30
 10
-124.6555399999999
 20
-126.7184169999999
 30
0.0
  0
POINT
  5
12A
  8
DEFPOINTS
  6
CONTINUOUS
 62
    30
 10
-111.67348200000001
 20
127.0011039999999
 30
0.0
  0
POINT
  5
12B
  8
DEFPOINTS
  6
CONTINUOUS
 62
    30
 10
-671.88048300000003
 20
127.0011039999999
 30
0.0
  0
LINE
  5
12C
  8
SIZE
  6
CONTINUOUS
 62
    30
 10
-131.67348200000001
 20
127.0011039999999
 30
0.0
 11
-691.88048300000003
 21
127.0011039999999
 31
0.0
  0
LINE
  5
12D
  8
SIZE
  6
CONTINUOUS
 62
    30
 10
-66.742789000000002
 20
207.16095000000001
 30
0.0
 11
-691.88048300000003
 21
207.16095000000001
 31
0.0
  0
LINE
  5
12E
  8
SIZE
  6
CONTINUOUS
 62
    30
 10
-671.88048300000003
 20
139.001104
 30
0.0
 11
-671.88048300000003
 21
195.16095000000001
 31
0.0
  0
LINE
  5
12F
  8
SIZE
  6
CONTINUOUS
 62
    30
 10
-671.88048300000003
 20
207.16095000000001
 30
0.0
 11
-671.88048300000003
 21
449.73237899999998
 31
0.0
  0
CIRCLE
  5
130
  8
SIZE
  6
CONTINUOUS
 62
    30
 10
-671.88048300000003
 20
127.0011039999999
 30
0.0
 40
6.0
  0
LINE
  5
131
  8
SIZE
  6
CONTINUOUS
 62
    30
 10
-671.88048300000003
 20
127.0011039999999
 30
0.0
 11
-671.88048300000003
 21
139.001104
 31
0.0
  0
CIRCLE
  5
132
  8
SIZE
  6
CONTINUOUS
 62
    30
 10
-671.88048300000003
 20
207.16095000000001
 30
0.0
 40
6.0
  0
LINE
  5
133
  8
SIZE
  6
CONTINUOUS
 62
    30
 10
-671.88048300000003
 20
207.16095000000001
 30
0.0
 11
-671.88048300000003
 21
195.16095000000001
 31
0.0
  0
TEXT
  5
134
  8
SIZE
  6
CONTINUOUS
 62
    30
 10
-696.88048300000003
 20
331.47523557142858
 30
0.0
 40
64.0
  1
80
 50
90.0
 41
0.9
 72
     1
 11
-696.88048300000003
 21
378.10380700000002
 31
0.0
  0
POINT
  5
135
  8
DEFPOINTS
  6
CONTINUOUS
 62
    30
 10
-111.67348200000001
 20
127.0011039999999
 30
0.0
  0
POINT
  5
136
  8
DEFPOINTS
  6
CONTINUOUS
 62
    30
 10
-46.742789000000002
 20
207.16095000000001
 30
0.0
  0
POINT
  5
137
  8
DEFPOINTS
  6
CONTINUOUS
 62
    30
 10
-671.88048300000003
 20
207.16095000000001
 30
0.0
  0
LINE
  5
138
  8
SIZE
  6
CONTINUOUS
 62
    30
 10
-66.742789000000002
 20
207.16095000000001
 30
0.0
 11
-421.49204999999989
 21
207.16095000000001
 31
0.0
  0
LINE
  5
139
  8
SIZE
  6
CONTINUOUS
 62
    30
 10
-66.074573000000001
 20
182.43681900000001
 30
0.0
 11
-421.49204999999989
 21
182.43681900000001
 31
0.0
  0
LINE
  5
13A
  8
SIZE
  6
CONTINUOUS
 62
    30
 10
-401.49205000000001
 20
170.43681900000001
 30
0.0
 11
-401.49205000000001
 21
158.43681900000001
 31
0.0
  0
LINE
  5
13B
  8
SIZE
  6
CONTINUOUS
 62
    30
 10
-401.49205000000001
 20
219.16095000000001
 30
0.0
 11
-401.49205000000001
 21
438.41809299999989
 31
0.0
  0
LINE
  5
13C
  8
SIZE
  6
CONTINUOUS
 62
    30
 10
-401.49205000000001
 20
182.43681900000001
 30
0.0
 11
-401.49205000000001
 21
207.16095000000001
 31
0.0
  0
CIRCLE
  5
13D
  8
SIZE
  6
CONTINUOUS
 62
    30
 10
-401.49205000000001
 20
182.43681900000001
 30
0.0
 40
6.0
  0
LINE
  5
13E
  8
SIZE
  6
CONTINUOUS
 62
    30
 10
-401.49205000000001
 20
182.43681900000001
 30
0.0
 11
-401.49205000000001
 21
170.43681900000001
 31
0.0
  0
CIRCLE
  5
13F
  8
SIZE
  6
CONTINUOUS
 62
    30
 10
-401.49205000000001
 20
207.16095000000001
 30
0.0
 40
6.0
  0
LINE
  5
140
  8
SIZE
  6
CONTINUOUS
 62
    30
 10
-401.49205000000001
 20
207.16095000000001
 30
0.0
 11
-401.49205000000001
 21
219.16095000000001
 31
0.0
  0
TEXT
  5
141
  8
SIZE
  6
CONTINUOUS
 62
    30
 10
-426.49205000000001
 20
320.16094957142849
 30
0.0
 40
64.0
  1
25
 50
90.0
 41
0.9
 72
     1
 11
-426.49205000000001
 21
366.78952099999992
 31
0.0
  0
POINT
  5
142
  8
DEFPOINTS
  6
CONTINUOUS
 62
    30
 10
-46.742789000000002
 20
207.16095000000001
 30
0.0
  0
POINT
  5
143
  8
DEFPOINTS
  6
CONTINUOUS
 62
    30
 10
-46.074573000000001
 20
182.43681900000001
 30
0.0
  0
POINT
  5
144
  8
DEFPOINTS
  6
CONTINUOUS
 62
    30
 10
-401.49205000000001
 20
182.43681900000001
 30
0.0
  0
LINE
  5
145
  8
SIZE
  6
CONTINUOUS
 62
    30
 10
-0.586435
 20
54.282953999999989
 30
0.0
 11
-561.41133999999988
 21
54.282953999999989
 31
0.0
  0
LINE
  5
146
  8
SIZE
  6
CONTINUOUS
 62
    30
 10
-0.586435
 20
-27.717046
 30
0.0
 11
-561.41133999999988
 21
-27.717046
 31
0.0
  0
LINE
  5
147
  8
SIZE
  6
CONTINUOUS
 62
    30
 10
-541.41133999999977
 20
66.282954000000004
 30
0.0
 11
-541.41133999999977
 21
78.282954000000004
 31
0.0
  0
LINE
  5
148
  8
SIZE
  6
CONTINUOUS
 62
    30
 10
-541.41133999999977
 20
-39.717046000000011
 30
0.0
 11
-541.41133999999977
 21
-51.717046000000003
 31
0.0
  0
LINE
  5
149
  8
SIZE
  6
CONTINUOUS
 62
    30
 10
-541.41133999999977
 20
54.282953999999989
 30
0.0
 11
-541.41133999999977
 21
-27.717046
 31
0.0
  0
CIRCLE
  5
14A
  8
SIZE
  6
CONTINUOUS
 62
    30
 10
-541.41133999999977
 20
54.282953999999989
 30
0.0
 40
6.0
  0
LINE
  5
14B
  8
SIZE
  6
CONTINUOUS
 62
    30
 10
-541.41133999999977
 20
54.282953999999989
 30
0.0
 11
-541.41133999999977
 21
66.282953999999975
 31
0.0
  0
CIRCLE
  5
14C
  8
SIZE
  6
CONTINUOUS
 62
    30
 10
-541.41133999999977
 20
-27.717046
 30
0.0
 40
6.0
  0
LINE
  5
14D
  8
SIZE
  6
CONTINUOUS
 62
    30
 10
-541.41133999999977
 20
-27.717046
 30
0.0
 11
-541.41133999999977
 21
-39.717046000000011
 31
0.0
  0
TEXT
  5
14E
  8
SIZE
  6
CONTINUOUS
 62
    30
 10
-566.41133999999977
 20
-73.665617428571394
 30
0.0
 40
64.0
  1
âË82
 50
90.0
 41
0.9
 72
     1
 11
-566.41133999999977
 21
13.282954
 31
0.0
  0
POINT
  5
14F
  8
DEFPOINTS
  6
CONTINUOUS
 62
    30
 10
19.413564999999991
 20
54.282953999999989
 30
0.0
  0
POINT
  5
150
  8
DEFPOINTS
  6
CONTINUOUS
 62
    30
 10
19.413564999999991
 20
-27.717046
 30
0.0
  0
POINT
  5
151
  8
DEFPOINTS
  6
CONTINUOUS
 62
    30
 10
-541.41133999999977
 20
-27.717046
 30
0.0
  0
LINE
  5
152
  8
SIZE
  6
CONTINUOUS
 62
    30
 10
127.5855959999999
 20
-65.0
 30
0.0
 11
565.87346600000001
 21
-65.0
 31
0.0
  0
LINE
  5
153
  8
SIZE
  6
CONTINUOUS
 62
    30
 10
273.79119300000002
 20
0.0
 30
0.0
 11
565.87346600000001
 21
0.0
 31
0.0
  0
LINE
  5
154
  8
SIZE
  6
CONTINUOUS
 62
    30
 10
545.87346600000001
 20
-77.0
 30
0.0
 11
545.87346600000001
 21
-89.0
 31
0.0
  0
LINE
  5
155
  8
SIZE
  6
CONTINUOUS
 62
    30
 10
545.87346600000001
 20
12.0
 30
0.0
 11
545.87346600000001
 21
326.02682700000008
 31
0.0
  0
LINE
  5
156
  8
SIZE
  6
CONTINUOUS
 62
    30
 10
545.87346600000001
 20
-65.0
 30
0.0
 11
545.87346600000001
 21
0.0
 31
0.0
  0
CIRCLE
  5
157
  8
SIZE
  6
CONTINUOUS
 62
    30
 10
545.87346600000001
 20
-65.0
 30
0.0
 40
6.0
  0
LINE
  5
158
  8
SIZE
  6
CONTINUOUS
 62
    30
 10
545.87346600000001
 20
-65.0
 30
0.0
 11
545.87346600000001
 21
-77.0
 31
0.0
  0
CIRCLE
  5
159
  8
SIZE
  6
CONTINUOUS
 62
    30
 10
545.87346600000001
 20
0.0
 30
0.0
 40
6.0
  0
LINE
  5
15A
  8
SIZE
  6
CONTINUOUS
 62
    30
 10
545.87346600000001
 20
0.0
 30
0.0
 11
545.87346600000001
 21
12.0
 31
0.0
  0
TEXT
  5
15B
  8
SIZE
  6
CONTINUOUS
 62
    30
 10
520.87346600000001
 20
207.76968457142851
 30
0.0
 40
64.0
  1
65
 50
90.0
 41
0.9
 72
     1
 11
520.87346600000001
 21
254.39825599999989
 31
0.0
  0
POINT
  5
15C
  8
DEFPOINTS
  6
CONTINUOUS
 62
    30
 10
107.5855959999999
 20
-65.0
 30
0.0
  0
POINT
  5
15D
  8
DEFPOINTS
  6
CONTINUOUS
 62
    30
 10
253.79119299999991
 20
0.0
 30
0.0
  0
POINT
  5
15E
  8
DEFPOINTS
  6
CONTINUOUS
 62
    30
 10
545.87346600000001
 20
0.0
 30
0.0
  0
LINE
  5
15F
  8
SIZE
  6
CONTINUOUS
 62
    30
 10
169.804081
 20
85.0
 30
0.0
 11
699.20491500000003
 21
85.0
 31
0.0
  0
LINE
  5
160
  8
SIZE
  6
CONTINUOUS
 62
    30
 10
169.804081
 20
-85.0
 30
0.0
 11
699.20491500000003
 21
-85.0
 31
0.0
  0
LINE
  5
161
  8
SIZE
  6
CONTINUOUS
 62
    30
 10
679.20491500000003
 20
97.0
 30
0.0
 11
679.20491500000003
 21
109.0
 31
0.0
  0
LINE
  5
162
  8
SIZE
  6
CONTINUOUS
 62
    30
 10
679.20491500000003
 20
-97.0
 30
0.0
 11
679.20491500000003
 21
-109.0
 31
0.0
  0
LINE
  5
163
  8
SIZE
  6
CONTINUOUS
 62
    30
 10
679.20491500000003
 20
85.0
 30
0.0
 11
679.20491500000003
 21
-85.0
 31
0.0
  0
CIRCLE
  5
164
  8
SIZE
  6
CONTINUOUS
 62
    30
 10
679.20491500000003
 20
85.0
 30
0.0
 40
6.0
  0
LINE
  5
165
  8
SIZE
  6
CONTINUOUS
 62
    30
 10
679.20491500000003
 20
85.0
 30
0.0
 11
679.20491500000003
 21
97.0
 31
0.0
  0
CIRCLE
  5
166
  8
SIZE
  6
CONTINUOUS
 62
    30
 10
679.20491500000003
 20
-85.0
 30
0.0
 40
6.0
  0
LINE
  5
167
  8
SIZE
  6
CONTINUOUS
 62
    30
 10
679.20491500000003
 20
-85.0
 30
0.0
 11
679.20491500000003
 21
-97.0
 31
0.0
  0
TEXT
  5
168
  8
SIZE
  6
CONTINUOUS
 62
    30
 10
654.20491500000003
 20
-68.571428571428569
 30
0.0
 40
64.0
  1
170
 50
90.0
 41
0.9
 72
     1
 11
654.20491500000003
 21
-0.000000000000002
 31
0.0
  0
POINT
  5
169
  8
DEFPOINTS
  6
CONTINUOUS
 62
    30
 10
149.804081
 20
85.0
 30
0.0
  0
POINT
  5
16A
  8
DEFPOINTS
  6
CONTINUOUS
 62
    30
 10
149.804081
 20
-85.0
 30
0.0
  0
POINT
  5
16B
  8
DEFPOINTS
  6
CONTINUOUS
 62
    30
 10
679.20491500000003
 20
-85.0
 30
0.0
  0
LINE
  5
16C
  8
SIZE
  6
CONTINUOUS
 62
    30
 10
112.9734409999998
 20
141.5
 30
0.0
 11
964.01598100000001
 21
141.5
 31
0.0
  0
LINE
  5
16D
  8
SIZE
  6
CONTINUOUS
 62
    30
 10
112.9734409999998
 20
-141.5
 30
0.0
 11
964.01598100000001
 21
-141.5
 31
0.0
  0
LINE
  5
16E
  8
SIZE
  6
CONTINUOUS
 62
    30
 10
944.01598100000001
 20
129.4999999999998
 30
0.0
 11
944.01598100000001
 21
-129.4999999999998
 31
0.0
  0
CIRCLE
  5
16F
  8
SIZE
  6
CONTINUOUS
 62
    30
 10
944.01598100000001
 20
141.5
 30
0.0
 40
6.0
  0
LINE
  5
170
  8
SIZE
  6
CONTINUOUS
 62
    30
 10
944.01598100000001
 20
141.5
 30
0.0
 11
944.01598100000001
 21
129.4999999999998
 31
0.0
  0
CIRCLE
  5
171
  8
SIZE
  6
CONTINUOUS
 62
    30
 10
944.01598100000001
 20
-141.5
 30
0.0
 40
6.0
  0
LINE
  5
172
  8
SIZE
  6
CONTINUOUS
 62
    30
 10
944.01598100000001
 20
-141.5
 30
0.0
 11
944.01598100000001
 21
-129.4999999999998
 31
0.0
  0
TEXT
  5
173
  8
SIZE
  6
CONTINUOUS
 62
    30
 10
919.01598100000001
 20
-74.057142857142836
 30
0.0
 40
64.0
  1
283
 50
90.0
 41
0.9
 72
     1
 11
919.01598100000001
 21
-0.000000000000002
 31
0.0
  0
POINT
  5
174
  8
DEFPOINTS
  6
CONTINUOUS
 62
    30
 10
92.973440999999994
 20
141.5
 30
0.0
  0
POINT
  5
175
  8
DEFPOINTS
  6
CONTINUOUS
 62
    30
 10
92.973440999999994
 20
-141.5
 30
0.0
  0
POINT
  5
176
  8
DEFPOINTS
  6
CONTINUOUS
 62
    30
 10
944.01598100000001
 20
-141.5
 30
0.0
  0
LINE
  5
177
  8
SIZE
  6
CONTINUOUS
 62
    30
 10
173.0
 20
153.0
 30
0.0
 11
1204.015981
 21
153.0
 31
0.0
  0
LINE
  5
178
  8
SIZE
  6
CONTINUOUS
 62
    30
 10
173.0
 20
-153.0
 30
0.0
 11
1204.015981
 21
-153.0
 31
0.0
  0
LINE
  5
179
  8
SIZE
  6
CONTINUOUS
 62
    30
 10
1184.015981
 20
141.0
 30
0.0
 11
1184.015981
 21
-141.0
 31
0.0
  0
CIRCLE
  5
17A
  8
SIZE
  6
CONTINUOUS
 62
    30
 10
1184.015981
 20
153.0
 30
0.0
 40
6.0
  0
LINE
  5
17B
  8
SIZE
  6
CONTINUOUS
 62
    30
 10
1184.015981
 20
153.0
 30
0.0
 11
1184.015981
 21
141.0
 31
0.0
  0
CIRCLE
  5
17C
  8
SIZE
  6
CONTINUOUS
 62
    30
 10
1184.015981
 20
-153.0
 30
0.0
 40
6.0
  0
LINE
  5
17D
  8
SIZE
  6
CONTINUOUS
 62
    30
 10
1184.015981
 20
-153.0
 30
0.0
 11
1184.015981
 21
-141.0
 31
0.0
  0
TEXT
  5
17E
  8
SIZE
  6
CONTINUOUS
 62
    30
 10
1159.015981
 20
-72.685714285714283
 30
0.0
 40
64.0
  1
306
 50
90.0
 41
0.9
 72
     1
 11
1159.015981
 21
-0.000000000000002
 31
0.0
  0
POINT
  5
17F
  8
DEFPOINTS
  6
CONTINUOUS
 62
    30
 10
153.0
 20
153.0
 30
0.0
  0
POINT
  5
180
  8
DEFPOINTS
  6
CONTINUOUS
 62
    30
 10
153.0
 20
-153.0
 30
0.0
  0
POINT
  5
181
  8
DEFPOINTS
  6
CONTINUOUS
 62
    30
 10
1184.015981
 20
-153.0
 30
0.0
  0
LINE
  5
182
  8
SIZE
  6
CONTINUOUS
 62
    30
 10
184.91272199999989
 20
105.0
 30
0.0
 11
838.09183900000005
 21
105.0
 31
0.0
  0
LINE
  5
183
  8
SIZE
  6
CONTINUOUS
 62
    30
 10
-91.587288999999984
 20
-105.0
 30
0.0
 11
838.09183900000005
 21
-105.0
 31
0.0
  0
LINE
  5
184
  8
SIZE
  6
CONTINUOUS
 62
    30
 10
818.09183900000005
 20
93.0
 30
0.0
 11
818.09183900000005
 21
-93.0
 31
0.0
  0
CIRCLE
  5
185
  8
SIZE
  6
CONTINUOUS
 62
    30
 10
818.09183900000005
 20
105.0
 30
0.0
 40
6.0
  0
LINE
  5
186
  8
SIZE
  6
CONTINUOUS
 62
    30
 10
818.09183900000005
 20
105.0
 30
0.0
 11
818.09183900000005
 21
93.0
 31
0.0
  0
CIRCLE
  5
187
  8
SIZE
  6
CONTINUOUS
 62
    30
 10
818.09183900000005
 20
-105.0
 30
0.0
 40
6.0
  0
LINE
  5
188
  8
SIZE
  6
CONTINUOUS
 62
    30
 10
818.09183900000005
 20
-105.0
 30
0.0
 11
818.09183900000005
 21
-93.0
 31
0.0
  0
TEXT
  5
189
  8
SIZE
  6
CONTINUOUS
 62
    30
 10
793.09183900000005
 20
-68.571428571428555
 30
0.0
 40
64.0
  1
210
 50
90.0
 41
0.9
 72
     1
 11
793.09183900000005
 21
-0.000000000000002
 31
0.0
  0
POINT
  5
18A
  8
DEFPOINTS
  6
CONTINUOUS
 62
    30
 10
164.912722
 20
105.0
 30
0.0
  0
POINT
  5
18B
  8
DEFPOINTS
  6
CONTINUOUS
 62
    30
 10
-111.5872889999999
 20
-105.0
 30
0.0
  0
POINT
  5
18C
  8
DEFPOINTS
  6
CONTINUOUS
 62
    30
 10
818.09183900000005
 20
-105.0
 30
0.0
  0
LINE
  5
18D
  8
SIZE
  6
CONTINUOUS
 62
    30
 10
138.783885
 20
142.5
 30
0.0
 11
1084.015981
 21
142.5
 31
0.0
  0
LINE
  5
18E
  8
SIZE
  6
CONTINUOUS
 62
    30
 10
-68.632332000000005
 20
-142.5
 30
0.0
 11
1084.015981
 21
-142.5
 31
0.0
  0
LINE
  5
18F
  8
SIZE
  6
CONTINUOUS
 62
    30
 10
1064.015981
 20
130.4999999999998
 30
0.0
 11
1064.015981
 21
-130.4999999999998
 31
0.0
  0
CIRCLE
  5
190
  8
SIZE
  6
CONTINUOUS
 62
    30
 10
1064.015981
 20
142.5
 30
0.0
 40
6.0
  0
LINE
  5
191
  8
SIZE
  6
CONTINUOUS
 62
    30
 10
1064.015981
 20
142.5
 30
0.0
 11
1064.015981
 21
130.4999999999998
 31
0.0
  0
CIRCLE
  5
192
  8
SIZE
  6
CONTINUOUS
 62
    30
 10
1064.015981
 20
-142.5
 30
0.0
 40
6.0
  0
LINE
  5
193
  8
SIZE
  6
CONTINUOUS
 62
    30
 10
1064.015981
 20
-142.5
 30
0.0
 11
1064.015981
 21
-130.4999999999998
 31
0.0
  0
TEXT
  5
194
  8
SIZE
  6
CONTINUOUS
 62
    30
 10
1039.015981
 20
-74.057142857142821
 30
0.0
 40
64.0
  1
285
 50
90.0
 41
0.9
 72
     1
 11
1039.015981
 21
-0.000000000000002
 31
0.0
  0
POINT
  5
195
  8
DEFPOINTS
  6
CONTINUOUS
 62
    30
 10
118.783885
 20
142.5
 30
0.0
  0
POINT
  5
196
  8
DEFPOINTS
  6
CONTINUOUS
 62
    30
 10
-88.632332000000005
 20
-142.5
 30
0.0
  0
POINT
  5
197
  8
DEFPOINTS
  6
CONTINUOUS
 62
    30
 10
1064.015981
 20
-142.5
 30
0.0
  0
LINE
  5
198
  8
NOTE
  6
CONTINUOUS
 62
     4
 39
50.0
 10
90.0
 20
-65.0
 30
0.0
 11
103.15730499999979
 21
-47.263592000000003
 31
0.0
  0
LINE
  5
199
  8
NOTE
  6
CONTINUOUS
 62
     4
 39
125.0
 10
141.5
 20
93.454633999999984
 30
0.0
 11
141.5
 21
76.766518000000005
 31
0.0
  0
LINE
  5
19A
  8
NOTE
  6
CONTINUOUS
 62
     4
 39
125.0
 10
134.01257100000001
 20
85.110575999999995
 30
0.0
 11
148.98742899999991
 21
85.110575999999995
 31
0.0
  0
LINE
  5
19B
  8
NOTE
  6
CONTINUOUS
 62
     4
 39
125.0
 10
85.0
 20
149.84405799999999
 30
0.0
 11
85.0
 21
133.15594200000001
 31
0.0
  0
LINE
  5
19C
  8
NOTE
  6
CONTINUOUS
 62
     4
 39
125.0
 10
77.026559000000006
 20
141.5
 30
0.0
 11
92.973440999999994
 21
141.5
 31
0.0
  0
LINE
  5
19D
  8
NOTE
  6
CONTINUOUS
 62
     4
 39
125.0
 10
-141.5
 20
-93.454633999999984
 30
0.0
 11
-141.5
 21
-76.766518000000005
 31
0.0
  0
LINE
  5
19E
  8
NOTE
  6
CONTINUOUS
 62
     4
 39
125.0
 10
-133.85719900000001
 20
-85.0
 30
0.0
 11
-149.804081
 21
-85.0
 31
0.0
  0
LINE
  5
19F
  8
NOTE
  6
CONTINUOUS
 62
     4
 39
125.0
 10
-85.0
 20
-149.84405799999999
 30
0.0
 11
-85.0
 21
-133.15594200000001
 31
0.0
  0
LINE
  5
1A0
  8
NOTE
  6
CONTINUOUS
 62
     4
 39
125.0
 10
-77.026559000000006
 20
-141.5
 30
0.0
 11
-92.973440999999994
 21
-141.5
 31
0.0
  0
LINE
  5
1A1
  8
OUTLINE
  6
CONTINUOUS
 62
     3
 39
50.0
 10
165.0
 20
-150.0
 30
0.0
 11
165.0
 21
150.0
 31
0.0
  0
LINE
  5
1A2
  8
OUTLINE
  6
CONTINUOUS
 62
     3
 39
50.0
 10
-165.0
 20
-150.0
 30
0.0
 11
-165.0
 21
150.0
 31
0.0
  0
LINE
  5
1A3
  8
OUTLINE
  6
CONTINUOUS
 62
     3
 39
50.0
 10
150.0
 20
165.0
 30
0.0
 11
-150.0
 21
165.0
 31
0.0
  0
LINE
  5
1A4
  8
OUTLINE
  6
CONTINUOUS
 62
     3
 39
50.0
 10
150.0
 20
-165.0
 30
0.0
 11
-150.0
 21
-165.0
 31
0.0
  0
ARC
  5
1A5
  8
OUTLINE
  6
CONTINUOUS
 62
     3
 39
50.0
 10
-150.0
 20
150.0
 30
0.0
 40
15.0
 50
90.0
 51
180.0
  0
ARC
  5
1A6
  8
OUTLINE
  6
CONTINUOUS
 62
     3
 39
50.0
 10
150.0
 20
150.0
 30
0.0
 40
15.0
 50
0.0
 51
90.0
  0
ARC
  5
1A7
  8
OUTLINE
  6
CONTINUOUS
 62
     3
 39
50.0
 10
150.0
 20
-150.0
 30
0.0
 40
15.0
 50
270.0
 51
0.0
  0
ARC
  5
1A8
  8
OUTLINE
  6
CONTINUOUS
 62
     3
 39
50.0
 10
-150.0
 20
-150.0
 30
0.0
 40
15.0
 50
180.0
 51
270.0
  0
CIRCLE
  5
1A9
  8
DETAIL
  6
CONTINUOUS
 62
     5
 10
19.413564999999991
 20
13.282954
 30
0.0
 40
59.262479999999996
  0
LINE
  5
1AA
  8
DETAIL
  6
CONTINUOUS
 62
     5
 10
-126.999983
 20
0.0
 30
0.0
 11
-126.999983
 21
111.674603
 31
0.0
  0
LINE
  5
1AB
  8
DETAIL
  6
CONTINUOUS
 62
     5
 10
127.0000049999999
 20
0.0
 30
0.0
 11
127.0000049999999
 21
111.674603
 31
0.0
  0
LINE
  5
1AC
  8
DETAIL
  6
CONTINUOUS
 62
     5
 10
52.511792999999997
 20
-166.27101999999999
 30
0.0
 11
-52.511803999999991
 21
-166.27101999999999
 31
0.0
  0
LINE
  5
1AD
  8
DETAIL
  6
CONTINUOUS
 62
     5
 10
49.049410999999999
 20
-206.829826
 30
0.0
 11
-49.049410999999999
 21
-206.829826
 31
0.0
  0
LINE
  5
1AE
  8
DETAIL
  6
CONTINUOUS
 62
     5
 10
52.333970000000001
 20
-203.37348199999991
 30
0.0
 11
-52.333981000000001
 21
-203.37348199999991
 31
0.0
  0
LINE
  5
1AF
  8
DETAIL
  6
CONTINUOUS
 62
     5
 10
0.0
 20
-236.553956
 30
0.0
 11
49.049410999999999
 21
-236.553956
 31
0.0
  0
LINE
  5
1B0
  8
DETAIL
  6
CONTINUOUS
 62
     5
 10
56.708094000000003
 20
-96.065414000000004
 30
0.0
 11
0.000033
 21
-96.065414000000004
 31
0.0
  0
LINE
  5
1B1
  8
DETAIL
  6
CONTINUOUS
 62
     5
 10
0.000033
 20
-117.5225159999999
 30
0.0
 11
56.708094000000003
 21
-117.5225159999999
 31
0.0
  0
LINE
  5
1B2
  8
DETAIL
  6
CONTINUOUS
 62
     5
 10
0.000033
 20
-121.609579
 30
0.0
 11
124.6556049999998
 21
-121.609579
 31
0.0
  0
LINE
  5
1B3
  8
DETAIL
  6
CONTINUOUS
 62
     5
 10
124.6556049999998
 20
-126.7184169999999
 30
0.0
 11
-124.6555399999999
 21
-126.7184169999999
 31
0.0
  0
LINE
  5
1B4
  8
DETAIL
  6
CONTINUOUS
 62
     5
 10
87.453639999999979
 20
-90.956575999999998
 30
0.0
 11
0.000033
 21
-90.956575999999998
 31
0.0
  0
ARC
  5
1B5
  8
DETAIL
  6
CONTINUOUS
 62
     5
 10
-125.978253
 20
-125.97934100000001
 30
0.0
 40
5.9943609999999987
 50
180.0
 51
270.0
  0
LINE
  5
1B6
  8
DETAIL
  6
CONTINUOUS
 62
     5
 10
-83.064036999999999
 20
-127.0011039999999
 30
0.0
 11
-83.064036999999999
 21
-160.7194189999999
 31
0.0
  0
LINE
  5
1B7
  8
DETAIL
  6
CONTINUOUS
 62
     5
 10
-123.9347159999999
 20
-127.0011039999999
 30
0.0
 11
-123.9347159999999
 21
-160.7194189999999
 31
0.0
  0
ARC
  5
1B8
  8
DETAIL
  6
CONTINUOUS
 62
     5
 10
-104.587278
 20
-146.0761929999999
 30
0.0
 40
7.6632559999999961
 50
270.0
 51
0.0
  0
ARC
  5
1B9
  8
DETAIL
  6
CONTINUOUS
 62
     5
 10
-104.587278
 20
-138.92381800000001
 30
0.0
 40
7.6632559999999961
 50
0.0
 51
90.0
  0
LINE
  5
1BA
  8
DETAIL
  6
CONTINUOUS
 62
     5
 10
-86.129338000000004
 20
-163.784719
 30
0.0
 11
-120.8694149999999
 21
-163.784719
 31
0.0
  0
LINE
  5
1BB
  8
DETAIL
  6
CONTINUOUS
 62
     5
 10
-123.9347159999999
 20
-131.9737029999998
 30
0.0
 11
-125.978253
 21
-131.9737029999998
 31
0.0
  0
ARC
  5
1BC
  8
DETAIL
  6
CONTINUOUS
 62
     5
 10
-104.587278
 20
-146.0761929999999
 30
0.0
 40
7.6632559999999961
 50
180.0
 51
270.0
  0
LINE
  5
1BD
  8
DETAIL
  6
CONTINUOUS
 62
     5
 10
-112.250534
 20
-138.92381800000001
 30
0.0
 11
-112.250534
 21
-146.0761929999999
 31
0.0
  0
ARC
  5
1BE
  8
DETAIL
  6
CONTINUOUS
 62
     5
 10
-104.587278
 20
-138.92381800000001
 30
0.0
 40
7.6632559999999961
 50
90.0
 51
180.0
  0
ARC
  5
1BF
  8
DETAIL
  6
CONTINUOUS
 62
     5
 10
-120.8694149999999
 20
-160.7194189999999
 30
0.0
 40
3.0653000000000001
 50
180.0
 51
270.0
  0
LINE
  5
1C0
  8
DETAIL
  6
CONTINUOUS
 62
     5
 10
-96.924032000000011
 20
-138.92381800000001
 30
0.0
 11
-96.924032000000011
 21
-146.0761929999999
 31
0.0
  0
ARC
  5
1C1
  8
DETAIL
  6
CONTINUOUS
 62
     5
 10
-86.129338000000004
 20
-160.7194189999999
 30
0.0
 40
3.0653000000000001
 50
270.0
 51
0.0
  0
LINE
  5
1C2
  8
DETAIL
  6
CONTINUOUS
 62
     5
 10
-52.517040999999999
 20
-202.56897499999999
 30
0.0
 11
-52.512435000000011
 21
-166.2254189999999
 31
0.0
  0
LINE
  5
1C3
  8
DETAIL
  6
CONTINUOUS
 62
     5
 10
0.0
 20
-236.553956
 30
0.0
 11
-49.049410999999999
 21
-236.553956
 31
0.0
  0
LINE
  5
1C4
  8
DETAIL
  6
CONTINUOUS
 62
     5
 10
-49.049410999999999
 20
-236.553956
 30
0.0
 11
-49.049410999999999
 21
-206.829826
 31
0.0
  0
ARC
  5
1C5
  8
DETAIL
  6
CONTINUOUS
 62
     5
 10
-50.535626999999998
 20
-202.5412
 30
0.0
 40
1.9816100000000001
 50
180.8030489999999
 51
225.0
  0
LINE
  5
1C6
  8
DETAIL
  6
CONTINUOUS
 62
     5
 10
-51.936832000000003
 20
-203.94240500000001
 30
0.0
 11
-49.049410999999999
 21
-206.829826
 31
0.0
  0
LINE
  5
1C7
  8
DETAIL
  6
CONTINUOUS
 62
     5
 10
-56.435068999999999
 20
-126.7184169999999
 30
0.0
 11
-52.509062
 21
-166.3165349999999
 31
0.0
  0
LINE
  5
1C8
  8
DETAIL
  6
CONTINUOUS
 62
     5
 10
-106.2637379999999
 20
-117.5225159999999
 30
0.0
 11
-77.654261000000005
 21
-117.5225159999999
 31
0.0
  0
LINE
  5
1C9
  8
DETAIL
  6
CONTINUOUS
 62
     5
 10
-106.2637379999999
 20
-96.065414000000004
 30
0.0
 11
-77.654261000000005
 21
-96.065414000000004
 31
0.0
  0
LINE
  5
1CA
  8
DETAIL
  6
CONTINUOUS
 62
     5
 10
0.000033
 20
-121.609579
 30
0.0
 11
-124.6555399999999
 21
-121.609579
 31
0.0
  0
LINE
  5
1CB
  8
DETAIL
  6
CONTINUOUS
 62
     5
 10
-107.733498
 20
-90.956575999999998
 30
0.0
 11
0.000033
 21
-90.956575999999998
 31
0.0
  0
LINE
  5
1CC
  8
DETAIL
  6
CONTINUOUS
 62
     5
 10
-126.999983
 20
-97.57874000000001
 30
0.0
 11
-126.999983
 21
0.0
 31
0.0
  0
LINE
  5
1CD
  8
DETAIL
  6
CONTINUOUS
 62
     5
 10
-127.0000159999999
 20
-123.935804
 30
0.0
 11
-156.71833100000001
 21
-123.935804
 31
0.0
  0
LINE
  5
1CE
  8
DETAIL
  6
CONTINUOUS
 62
     5
 10
-127.0000159999999
 20
-83.065126000000006
 30
0.0
 11
-156.71833100000001
 21
-83.065126000000006
 31
0.0
  0
LINE
  5
1CF
  8
DETAIL
  6
CONTINUOUS
 62
     5
 10
-127.0000159999999
 20
-123.935804
 30
0.0
 11
-156.71833100000001
 21
-123.935804
 31
0.0
  0
LINE
  5
1D0
  8
DETAIL
  6
CONTINUOUS
 62
     5
 10
-127.0000159999999
 20
-83.065126000000006
 30
0.0
 11
-156.71833100000001
 21
-83.065126000000006
 31
0.0
  0
ARC
  5
1D1
  8
DETAIL
  6
CONTINUOUS
 62
     5
 10
-156.71833100000001
 20
-86.130425999999986
 30
0.0
 40
3.0653000000000001
 50
90.0
 51
180.0
  0
ARC
  5
1D2
  8
DETAIL
  6
CONTINUOUS
 62
     5
 10
-156.71833100000001
 20
-86.130425999999986
 30
0.0
 40
3.0653000000000001
 50
90.0
 51
180.0
  0
ARC
  5
1D3
  8
DETAIL
  6
CONTINUOUS
 62
     5
 10
-156.71833100000001
 20
-120.8705039999999
 30
0.0
 40
3.0653000000000001
 50
180.0
 51
270.0
  0
LINE
  5
1D4
  8
DETAIL
  6
CONTINUOUS
 62
     5
 10
-159.78363100000001
 20
-86.130425999999986
 30
0.0
 11
-159.78363100000001
 21
-120.8705039999999
 31
0.0
  0
LINE
  5
1D5
  8
DETAIL
  6
CONTINUOUS
 62
     5
 10
-159.78363100000001
 20
-86.130425999999986
 30
0.0
 11
-159.78363100000001
 21
-120.8705039999999
 31
0.0
  0
LINE
  5
1D6
  8
DETAIL
  6
CONTINUOUS
 62
     5
 10
-133.92672300000001
 20
-113.736107
 30
0.0
 11
-150.24782200000001
 21
-113.736107
 31
0.0
  0
LINE
  5
1D7
  8
DETAIL
  6
CONTINUOUS
 62
     5
 10
-135.31406200000001
 20
-110.5175449999999
 30
0.0
 11
-148.8604829999999
 21
-110.5175449999999
 31
0.0
  0
ARC
  5
1D8
  8
DETAIL
  6
CONTINUOUS
 62
     5
 10
-142.087278
 20
-105.0
 30
0.0
 40
11.95467899999999
 50
133.0490799999998
 51
226.95092000000011
  0
LINE
  5
1D9
  8
DETAIL
  6
CONTINUOUS
 62
     5
 10
-133.92672300000001
 20
-96.263892999999996
 30
0.0
 11
-150.24782200000001
 21
-96.263892999999996
 31
0.0
  0
ARC
  5
1DA
  8
DETAIL
  6
CONTINUOUS
 62
     5
 10
-142.087278
 20
-105.0
 30
0.0
 40
8.7361070000000005
 50
140.83328900000001
 51
219.16671099999999
  0
LINE
  5
1DB
  8
DETAIL
  6
CONTINUOUS
 62
     5
 10
-135.31406200000001
 20
-99.482455000000002
 30
0.0
 11
-148.8604829999999
 21
-99.482455000000002
 31
0.0
  0
ARC
  5
1DC
  8
DETAIL
  6
CONTINUOUS
 62
     5
 10
-142.087278
 20
-105.0
 30
0.0
 40
11.95467899999999
 50
313.04908
 51
46.950920000000004
  0
ARC
  5
1DD
  8
DETAIL
  6
CONTINUOUS
 62
     5
 10
-142.087278
 20
-105.0
 30
0.0
 40
8.7361070000000005
 50
320.83328899999992
 51
39.166710999999999
  0
LINE
  5
1DE
  8
DETAIL
  6
CONTINUOUS
 62
     5
 10
-133.92672300000001
 20
-113.736107
 30
0.0
 11
-150.24782200000001
 21
-113.736107
 31
0.0
  0
LINE
  5
1DF
  8
DETAIL
  6
CONTINUOUS
 62
     5
 10
-133.92672300000001
 20
-96.263892999999996
 30
0.0
 11
-150.24782200000001
 21
-96.263892999999996
 31
0.0
  0
LINE
  5
1E0
  8
DETAIL
  6
CONTINUOUS
 62
     5
 10
-127.0000159999999
 20
-83.065126000000006
 30
0.0
 11
-127.0000159999999
 21
-98.902508999999995
 31
0.0
  0
LINE
  5
1E1
  8
DETAIL
  6
CONTINUOUS
 62
     5
 10
-83.064036999999999
 20
-127.0011039999999
 30
0.0
 11
-125.978253
 21
-127.0011039999999
 31
0.0
  0
LINE
  5
1E2
  8
DETAIL
  6
CONTINUOUS
 62
     5
 10
-131.97261399999991
 20
-123.935804
 30
0.0
 11
-131.97261399999991
 21
-125.97934100000001
 31
0.0
  0
LINE
  5
1E3
  8
DETAIL
  6
CONTINUOUS
 62
     5
 10
-127.0000159999999
 20
-98.902508999999995
 30
0.0
 11
-127.0000159999999
 21
-113.20724800000001
 31
0.0
  0
LINE
  5
1E4
  8
DETAIL
  6
CONTINUOUS
 62
     5
 10
-127.0000159999999
 20
-113.20724800000001
 30
0.0
 11
-127.0000159999999
 21
-125.97934100000001
 31
0.0
  0
ARC
  5
1E5
  8
DETAIL
  6
CONTINUOUS
 62
     5
 10
-125.978253
 20
-125.97934100000001
 30
0.0
 40
1.0217629999999991
 50
180.0
 51
270.0
  0
LINE
  5
1E6
  8
DETAIL
  6
CONTINUOUS
 62
     5
 10
-126.85730100000001
 20
-119.566053
 30
0.0
 11
-126.85730100000001
 21
-97.57874000000001
 31
0.0
  0
ARC
  5
1E7
  8
DETAIL
  6
CONTINUOUS
 62
     5
 10
-117.56607199999991
 20
-115.478979
 30
0.0
 40
2.0435370000000002
 50
270.0
 51
345.96375699999987
  0
ARC
  5
1E8
  8
DETAIL
  6
CONTINUOUS
 62
     5
 10
-124.6555399999999
 20
-119.566053
 30
0.0
 40
2.0435370000000002
 50
180.0
 51
270.0
  0
LINE
  5
1E9
  8
DETAIL
  6
CONTINUOUS
 62
     5
 10
-107.285501
 20
-97.087177000000011
 30
0.0
 11
-107.285501
 21
-116.500753
 31
0.0
  0
LINE
  5
1EA
  8
DETAIL
  6
CONTINUOUS
 62
     5
 10
-115.5835469999999
 20
-115.97461300000001
 30
0.0
 11
-109.7160109999999
 21
-92.504479000000003
 31
0.0
  0
ARC
  5
1EB
  8
DETAIL
  6
CONTINUOUS
 62
     5
 10
-107.733498
 20
-93.000101999999998
 30
0.0
 40
2.0435370000000002
 50
90.0
 51
165.9637569999999
  0
LINE
  5
1EC
  8
DETAIL
  6
CONTINUOUS
 62
     5
 10
-117.56607199999991
 20
-117.5225159999999
 30
0.0
 11
-126.699077
 21
-117.5225159999999
 31
0.0
  0
ARC
  5
1ED
  8
DETAIL
  6
CONTINUOUS
 62
     5
 10
-106.2637379999999
 20
-97.087177000000011
 30
0.0
 40
1.0217629999999991
 50
90.0
 51
180.0
  0
ARC
  5
1EE
  8
DETAIL
  6
CONTINUOUS
 62
     5
 10
-106.2637379999999
 20
-116.500753
 30
0.0
 40
1.0217629999999991
 50
180.0
 51
270.0
  0
LINE
  5
1EF
  8
DETAIL
  6
CONTINUOUS
 62
     5
 10
-72.034542000000002
 20
-96.065414000000004
 30
0.0
 11
0.000033
 21
-96.065414000000004
 31
0.0
  0
LINE
  5
1F0
  8
DETAIL
  6
CONTINUOUS
 62
     5
 10
0.000033
 20
-117.5225159999999
 30
0.0
 11
-72.034542000000002
 21
-117.5225159999999
 31
0.0
  0
LINE
  5
1F1
  8
DETAIL
  6
CONTINUOUS
 62
     5
 10
-73.056315999999981
 20
-97.087177000000011
 30
0.0
 11
-73.056315999999981
 21
-116.500753
 31
0.0
  0
LINE
  5
1F2
  8
DETAIL
  6
CONTINUOUS
 62
     5
 10
-76.632497999999998
 20
-97.087177000000011
 30
0.0
 11
-76.632497999999998
 21
-116.500753
 31
0.0
  0
ARC
  5
1F3
  8
DETAIL
  6
CONTINUOUS
 62
     5
 10
-77.654261000000005
 20
-97.087177000000011
 30
0.0
 40
1.0217629999999991
 50
0.0
 51
90.0
  0
ARC
  5
1F4
  8
DETAIL
  6
CONTINUOUS
 62
     5
 10
-77.654261000000005
 20
-116.500753
 30
0.0
 40
1.0217629999999991
 50
270.0
 51
0.0
  0
ARC
  5
1F5
  8
DETAIL
  6
CONTINUOUS
 62
     5
 10
-72.034542000000002
 20
-97.087177000000011
 30
0.0
 40
1.0217629999999991
 50
90.0
 51
180.0
  0
ARC
  5
1F6
  8
DETAIL
  6
CONTINUOUS
 62
     5
 10
-72.034542000000002
 20
-116.500753
 30
0.0
 40
1.0217629999999991
 50
180.0
 51
270.0
  0
LINE
  5
1F7
  8
DETAIL
  6
CONTINUOUS
 62
     5
 10
52.517029999999998
 20
-202.56897499999999
 30
0.0
 11
52.512435000000011
 21
-166.2254189999999
 31
0.0
  0
LINE
  5
1F8
  8
DETAIL
  6
CONTINUOUS
 62
     5
 10
49.049410999999999
 20
-236.553956
 30
0.0
 11
49.049410999999999
 21
-206.829826
 31
0.0
  0
ARC
  5
1F9
  8
DETAIL
  6
CONTINUOUS
 62
     5
 10
50.535615999999997
 20
-202.5412
 30
0.0
 40
1.9816100000000001
 50
315.0
 51
359.19695100000001
  0
LINE
  5
1FA
  8
DETAIL
  6
CONTINUOUS
 62
     5
 10
51.936821000000002
 20
-203.94240500000001
 30
0.0
 11
49.049410999999999
 21
-206.829826
 31
0.0
  0
LINE
  5
1FB
  8
DETAIL
  6
CONTINUOUS
 62
     5
 10
56.435068999999999
 20
-126.7184169999999
 30
0.0
 11
52.509062
 21
-166.3165349999999
 31
0.0
  0
LINE
  5
1FC
  8
DETAIL
  6
CONTINUOUS
 62
     5
 10
127.0000049999999
 20
-119.566053
 30
0.0
 11
127.0000049999999
 21
0.0
 31
0.0
  0
LINE
  5
1FD
  8
DETAIL
  6
CONTINUOUS
 62
     5
 10
62.327812999999999
 20
-96.065414000000004
 30
0.0
 11
85.828452999999982
 21
-96.065414000000004
 31
0.0
  0
LINE
  5
1FE
  8
DETAIL
  6
CONTINUOUS
 62
     5
 10
62.327812999999999
 20
-117.5225159999999
 30
0.0
 11
85.828452999999982
 21
-117.5225159999999
 31
0.0
  0
LINE
  5
1FF
  8
DETAIL
  6
CONTINUOUS
 62
     5
 10
57.729868000000003
 20
-97.087177000000011
 30
0.0
 11
57.729868000000003
 21
-116.500753
 31
0.0
  0
LINE
  5
200
  8
DETAIL
  6
CONTINUOUS
 62
     5
 10
61.306049999999999
 20
-97.087177000000011
 30
0.0
 11
61.306049999999999
 21
-116.500753
 31
0.0
  0
ARC
  5
201
  8
DETAIL
  6
CONTINUOUS
 62
     5
 10
62.327812999999999
 20
-116.500753
 30
0.0
 40
1.0217629999999991
 50
180.0
 51
270.0
  0
ARC
  5
202
  8
DETAIL
  6
CONTINUOUS
 62
     5
 10
62.327812999999999
 20
-97.087177000000011
 30
0.0
 40
1.0217629999999991
 50
90.0
 51
180.0
  0
ARC
  5
203
  8
DETAIL
  6
CONTINUOUS
 62
     5
 10
56.708094000000003
 20
-97.087177000000011
 30
0.0
 40
1.0217629999999991
 50
0.0
 51
90.0
  0
ARC
  5
204
  8
DETAIL
  6
CONTINUOUS
 62
     5
 10
56.708094000000003
 20
-116.500753
 30
0.0
 40
1.0217629999999991
 50
270.0
 51
0.0
  0
LINE
  5
205
  8
DETAIL
  6
CONTINUOUS
 62
     5
 10
99.821706000000006
 20
-117.5225159999999
 30
0.0
 11
126.6991309999998
 21
-117.5225159999999
 31
0.0
  0
ARC
  5
206
  8
DETAIL
  6
CONTINUOUS
 62
     5
 10
99.821706000000006
 20
-115.478979
 30
0.0
 40
2.0435370000000002
 50
199.6538239999999
 51
270.0
  0
LINE
  5
207
  8
DETAIL
  6
CONTINUOUS
 62
     5
 10
86.850227000000004
 20
-97.087177000000011
 30
0.0
 11
86.850227000000004
 21
-116.500753
 31
0.0
  0
LINE
  5
208
  8
DETAIL
  6
CONTINUOUS
 62
     5
 10
89.378123000000002
 20
-92.312788999999995
 30
0.0
 11
97.897233999999983
 21
-116.1662919999999
 31
0.0
  0
ARC
  5
209
  8
DETAIL
  6
CONTINUOUS
 62
     5
 10
87.453639999999979
 20
-93.000101999999998
 30
0.0
 40
2.0435370000000002
 50
19.653824
 51
90.0
  0
ARC
  5
20A
  8
DETAIL
  6
CONTINUOUS
 62
     5
 10
85.828452999999982
 20
-97.087177000000011
 30
0.0
 40
1.0217629999999991
 50
0.0
 51
90.0
  0
ARC
  5
20B
  8
DETAIL
  6
CONTINUOUS
 62
     5
 10
85.828452999999982
 20
-116.500753
 30
0.0
 40
1.0217629999999991
 50
270.0
 51
0.0
  0
LINE
  5
20C
  8
DETAIL
  6
CONTINUOUS
 62
     5
 10
126.6991309999998
 20
-119.566053
 30
0.0
 11
126.6991309999998
 21
-124.6748799999999
 31
0.0
  0
ARC
  5
20D
  8
DETAIL
  6
CONTINUOUS
 62
     5
 10
124.6556049999998
 20
-124.6748799999999
 30
0.0
 40
2.0435370000000002
 50
270.0
 51
0.0
  0
ARC
  5
20E
  8
DETAIL
  6
CONTINUOUS
 62
     5
 10
124.6556049999998
 20
-119.566053
 30
0.0
 40
2.0435370000000002
 50
270.0
 51
0.0
  0
LINE
  5
20F
  8
DETAIL
  6
CONTINUOUS
 62
     5
 10
52.333970000000001
 20
178.98047500000001
 30
0.0
 11
-52.333981000000001
 21
178.98047500000001
 31
0.0
  0
LINE
  5
210
  8
DETAIL
  6
CONTINUOUS
 62
     5
 10
49.049410999999999
 20
182.43681900000001
 30
0.0
 11
-49.049410999999999
 21
182.43681900000001
 31
0.0
  0
LINE
  5
211
  8
DETAIL
  6
CONTINUOUS
 62
     5
 10
0.0
 20
207.16095000000001
 30
0.0
 11
49.049410999999999
 21
207.16095000000001
 31
0.0
  0
LINE
  5
212
  8
DETAIL
  6
CONTINUOUS
 62
     5
 10
-21.1358
 20
171.87801399999989
 30
0.0
 11
21.135788999999988
 21
171.87801399999989
 31
0.0
  0
LINE
  5
213
  8
DETAIL
  6
CONTINUOUS
 62
     5
 10
52.917670999999999
 20
147.4353549999999
 30
0.0
 11
21.135788999999988
 21
147.4353549999999
 31
0.0
  0
LINE
  5
214
  8
DETAIL
  6
CONTINUOUS
 62
     5
 10
-30.653013999999999
 20
90.216412000000005
 30
0.0
 11
30.653002999999998
 21
90.216412000000005
 31
0.0
  0
LINE
  5
215
  8
DETAIL
  6
CONTINUOUS
 62
     5
 10
-30.653013999999999
 20
114.7388149999999
 30
0.0
 11
30.653002999999998
 21
114.7388149999999
 31
0.0
  0
ARC
  5
216
  8
DETAIL
  6
CONTINUOUS
 62
     5
 10
25.544177000000001
 20
107.5864509999999
 30
0.0
 40
3.4058879999999991
 50
0.0
 51
90.0
  0
ARC
  5
217
  8
DETAIL
  6
CONTINUOUS
 62
     5
 10
25.544177000000001
 20
100.774664
 30
0.0
 40
3.4058879999999991
 50
270.0
 51
0.0
  0
LINE
  5
218
  8
DETAIL
  6
CONTINUOUS
 62
     5
 10
-49.049410999999999
 20
207.16095000000001
 30
0.0
 11
-49.049410999999999
 21
182.43681900000001
 31
0.0
  0
LINE
  5
219
  8
DETAIL
  6
CONTINUOUS
 62
     5
 10
-77.600660000000005
 20
127.0011039999999
 30
0.0
 11
-111.67348200000001
 21
127.0011039999999
 31
0.0
  0
ARC
  5
21A
  8
DETAIL
  6
CONTINUOUS
 62
     5
 10
-111.67348200000001
 20
111.674603
 30
0.0
 40
15.326501999999991
 50
90.0
 51
180.0
  0
LINE
  5
21B
  8
DETAIL
  6
CONTINUOUS
 62
     5
 10
-77.440008000000006
 20
145.40965600000001
 30
0.0
 11
-77.642909000000003
 21
122.15866200000001
 31
0.0
  0
ARC
  5
21C
  8
DETAIL
  6
CONTINUOUS
 62
     5
 10
-25.544177000000001
 20
107.5864509999999
 30
0.0
 40
3.4058879999999991
 50
90.0
 51
180.0
  0
ARC
  5
21D
  8
DETAIL
  6
CONTINUOUS
 62
     5
 10
-25.544177000000001
 20
100.774664
 30
0.0
 40
3.4058879999999991
 50
180.0
 51
270.0
  0
LINE
  5
21E
  8
DETAIL
  6
CONTINUOUS
 62
     5
 10
-36.90945
 20
100.99387900000001
 30
0.0
 11
-76.49539799999998
 21
120.30416
 31
0.0
  0
ARC
  5
21F
  8
DETAIL
  6
CONTINUOUS
 62
     5
 10
-75.599458999999982
 20
122.1408239999999
 30
0.0
 40
2.0435370000000002
 50
179.49999999999989
 51
243.99658500000001
  0
ARC
  5
220
  8
DETAIL
  6
CONTINUOUS
 62
     5
 10
-37.80537799999999
 20
99.157214999999994
 30
0.0
 40
2.0435370000000002
 50
21.751788000000001
 51
63.99658500000001
  0
LINE
  5
221
  8
DETAIL
  6
CONTINUOUS
 62
     5
 10
-35.907353000000001
 20
99.914531000000011
 30
0.0
 11
-32.551039000000003
 21
91.502633000000003
 31
0.0
  0
ARC
  5
222
  8
DETAIL
  6
CONTINUOUS
 62
     5
 10
-30.653013999999999
 20
92.259938000000005
 30
0.0
 40
2.0435370000000002
 50
180.0
 51
270.0
  0
ARC
  5
223
  8
DETAIL
  6
CONTINUOUS
 62
     5
 10
-30.653013999999999
 20
112.695278
 30
0.0
 40
2.0435370000000002
 50
90.0
 51
180.0
  0
LINE
  5
224
  8
DETAIL
  6
CONTINUOUS
 62
     5
 10
-32.696550999999999
 20
112.695278
 30
0.0
 11
-32.696550999999999
 21
92.259938000000005
 31
0.0
  0
LINE
  5
225
  8
DETAIL
  6
CONTINUOUS
 62
     5
 10
-28.950064999999999
 20
107.5864509999999
 30
0.0
 11
-28.950064999999999
 21
100.774664
 31
0.0
  0
LINE
  5
226
  8
DETAIL
  6
CONTINUOUS
 62
     5
 10
-25.544177000000001
 20
110.9923389999999
 30
0.0
 11
25.544177000000001
 21
110.9923389999999
 31
0.0
  0
LINE
  5
227
  8
DETAIL
  6
CONTINUOUS
 62
     5
 10
-25.544177000000001
 20
97.368775999999997
 30
0.0
 11
25.544177000000001
 21
97.368775999999997
 31
0.0
  0
LINE
  5
228
  8
DETAIL
  6
CONTINUOUS
 62
     5
 10
-21.1358
 20
147.4353549999999
 30
0.0
 11
-75.396546999999984
 21
147.4353549999999
 31
0.0
  0
LINE
  5
229
  8
DETAIL
  6
CONTINUOUS
 62
     5
 10
-77.394678999999982
 20
145.82022499999999
 30
0.0
 11
-76.945582999999999
 21
147.914849
 31
0.0
  0
ARC
  5
22A
  8
DETAIL
  6
CONTINUOUS
 62
     5
 10
-75.396546999999984
 20
145.391829
 30
0.0
 40
2.0435370000000002
 50
90.0
 51
179.49999999999989
  0
LINE
  5
22B
  8
DETAIL
  6
CONTINUOUS
 62
     5
 10
-51.936832000000003
 20
179.54939899999991
 30
0.0
 11
-49.049410999999999
 21
182.43681900000001
 31
0.0
  0
LINE
  5
22C
  8
DETAIL
  6
CONTINUOUS
 62
     5
 10
-52.517040999999999
 20
178.17596800000001
 30
0.0
 11
-52.494722000000003
 21
147.4353549999999
 31
0.0
  0
ARC
  5
22D
  8
DETAIL
  6
CONTINUOUS
 62
     5
 10
-50.535626999999998
 20
178.1481939999999
 30
0.0
 40
1.9816100000000001
 50
135.0
 51
179.19695100000001
  0
LINE
  5
22E
  8
DETAIL
  6
CONTINUOUS
 62
     5
 10
21.135788999999988
 20
145.391829
 30
0.0
 11
21.135788999999988
 21
171.87801399999989
 31
0.0
  0
LINE
  5
22F
  8
DETAIL
  6
CONTINUOUS
 62
     5
 10
-21.1358
 20
145.391829
 30
0.0
 11
-21.1358
 21
171.87801399999989
 31
0.0
  0
LINE
  5
230
  8
DETAIL
  6
CONTINUOUS
 62
     5
 10
21.135788999999988
 20
145.391829
 30
0.0
 11
-21.1358
 21
145.391829
 31
0.0
  0
LINE
  5
231
  8
DETAIL
  6
CONTINUOUS
 62
     5
 10
0.0
 20
207.16095000000001
 30
0.0
 11
-49.049410999999999
 21
207.16095000000001
 31
0.0
  0
LINE
  5
232
  8
DETAIL
  6
CONTINUOUS
 62
     5
 10
49.049410999999999
 20
207.16095000000001
 30
0.0
 11
49.049410999999999
 21
182.43681900000001
 31
0.0
  0
LINE
  5
233
  8
DETAIL
  6
CONTINUOUS
 62
     5
 10
127.0000049999999
 20
123.935804
 30
0.0
 11
156.71832000000001
 21
123.935804
 31
0.0
  0
LINE
  5
234
  8
DETAIL
  6
CONTINUOUS
 62
     5
 10
127.0000049999999
 20
83.065126000000006
 30
0.0
 11
156.71832000000001
 21
83.065126000000006
 31
0.0
  0
ARC
  5
235
  8
DETAIL
  6
CONTINUOUS
 62
     5
 10
142.9127219999998
 20
105.0
 30
0.0
 40
11.95467899999999
 50
133.0490799999998
 51
226.95092000000011
  0
ARC
  5
236
  8
DETAIL
  6
CONTINUOUS
 62
     5
 10
125.97824199999999
 20
125.97934100000001
 30
0.0
 40
5.9943609999999987
 50
0.0
 51
90.0
  0
LINE
  5
237
  8
DETAIL
  6
CONTINUOUS
 62
     5
 10
83.064026999999967
 20
127.0011039999999
 30
0.0
 11
83.064026999999967
 21
160.7194189999999
 31
0.0
  0
LINE
  5
238
  8
DETAIL
  6
CONTINUOUS
 62
     5
 10
123.93470499999989
 20
127.0011039999999
 30
0.0
 11
123.93470499999989
 21
160.7194189999999
 31
0.0
  0
LINE
  5
239
  8
DETAIL
  6
CONTINUOUS
 62
     5
 10
54.961120999999999
 20
145.40965600000001
 30
0.0
 11
55.168070999999998
 21
121.695668
 31
0.0
  0
LINE
  5
23A
  8
DETAIL
  6
CONTINUOUS
 62
     5
 10
111.67350399999999
 20
127.0011039999999
 30
0.0
 11
55.121771999999993
 21
127.0011039999999
 31
0.0
  0
LINE
  5
23B
  8
DETAIL
  6
CONTINUOUS
 62
     5
 10
36.323810000000002
 20
101.025626
 30
0.0
 11
54.606189000000001
 21
120.27035600000001
 31
0.0
  0
LINE
  5
23C
  8
DETAIL
  6
CONTINUOUS
 62
     5
 10
35.893965999999999
 20
100.3410219999999
 30
0.0
 11
32.56441499999999
 21
91.537068000000005
 31
0.0
  0
ARC
  5
23D
  8
DETAIL
  6
CONTINUOUS
 62
     5
 10
30.653002999999998
 20
92.259938000000005
 30
0.0
 40
2.0435370000000002
 50
270.0
 51
0.0
  0
LINE
  5
23E
  8
DETAIL
  6
CONTINUOUS
 62
     5
 10
32.696541000000003
 20
112.695278
 30
0.0
 11
32.696541000000003
 21
92.259938000000005
 31
0.0
  0
ARC
  5
23F
  8
DETAIL
  6
CONTINUOUS
 62
     5
 10
30.653002999999998
 20
112.695278
 30
0.0
 40
2.0435370000000002
 50
0.0
 51
90.0
  0
LINE
  5
240
  8
DETAIL
  6
CONTINUOUS
 62
     5
 10
28.950064999999999
 20
107.5864509999999
 30
0.0
 11
28.950064999999999
 21
100.774664
 31
0.0
  0
ARC
  5
241
  8
DETAIL
  6
CONTINUOUS
 62
     5
 10
53.12462
 20
121.6778409999999
 30
0.0
 40
2.0435370000000002
 50
316.46899000000002
 51
0.5
  0
LINE
  5
242
  8
DETAIL
  6
CONTINUOUS
 62
     5
 10
127.0000049999999
 20
83.065126000000006
 30
0.0
 11
127.0000049999999
 21
98.902519999999996
 31
0.0
  0
LINE
  5
243
  8
DETAIL
  6
CONTINUOUS
 62
     5
 10
83.064026999999967
 20
127.0011039999999
 30
0.0
 11
125.97824199999999
 21
127.0011039999999
 31
0.0
  0
LINE
  5
244
  8
DETAIL
  6
CONTINUOUS
 62
     5
 10
131.97261399999991
 20
123.935804
 30
0.0
 11
131.97261399999991
 21
125.97934100000001
 31
0.0
  0
LINE
  5
245
  8
DETAIL
  6
CONTINUOUS
 62
     5
 10
127.0000049999999
 20
98.902519999999996
 30
0.0
 11
127.0000049999999
 21
113.207258
 31
0.0
  0
LINE
  5
246
  8
DETAIL
  6
CONTINUOUS
 62
     5
 10
127.0000049999999
 20
113.207258
 30
0.0
 11
127.0000049999999
 21
125.97934100000001
 31
0.0
  0
ARC
  5
247
  8
DETAIL
  6
CONTINUOUS
 62
     5
 10
125.97824199999999
 20
125.97934100000001
 30
0.0
 40
1.0217629999999991
 50
0.0
 51
90.0
  0
ARC
  5
248
  8
DETAIL
  6
CONTINUOUS
 62
     5
 10
111.67350399999999
 20
111.674603
 30
0.0
 40
15.326501999999991
 50
0.0
 51
90.0
  0
ARC
  5
249
  8
DETAIL
  6
CONTINUOUS
 62
     5
 10
52.917670999999999
 20
145.391829
 30
0.0
 40
2.0435370000000002
 50
0.5
 51
90.0
  0
LINE
  5
24A
  8
DETAIL
  6
CONTINUOUS
 62
     5
 10
52.517029999999998
 20
178.17596800000001
 30
0.0
 11
52.494764000000004
 21
147.4353549999999
 31
0.0
  0
LINE
  5
24B
  8
DETAIL
  6
CONTINUOUS
 62
     5
 10
51.936821000000002
 20
179.54939899999991
 30
0.0
 11
49.049410999999999
 21
182.43681900000001
 31
0.0
  0
ARC
  5
24C
  8
DETAIL
  6
CONTINUOUS
 62
     5
 10
50.535615999999997
 20
178.1481939999999
 30
0.0
 40
1.9816100000000001
 50
0.803049
 51
45.0
  0
LINE
  5
24D
  8
DETAIL
  6
CONTINUOUS
 62
     5
 10
86.129326999999989
 20
163.784719
 30
0.0
 11
120.869405
 21
163.784719
 31
0.0
  0
ARC
  5
24E
  8
DETAIL
  6
CONTINUOUS
 62
     5
 10
105.412722
 20
146.0761819999999
 30
0.0
 40
7.6632559999999961
 50
0.0
 51
90.0
  0
ARC
  5
24F
  8
DETAIL
  6
CONTINUOUS
 62
     5
 10
105.412722
 20
138.92381800000001
 30
0.0
 40
7.6632559999999961
 50
270.0
 51
0.0
  0
ARC
  5
250
  8
DETAIL
  6
CONTINUOUS
 62
     5
 10
86.129326999999989
 20
160.7194189999999
 30
0.0
 40
3.0653000000000001
 50
90.0
 51
180.0
  0
ARC
  5
251
  8
DETAIL
  6
CONTINUOUS
 62
     5
 10
105.412722
 20
146.0761819999999
 30
0.0
 40
7.6632559999999961
 50
90.0
 51
180.0
  0
LINE
  5
252
  8
DETAIL
  6
CONTINUOUS
 62
     5
 10
97.749465999999984
 20
138.92381800000001
 30
0.0
 11
97.749465999999984
 21
146.0761819999999
 31
0.0
  0
ARC
  5
253
  8
DETAIL
  6
CONTINUOUS
 62
     5
 10
105.412722
 20
138.92381800000001
 30
0.0
 40
7.6632559999999961
 50
180.0
 51
270.0
  0
LINE
  5
254
  8
DETAIL
  6
CONTINUOUS
 62
     5
 10
123.93470499999989
 20
131.9737129999998
 30
0.0
 11
125.97824199999999
 21
131.9737129999998
 31
0.0
  0
ARC
  5
255
  8
DETAIL
  6
CONTINUOUS
 62
     5
 10
120.869405
 20
160.7194189999999
 30
0.0
 40
3.0653000000000001
 50
0.0
 51
90.0
  0
LINE
  5
256
  8
DETAIL
  6
CONTINUOUS
 62
     5
 10
113.0759679999999
 20
138.92381800000001
 30
0.0
 11
113.0759679999999
 21
146.0761819999999
 31
0.0
  0
LINE
  5
257
  8
DETAIL
  6
CONTINUOUS
 62
     5
 10
159.78362000000001
 20
86.130425999999986
 30
0.0
 11
159.78362000000001
 21
120.8705039999999
 31
0.0
  0
ARC
  5
258
  8
DETAIL
  6
CONTINUOUS
 62
     5
 10
156.71832000000001
 20
86.130425999999986
 30
0.0
 40
3.0653000000000001
 50
270.0
 51
0.0
  0
ARC
  5
259
  8
DETAIL
  6
CONTINUOUS
 62
     5
 10
156.71832000000001
 20
120.8705039999999
 30
0.0
 40
3.0653000000000001
 50
0.0
 51
90.0
  0
ARC
  5
25A
  8
DETAIL
  6
CONTINUOUS
 62
     5
 10
142.9127219999998
 20
105.0
 30
0.0
 40
8.7361070000000005
 50
140.83328900000001
 51
219.16671099999999
  0
LINE
  5
25B
  8
DETAIL
  6
CONTINUOUS
 62
     5
 10
134.7521669999999
 20
113.736107
 30
0.0
 11
151.07327699999991
 21
113.736107
 31
0.0
  0
LINE
  5
25C
  8
DETAIL
  6
CONTINUOUS
 62
     5
 10
136.13951700000001
 20
110.517534
 30
0.0
 11
149.68592699999991
 21
110.517534
 31
0.0
  0
ARC
  5
25D
  8
DETAIL
  6
CONTINUOUS
 62
     5
 10
142.9127219999998
 20
105.0
 30
0.0
 40
11.95467899999999
 50
313.04908
 51
46.950920000000004
  0
LINE
  5
25E
  8
DETAIL
  6
CONTINUOUS
 62
     5
 10
134.7521669999999
 20
96.263892999999996
 30
0.0
 11
151.07327699999991
 21
96.263892999999996
 31
0.0
  0
ARC
  5
25F
  8
DETAIL
  6
CONTINUOUS
 62
     5
 10
142.9127219999998
 20
105.0
 30
0.0
 40
8.7361070000000005
 50
320.83328899999992
 51
39.166710999999999
  0
LINE
  5
260
  8
DETAIL
  6
CONTINUOUS
 62
     5
 10
136.13951700000001
 20
99.482455000000002
 30
0.0
 11
149.68592699999991
 21
99.482455000000002
 31
0.0
  0
CIRCLE
  5
261
  8
DETAIL
  6
CONTINUOUS
 62
     5
 39
50.0
 10
19.413564999999991
 20
13.282954
 30
0.0
 40
41.0
  0
LINE
  5
262
  8
DETAIL
  6
CONTINUOUS
 62
     5
 39
50.0
 10
153.0
 20
-153.0
 30
0.0
 11
153.0
 21
83.065126000000006
 31
0.0
  0
LINE
  5
263
  8
DETAIL
  6
CONTINUOUS
 62
     5
 39
50.0
 10
-153.0
 20
-153.0
 30
0.0
 11
-153.0
 21
-123.935804
 31
0.0
  0
LINE
  5
264
  8
DETAIL
  6
CONTINUOUS
 62
     5
 39
50.0
 10
165.0
 20
-150.0
 30
0.0
 11
165.0
 21
150.0
 31
0.0
  0
LINE
  5
265
  8
DETAIL
  6
CONTINUOUS
 62
     5
 39
50.0
 10
-165.0
 20
-150.0
 30
0.0
 11
-165.0
 21
150.0
 31
0.0
  0
LINE
  5
266
  8
DETAIL
  6
CONTINUOUS
 62
     5
 39
50.0
 10
150.0
 20
165.0
 30
0.0
 11
52.514195000000001
 21
165.007892
 31
0.0
  0
LINE
  5
267
  8
DETAIL
  6
CONTINUOUS
 62
     5
 39
50.0
 10
150.0
 20
-165.0
 30
0.0
 11
54.244137000000002
 21
-165.0
 31
0.0
  0
LINE
  5
268
  8
DETAIL
  6
CONTINUOUS
 62
     5
 39
50.0
 10
153.0
 20
153.0
 30
0.0
 11
123.93470499999989
 21
153.0
 31
0.0
  0
LINE
  5
269
  8
DETAIL
  6
CONTINUOUS
 62
     5
 39
50.0
 10
153.0
 20
-153.0
 30
0.0
 11
54.930920999999998
 21
-153.0
 31
0.0
  0
ARC
  5
26A
  8
DETAIL
  6
CONTINUOUS
 62
     5
 39
50.0
 10
-150.0
 20
150.0
 30
0.0
 40
15.0
 50
90.0
 51
180.0
  0
ARC
  5
26B
  8
DETAIL
  6
CONTINUOUS
 62
     5
 39
50.0
 10
150.0
 20
150.0
 30
0.0
 40
15.0
 50
0.0
 51
90.0
  0
ARC
  5
26C
  8
DETAIL
  6
CONTINUOUS
 62
     5
 39
50.0
 10
150.0
 20
-150.0
 30
0.0
 40
15.0
 50
270.0
 51
0.0
  0
ARC
  5
26D
  8
DETAIL
  6
CONTINUOUS
 62
     5
 39
50.0
 10
-150.0
 20
-150.0
 30
0.0
 40
15.0
 50
180.0
 51
270.0
  0
CIRCLE
  5
26E
  8
DETAIL
  6
CONTINUOUS
 62
     5
 39
50.0
 10
-85.0
 20
141.5
 30
0.0
 40
2.5
  0
CIRCLE
  5
26F
  8
DETAIL
  6
CONTINUOUS
 62
     5
 39
50.0
 10
-141.5
 20
85.0
 30
0.0
 40
2.5
  0
CIRCLE
  5
270
  8
DETAIL
  6
CONTINUOUS
 62
     5
 39
50.0
 10
141.5
 20
-85.0
 30
0.0
 40
2.5
  0
LINE
  5
271
  8
DETAIL
  6
DASHED
 62
     5
 10
147.274405
 20
-52.917670999999999
 30
0.0
 11
147.274405
 21
-21.135788999999988
 31
0.0
  0
LINE
  5
272
  8
DETAIL
  6
DASHED
 62
     5
 10
90.055462000000006
 20
30.653013999999999
 30
0.0
 11
90.055462000000006
 21
-30.653002999999998
 31
0.0
  0
LINE
  5
273
  8
DETAIL
  6
DASHED
 62
     5
 10
114.577865
 20
30.653013999999999
 30
0.0
 11
114.577865
 21
-30.653002999999998
 31
0.0
  0
ARC
  5
274
  8
DETAIL
  6
DASHED
 62
     5
 10
107.4255009999999
 20
-25.544177000000001
 30
0.0
 40
3.4058879999999991
 50
270.0
 51
0.0
  0
ARC
  5
275
  8
DETAIL
  6
DASHED
 62
     5
 10
100.613714
 20
-25.544177000000001
 30
0.0
 40
3.4058879999999991
 50
180.0
 51
270.0
  0
LINE
  5
276
  8
DETAIL
  6
DASHED
 62
     5
 10
145.24870599999991
 20
77.440008000000006
 30
0.0
 11
121.99771200000001
 21
77.642909000000003
 31
0.0
  0
ARC
  5
277
  8
DETAIL
  6
DASHED
 62
     5
 10
107.4255009999999
 20
25.544177000000001
 30
0.0
 40
3.4058879999999991
 50
0.0
 51
90.0
  0
ARC
  5
278
  8
DETAIL
  6
DASHED
 62
     5
 10
100.613714
 20
25.544177000000001
 30
0.0
 40
3.4058879999999991
 50
90.0
 51
180.0
  0
LINE
  5
279
  8
DETAIL
  6
DASHED
 62
     5
 10
100.83292899999999
 20
36.90945
 30
0.0
 11
120.14321
 21
76.49539799999998
 31
0.0
  0
ARC
  5
27A
  8
DETAIL
  6
DASHED
 62
     5
 10
98.996264999999994
 20
37.80537799999999
 30
0.0
 40
2.0435370000000002
 50
291.75178799999992
 51
333.99658499999998
  0
LINE
  5
27B
  8
DETAIL
  6
DASHED
 62
     5
 10
99.753581000000011
 20
35.907353000000001
 30
0.0
 11
91.341683000000003
 21
32.551039000000003
 31
0.0
  0
ARC
  5
27C
  8
DETAIL
  6
DASHED
 62
     5
 10
92.098988000000006
 20
30.653013999999999
 30
0.0
 40
2.0435370000000002
 50
90.0
 51
180.0
  0
ARC
  5
27D
  8
DETAIL
  6
DASHED
 62
     5
 10
112.534328
 20
30.653013999999999
 30
0.0
 40
2.0435370000000002
 50
0.0
 51
90.0
  0
LINE
  5
27E
  8
DETAIL
  6
DASHED
 62
     5
 10
112.534328
 20
32.696550999999999
 30
0.0
 11
92.098988000000006
 21
32.696550999999999
 31
0.0
  0
LINE
  5
27F
  8
DETAIL
  6
DASHED
 62
     5
 10
107.4255009999999
 20
28.950064999999999
 30
0.0
 11
100.613714
 21
28.950064999999999
 31
0.0
  0
LINE
  5
280
  8
DETAIL
  6
DASHED
 62
     5
 10
110.8313889999999
 20
25.544177000000001
 30
0.0
 11
110.8313889999999
 21
-25.544177000000001
 31
0.0
  0
LINE
  5
281
  8
DETAIL
  6
DASHED
 62
     5
 10
97.207825999999983
 20
25.544177000000001
 30
0.0
 11
97.207825999999983
 21
-25.544177000000001
 31
0.0
  0
LINE
  5
282
  8
DETAIL
  6
DASHED
 62
     5
 10
147.274405
 20
21.1358
 30
0.0
 11
147.274405
 21
75.396546999999984
 31
0.0
  0
LINE
  5
283
  8
DETAIL
  6
DASHED
 62
     5
 10
145.65927500000001
 20
77.394678999999982
 30
0.0
 11
147.75389899999999
 21
76.945582999999999
 31
0.0
  0
ARC
  5
284
  8
DETAIL
  6
DASHED
 62
     5
 10
145.2308789999999
 20
75.396546999999984
 30
0.0
 40
2.0435370000000002
 50
0.0
 51
89.500000000000014
  0
LINE
  5
285
  8
DETAIL
  6
DASHED
 62
     5
 10
145.2308789999999
 20
-21.135788999999988
 30
0.0
 11
145.2308789999999
 21
21.1358
 31
0.0
  0
LINE
  5
286
  8
DETAIL
  6
DASHED
 62
     5
 10
145.24870599999991
 20
-54.961120999999999
 30
0.0
 11
121.5347179999999
 21
-55.168070999999998
 31
0.0
  0
LINE
  5
287
  8
DETAIL
  6
DASHED
 62
     5
 10
100.8646759999999
 20
-36.323810000000002
 30
0.0
 11
120.10940600000001
 21
-54.606189000000001
 31
0.0
  0
LINE
  5
288
  8
DETAIL
  6
DASHED
 62
     5
 10
100.1800719999999
 20
-35.893965999999999
 30
0.0
 11
91.376118000000005
 21
-32.56441499999999
 31
0.0
  0
ARC
  5
289
  8
DETAIL
  6
DASHED
 62
     5
 10
92.098988000000006
 20
-30.653002999999998
 30
0.0
 40
2.0435370000000002
 50
180.0
 51
270.0
  0
LINE
  5
28A
  8
DETAIL
  6
DASHED
 62
     5
 10
112.534328
 20
-32.696541000000003
 30
0.0
 11
92.098988000000006
 21
-32.696541000000003
 31
0.0
  0
ARC
  5
28B
  8
DETAIL
  6
DASHED
 62
     5
 10
112.534328
 20
-30.653002999999998
 30
0.0
 40
2.0435370000000002
 50
270.0
 51
0.0
  0
LINE
  5
28C
  8
DETAIL
  6
DASHED
 62
     5
 10
107.4255009999999
 20
-28.950064999999999
 30
0.0
 11
100.613714
 21
-28.950064999999999
 31
0.0
  0
ARC
  5
28D
  8
DETAIL
  6
DASHED
 62
     5
 10
121.5168909999999
 20
-53.12462
 30
0.0
 40
2.0435370000000002
 50
226.46898999999999
 51
270.5
  0
LINE
  5
28E
  8
DETAIL
  6
DASHED
 62
     5
 10
-147.274405
 20
52.917670999999999
 30
0.0
 11
-147.274405
 21
21.135788999999988
 31
0.0
  0
LINE
  5
28F
  8
DETAIL
  6
DASHED
 62
     5
 10
-90.055462000000006
 20
-30.653013999999999
 30
0.0
 11
-90.055462000000006
 21
30.653002999999998
 31
0.0
  0
LINE
  5
290
  8
DETAIL
  6
DASHED
 62
     5
 10
-114.577865
 20
-30.653013999999999
 30
0.0
 11
-114.577865
 21
30.653002999999998
 31
0.0
  0
ARC
  5
291
  8
DETAIL
  6
DASHED
 62
     5
 10
-107.4255009999999
 20
25.544177000000001
 30
0.0
 40
3.4058879999999991
 50
90.0
 51
180.0
  0
ARC
  5
292
  8
DETAIL
  6
DASHED
 62
     5
 10
-100.613714
 20
25.544177000000001
 30
0.0
 40
3.4058879999999991
 50
0.0
 51
90.0
  0
LINE
  5
293
  8
DETAIL
  6
DASHED
 62
     5
 10
-145.24870599999991
 20
-77.440008000000006
 30
0.0
 11
-121.99771200000001
 21
-77.642909000000003
 31
0.0
  0
ARC
  5
294
  8
DETAIL
  6
DASHED
 62
     5
 10
-107.4255009999999
 20
-25.544177000000001
 30
0.0
 40
3.4058879999999991
 50
180.0
 51
270.0
  0
ARC
  5
295
  8
DETAIL
  6
DASHED
 62
     5
 10
-100.613714
 20
-25.544177000000001
 30
0.0
 40
3.4058879999999991
 50
270.0
 51
0.0
  0
LINE
  5
296
  8
DETAIL
  6
DASHED
 62
     5
 10
-100.83292899999999
 20
-36.90945
 30
0.0
 11
-120.14321
 21
-76.49539799999998
 31
0.0
  0
ARC
  5
297
  8
DETAIL
  6
DASHED
 62
     5
 10
-98.996264999999994
 20
-37.80537799999999
 30
0.0
 40
2.0435370000000002
 50
111.751788
 51
153.99658500000001
  0
LINE
  5
298
  8
DETAIL
  6
DASHED
 62
     5
 10
-99.753581000000011
 20
-35.907353000000001
 30
0.0
 11
-91.341683000000003
 21
-32.551039000000003
 31
0.0
  0
ARC
  5
299
  8
DETAIL
  6
DASHED
 62
     5
 10
-92.098988000000006
 20
-30.653013999999999
 30
0.0
 40
2.0435370000000002
 50
270.0
 51
0.0
  0
ARC
  5
29A
  8
DETAIL
  6
DASHED
 62
     5
 10
-112.534328
 20
-30.653013999999999
 30
0.0
 40
2.0435370000000002
 50
180.0
 51
270.0
  0
LINE
  5
29B
  8
DETAIL
  6
DASHED
 62
     5
 10
-112.534328
 20
-32.696550999999999
 30
0.0
 11
-92.098988000000006
 21
-32.696550999999999
 31
0.0
  0
LINE
  5
29C
  8
DETAIL
  6
DASHED
 62
     5
 10
-107.4255009999999
 20
-28.950064999999999
 30
0.0
 11
-100.613714
 21
-28.950064999999999
 31
0.0
  0
LINE
  5
29D
  8
DETAIL
  6
DASHED
 62
     5
 10
-110.8313889999999
 20
-25.544177000000001
 30
0.0
 11
-110.8313889999999
 21
25.544177000000001
 31
0.0
  0
LINE
  5
29E
  8
DETAIL
  6
DASHED
 62
     5
 10
-97.207825999999983
 20
-25.544177000000001
 30
0.0
 11
-97.207825999999983
 21
25.544177000000001
 31
0.0
  0
LINE
  5
29F
  8
DETAIL
  6
DASHED
 62
     5
 10
-147.274405
 20
-21.1358
 30
0.0
 11
-147.274405
 21
-75.396546999999984
 31
0.0
  0
LINE
  5
2A0
  8
DETAIL
  6
DASHED
 62
     5
 10
-145.65927500000001
 20
-77.394678999999982
 30
0.0
 11
-147.75389899999999
 21
-76.945582999999999
 31
0.0
  0
ARC
  5
2A1
  8
DETAIL
  6
DASHED
 62
     5
 10
-145.2308789999999
 20
-75.396546999999984
 30
0.0
 40
2.0435370000000002
 50
180.0
 51
269.5
  0
LINE
  5
2A2
  8
DETAIL
  6
DASHED
 62
     5
 10
-145.2308789999999
 20
21.135788999999988
 30
0.0
 11
-145.2308789999999
 21
-21.1358
 31
0.0
  0
LINE
  5
2A3
  8
DETAIL
  6
DASHED
 62
     5
 10
-145.24870599999991
 20
54.961120999999999
 30
0.0
 11
-121.5347179999999
 21
55.168070999999998
 31
0.0
  0
LINE
  5
2A4
  8
DETAIL
  6
DASHED
 62
     5
 10
-100.8646759999999
 20
36.323810000000002
 30
0.0
 11
-120.10940600000001
 21
54.606189000000001
 31
0.0
  0
LINE
  5
2A5
  8
DETAIL
  6
DASHED
 62
     5
 10
-100.1800719999999
 20
35.893965999999999
 30
0.0
 11
-91.376118000000005
 21
32.56441499999999
 31
0.0
  0
ARC
  5
2A6
  8
DETAIL
  6
DASHED
 62
     5
 10
-92.098988000000006
 20
30.653002999999998
 30
0.0
 40
2.0435370000000002
 50
0.0
 51
90.0
  0
LINE
  5
2A7
  8
DETAIL
  6
DASHED
 62
     5
 10
-112.534328
 20
32.696541000000003
 30
0.0
 11
-92.098988000000006
 21
32.696541000000003
 31
0.0
  0
ARC
  5
2A8
  8
DETAIL
  6
DASHED
 62
     5
 10
-112.534328
 20
30.653002999999998
 30
0.0
 40
2.0435370000000002
 50
90.0
 51
180.0
  0
LINE
  5
2A9
  8
DETAIL
  6
DASHED
 62
     5
 10
-107.4255009999999
 20
28.950064999999999
 30
0.0
 11
-100.613714
 21
28.950064999999999
 31
0.0
  0
ARC
  5
2AA
  8
DETAIL
  6
DASHED
 62
     5
 10
-121.5168909999999
 20
53.12462
 30
0.0
 40
2.0435370000000002
 50
46.468989999999998
 51
90.5
  0
LINE
  5
2AB
  8
DETAIL
  6
CONTINUOUS
 62
     5
 39
50.0
 10
-52.498762999999997
 20
153.0
 30
0.0
 11
-153.0
 21
153.0
 31
0.0
  0
LINE
  5
2AC
  8
DETAIL
  6
CONTINUOUS
 62
     5
 39
50.0
 10
-54.930920999999998
 20
-153.0
 30
0.0
 11
-83.064036999999999
 21
-153.0
 31
0.0
  0
LINE
  5
2AD
  8
DETAIL
  6
CONTINUOUS
 62
     5
 39
50.0
 10
-153.0
 20
-83.065126000000006
 30
0.0
 11
-153.0
 21
153.0
 31
0.0
  0
LINE
  5
2AE
  8
DETAIL
  6
CONTINUOUS
 62
     5
 39
50.0
 10
153.0
 20
123.935804
 30
0.0
 11
153.0
 21
153.0
 31
0.0
  0
LINE
  5
2AF
  8
DETAIL
  6
CONTINUOUS
 62
     5
 39
50.0
 10
-52.514198
 20
165.0003309999999
 30
0.0
 11
-150.0
 21
165.0
 31
0.0
  0
LINE
  5
2B0
  8
DETAIL
  6
CONTINUOUS
 62
     5
 39
50.0
 10
-54.244137000000002
 20
-165.0
 30
0.0
 11
-150.0
 21
-165.0
 31
0.0
  0
LINE
  5
2B1
  8
SIZE
  6
CONTINUOUS
 62
    30
 10
-159.78363100000001
 20
-66.130425999999986
 30
0.0
 11
-159.78363100000001
 21
963.01273900000001
 31
0.0
  0
LINE
  5
2B2
  8
SIZE
  6
CONTINUOUS
 62
    30
 10
159.78362000000001
 20
140.87050400000001
 30
0.0
 11
159.78362000000001
 21
963.01273900000001
 31
0.0
  0
LINE
  5
2B3
  8
SIZE
  6
CONTINUOUS
 62
    30
 10
-147.78363100000001
 20
943.01273900000001
 30
0.0
 11
147.78362000000001
 21
943.01273900000001
 31
0.0
  0
CIRCLE
  5
2B4
  8
SIZE
  6
CONTINUOUS
 62
    30
 10
-159.78363100000001
 20
943.01273900000001
 30
0.0
 40
6.0
  0
LINE
  5
2B5
  8
SIZE
  6
CONTINUOUS
 62
    30
 10
-159.78363100000001
 20
943.01273900000001
 30
0.0
 11
-147.78363100000001
 21
943.01273900000001
 31
0.0
  0
CIRCLE
  5
2B6
  8
SIZE
  6
CONTINUOUS
 62
    30
 10
159.78362000000001
 20
943.01273900000001
 30
0.0
 40
6.0
  0
LINE
  5
2B7
  8
SIZE
  6
CONTINUOUS
 62
    30
 10
159.78362000000001
 20
943.01273900000001
 30
0.0
 11
147.78362000000001
 21
943.01273900000001
 31
0.0
  0
TEXT
  5
2B8
  8
SIZE
  6
CONTINUOUS
 62
    30
 10
-74.057147857142851
 20
968.01273900000001
 30
0.0
 40
64.0
  1
320
 41
0.9
 72
     1
 11
-0.0000050000000016
 21
968.01273900000001
 31
0.0
  0
POINT
  5
2B9
  8
DEFPOINTS
  6
CONTINUOUS
 62
    30
 10
-159.78363100000001
 20
-86.130425999999986
 30
0.0
  0
POINT
  5
2BA
  8
DEFPOINTS
  6
CONTINUOUS
 62
    30
 10
159.78362000000001
 20
120.8705039999999
 30
0.0
  0
POINT
  5
2BB
  8
DEFPOINTS
  6
CONTINUOUS
 62
    30
 10
159.78362000000001
 20
943.01273900000001
 30
0.0
  0
LINE
  5
2BC
  8
DETAIL
  6
CONTINUOUS
 62
     5
 39
50.0
 10
-123.9347159999999
 20
-153.0
 30
0.0
 11
-153.0
 21
-153.0
 31
0.0
  0
LINE
  5
2BD
  8
DETAIL
  6
DASHED
 62
     5
 10
-178.819525
 20
52.333970000000001
 30
0.0
 11
-178.819525
 21
-52.333981000000001
 31
0.0
  0
LINE
  5
2BE
  8
DETAIL
  6
DASHED
 62
     5
 10
-182.275869
 20
49.049410999999999
 30
0.0
 11
-182.275869
 21
-49.049410999999999
 31
0.0
  0
LINE
  5
2BF
  8
DETAIL
  6
DASHED
 62
     5
 10
-207.0
 20
0.0
 30
0.0
 11
-207.0
 21
49.049410999999999
 31
0.0
  0
LINE
  5
2C0
  8
DETAIL
  6
DASHED
 62
     5
 10
-171.71706399999991
 20
-21.1358
 30
0.0
 11
-171.71706399999991
 21
21.135788999999988
 31
0.0
  0
LINE
  5
2C1
  8
DETAIL
  6
DASHED
 62
     5
 10
-207.0
 20
-49.049410999999999
 30
0.0
 11
-182.275869
 21
-49.049410999999999
 31
0.0
  0
LINE
  5
2C2
  8
DETAIL
  6
DASHED
 62
     5
 10
-179.38844900000001
 20
-51.936832000000003
 30
0.0
 11
-182.275869
 21
-49.049410999999999
 31
0.0
  0
LINE
  5
2C3
  8
DETAIL
  6
DASHED
 62
     5
 10
-178.01501799999991
 20
-52.517040999999999
 30
0.0
 11
-147.274405
 21
-52.494722000000003
 31
0.0
  0
ARC
  5
2C4
  8
DETAIL
  6
DASHED
 62
     5
 10
-177.987244
 20
-50.535626999999998
 30
0.0
 40
1.9816100000000001
 50
225.0
 51
269.19695100000001
  0
LINE
  5
2C5
  8
DETAIL
  6
DASHED
 62
     5
 10
-145.2308789999999
 20
21.135788999999988
 30
0.0
 11
-171.71706399999991
 21
21.135788999999988
 31
0.0
  0
LINE
  5
2C6
  8
DETAIL
  6
DASHED
 62
     5
 10
-145.2308789999999
 20
-21.1358
 30
0.0
 11
-171.71706399999991
 21
-21.1358
 31
0.0
  0
LINE
  5
2C7
  8
DETAIL
  6
DASHED
 62
     5
 10
-207.0
 20
0.0
 30
0.0
 11
-207.0
 21
-49.049410999999999
 31
0.0
  0
LINE
  5
2C8
  8
DETAIL
  6
DASHED
 62
     5
 10
-207.0
 20
49.049410999999999
 30
0.0
 11
-182.275869
 21
49.049410999999999
 31
0.0
  0
LINE
  5
2C9
  8
DETAIL
  6
DASHED
 62
     5
 10
-178.01501799999991
 20
52.517029999999998
 30
0.0
 11
-147.274405
 21
52.494764000000004
 31
0.0
  0
LINE
  5
2CA
  8
DETAIL
  6
DASHED
 62
     5
 10
-179.38844900000001
 20
51.936821000000002
 30
0.0
 11
-182.275869
 21
49.049410999999999
 31
0.0
  0
ARC
  5
2CB
  8
DETAIL
  6
DASHED
 62
     5
 10
-177.987244
 20
50.535615999999997
 30
0.0
 40
1.9816100000000001
 50
90.803048999999987
 51
135.0
  0
LINE
  5
2CC
  8
DETAIL
  6
DASHED
 62
     5
 10
178.819525
 20
-52.333970000000001
 30
0.0
 11
178.819525
 21
52.333981000000001
 31
0.0
  0
LINE
  5
2CD
  8
DETAIL
  6
DASHED
 62
     5
 10
182.275869
 20
-49.049410999999999
 30
0.0
 11
182.275869
 21
49.049410999999999
 31
0.0
  0
LINE
  5
2CE
  8
DETAIL
  6
DASHED
 62
     5
 10
207.0
 20
0.0
 30
0.0
 11
207.0
 21
-49.049410999999999
 31
0.0
  0
LINE
  5
2CF
  8
DETAIL
  6
DASHED
 62
     5
 10
171.71706399999991
 20
21.1358
 30
0.0
 11
171.71706399999991
 21
-21.135788999999988
 31
0.0
  0
LINE
  5
2D0
  8
DETAIL
  6
DASHED
 62
     5
 10
207.0
 20
49.049410999999999
 30
0.0
 11
182.275869
 21
49.049410999999999
 31
0.0
  0
LINE
  5
2D1
  8
DETAIL
  6
DASHED
 62
     5
 10
179.38844900000001
 20
51.936832000000003
 30
0.0
 11
182.275869
 21
49.049410999999999
 31
0.0
  0
LINE
  5
2D2
  8
DETAIL
  6
DASHED
 62
     5
 10
178.01501799999991
 20
52.517040999999999
 30
0.0
 11
147.274405
 21
52.494722000000003
 31
0.0
  0
ARC
  5
2D3
  8
DETAIL
  6
DASHED
 62
     5
 10
177.987244
 20
50.535626999999998
 30
0.0
 40
1.9816100000000001
 50
45.0
 51
89.196950999999999
  0
LINE
  5
2D4
  8
DETAIL
  6
DASHED
 62
     5
 10
145.2308789999999
 20
-21.135788999999988
 30
0.0
 11
171.71706399999991
 21
-21.135788999999988
 31
0.0
  0
LINE
  5
2D5
  8
DETAIL
  6
DASHED
 62
     5
 10
145.2308789999999
 20
21.1358
 30
0.0
 11
171.71706399999991
 21
21.1358
 31
0.0
  0
LINE
  5
2D6
  8
DETAIL
  6
DASHED
 62
     5
 10
207.0
 20
0.0
 30
0.0
 11
207.0
 21
49.049410999999999
 31
0.0
  0
LINE
  5
2D7
  8
DETAIL
  6
DASHED
 62
     5
 10
207.0
 20
-49.049410999999999
 30
0.0
 11
182.275869
 21
-49.049410999999999
 31
0.0
  0
LINE
  5
2D8
  8
DETAIL
  6
DASHED
 62
     5
 10
178.01501799999991
 20
-52.517029999999998
 30
0.0
 11
147.274405
 21
-52.494764000000004
 31
0.0
  0
LINE
  5
2D9
  8
DETAIL
  6
DASHED
 62
     5
 10
179.38844900000001
 20
-51.936821000000002
 30
0.0
 11
182.275869
 21
-49.049410999999999
 31
0.0
  0
ARC
  5
2DA
  8
DETAIL
  6
DASHED
 62
     5
 10
177.987244
 20
-50.535615999999997
 30
0.0
 40
1.9816100000000001
 50
270.80304899999999
 51
315.0
  0
LINE
  5
2DB
  8
DETAIL
  6
CONTINUOUS
 62
     5
 39
50.0
 10
83.064026999999967
 20
153.0
 30
0.0
 11
52.498795000000001
 21
153.0
 31
0.0
  0
TEXT
  5
2E3
  8
NOTE
  6
CONTINUOUS
 62
     4
 10
-850.92839700000002
 20
-581.18730600000004
 30
0.0
 40
64.0
  1
AH 4-âË15ü~22
 41
0.9
  0
LINE
  5
2E4
  8
NOTE
  6
CONTINUOUS
 62
     4
 39
50.0
 10
-871.71215800000004
 20
-598.59303599999998
 30
0.0
 11
-214.31383099999991
 21
-598.59303599999998
 31
0.0
  0
LINE
  5
2E5
  8
NOTE
  6
CONTINUOUS
 62
     4
 39
50.0
 10
-214.31383099999991
 20
-598.59303599999998
 30
0.0
 11
-114.94434800000001
 21
-163.784719
 31
0.0
  0
LINE
  5
2E6
  8
NOTE
  6
CONTINUOUS
 62
     4
 39
50.0
 10
-114.94434800000001
 20
-163.784719
 30
0.0
 11
-126.03172600000001
 21
-183.519789
 31
0.0
  0
LINE
  5
2E7
  8
NOTE
  6
CONTINUOUS
 62
     4
 39
50.0
 10
-114.94434800000001
 20
-163.784719
 30
0.0
 11
-113.5302669999999
 21
-186.37682599999999
 31
0.0
  0
ENDSEC
  0
EOF
