  0
SECTION
  2
HEADER
  9
$ACADVER
  1
AC1009
  9
$INSBASE
 10
0.0
 20
0.0
 30
0.0
  9
$EXTMIN
 10
-933.11624700000004
 20
-401.97111200000001
 30
0.0
  9
$EXTMAX
 10
1618.737089142857
 20
917.93972800000063
 30
50.0
  9
$LIMMIN
 10
-2970.0
 20
-2100.0
  9
$LIMMAX
 10
2970.0
 20
2100.0
  9
$ORTHOMODE
 70
     0
  9
$REGENMODE
 70
     1
  9
$FILLMODE
 70
     1
  9
$QTEXTMODE
 70
     0
  9
$MIRRTEXT
 70
     0
  9
$DRAGMODE
 70
     2
  9
$LTSCALE
 40
20.0
  9
$OSMODE
 70
    37
  9
$ATTMODE
 70
     1
  9
$TEXTSIZE
 40
64.0
  9
$TRACEWID
 40
0.05
  9
$TEXTSTYLE
  7
STANDARD
  9
$CLAYER
  8
NOTE
  9
$CELTYPE
  6
CONTINUOUS
  9
$CECOLOR
 62
     7
  9
$DIMSCALE
 40
1.0
  9
$DIMASZ
 40
12.0
  9
$DIMEXO
 40
20.0
  9
$DIMDLI
 40
200.0
  9
$DIMRND
 40
0.0
  9
$DIMDLE
 40
0.0
  9
$DIMEXE
 40
20.0
  9
$DIMTP
 40
0.0
  9
$DIMTM
 40
0.0
  9
$DIMTXT
 40
64.0
  9
$DIMCEN
 40
0.09
  9
$DIMTSZ
 40
0.0
  9
$DIMTOL
 70
     0
  9
$DIMLIM
 70
     0
  9
$DIMTIH
 70
     0
  9
$DIMTOH
 70
     0
  9
$DIMSE1
 70
     0
  9
$DIMSE2
 70
     0
  9
$DIMTAD
 70
     1
  9
$DIMZIN
 70
     8
  9
$DIMBLK
  1
DOT1
  9
$DIMASO
 70
     1
  9
$DIMSHO
 70
     0
  9
$DIMPOST
  1

  9
$DIMAPOST
  1

  9
$DIMALT
 70
     0
  9
$DIMALTD
 70
     2
  9
$DIMALTF
 40
25.399999999999999
  9
$DIMLFAC
 40
1.0
  9
$DIMTOFL
 70
     1
  9
$DIMTVP
 40
0.0
  9
$DIMTIX
 70
     1
  9
$DIMSOXD
 70
     0
  9
$DIMSAH
 70
     1
  9
$DIMBLK1
  1
ORIGIN
  9
$DIMBLK2
  1
ORIGIN
  9
$DIMSTYLE
  2
STANDARD
  9
$DIMCLRD
 70
     7
  9
$DIMCLRE
 70
     7
  9
$DIMCLRT
 70
     7
  9
$DIMTFAC
 40
1.0
  9
$DIMGAP
 40
25.0
  9
$LUNITS
 70
     2
  9
$LUPREC
 70
     4
  9
$SKETCHINC
 40
0.1
  9
$FILLETRAD
 40
2.5
  9
$AUNITS
 70
     1
  9
$AUPREC
 70
     3
  9
$MENU
  1
ACAD
  9
$ELEVATION
 40
0.0
  9
$PELEVATION
 40
0.0
  9
$THICKNESS
 40
50.0
  9
$LIMCHECK
 70
     0
  9
$BLIPMODE
 70
     0
  9
$CHAMFERA
 40
0.0
  9
$CHAMFERB
 40
0.0
  9
$SKPOLY
 70
     0
  9
$TDCREATE
 40
2453019.6230103699
  9
$TDUPDATE
 40
2455617.4124347102
  9
$TDINDWG
 40
1.9303255670999999
  9
$TDUSRTIMER
 40
1.9303253818999999
  9
$USRTIMER
 70
     1
  9
$ANGBASE
 50
0.0
  9
$ANGDIR
 70
     0
  9
$PDMODE
 70
     3
  9
$PDSIZE
 40
-2.0
  9
$PLINEWID
 40
0.0
  9
$COORDS
 70
     1
  9
$SPLFRAME
 70
     0
  9
$SPLINETYPE
 70
     6
  9
$SPLINESEGS
 70
     8
  9
$ATTDIA
 70
     0
  9
$ATTREQ
 70
     1
  9
$HANDLING
 70
 22529
  9
$HANDSEED
  5
379
  9
$SURFTAB1
 70
     6
  9
$SURFTAB2
 70
     6
  9
$SURFTYPE
 70
     6
  9
$SURFU
 70
     6
  9
$SURFV
 70
     6
  9
$UCSNAME
  2

  9
$UCSORG
 10
0.0
 20
0.0
 30
0.0
  9
$UCSXDIR
 10
1.0
 20
0.0
 30
0.0
  9
$UCSYDIR
 10
0.0
 20
1.0
 30
0.0
  9
$PUCSNAME
  2

  9
$PUCSORG
 10
0.0
 20
0.0
 30
0.0
  9
$PUCSXDIR
 10
1.0
 20
0.0
 30
0.0
  9
$PUCSYDIR
 10
0.0
 20
1.0
 30
0.0
  9
$USERI1
 70
     0
  9
$USERI2
 70
     0
  9
$USERI3
 70
     0
  9
$USERI4
 70
     0
  9
$USERI5
 70
     0
  9
$USERR1
 40
20.0
  9
$USERR2
 40
0.0
  9
$USERR3
 40
0.0
  9
$USERR4
 40
0.0
  9
$USERR5
 40
0.0
  9
$WORLDVIEW
 70
     1
  9
$SHADEDGE
 70
     3
  9
$SHADEDIF
 70
    70
  9
$TILEMODE
 70
     1
  9
$MAXACTVP
 70
    48
  9
$PLIMCHECK
 70
     0
  9
$PEXTMIN
 10
-1.0000000000000000E+020
 20
-1.0000000000000000E+020
 30
-1.0000000000000000E+020
  9
$PEXTMAX
 10
1.0000000000000000E+020
 20
1.0000000000000000E+020
 30
1.0000000000000000E+020
  9
$PLIMMIN
 10
0.0
 20
0.0
  9
$PLIMMAX
 10
12.0
 20
9.0
  9
$UNITMODE
 70
     0
  9
$VISRETAIN
 70
     0
  9
$PLINEGEN
 70
     0
  9
$PSLTSCALE
 70
     0
  0
ENDSEC
  0
SECTION
  2
TABLES
  0
TABLE
  2
VPORT
 70
     3
  0
VPORT
  2
*ACTIVE
 70
     0
 10
0.0
 20
0.0
 11
1.0
 21
1.0
 12
448.1237645742321
 22
382.45935101555
 13
0.0
 23
0.0
 14
1.0
 24
1.0
 15
0.0
 25
0.0
 16
0.0
 26
0.0
 36
1.0
 17
0.0
 27
0.0
 37
0.0
 40
1901.2110774686989
 41
1.5138190954773869
 42
50.0
 43
0.0
 44
0.0
 50
0.0
 51
0.0
 71
     0
 72
  1000
 73
     1
 74
     0
 75
     0
 76
     0
 77
     0
 78
     0
  0
ENDTAB
  0
TABLE
  2
LTYPE
 70
     3
  0
LTYPE
  2
CONTINUOUS
 70
     0
  3
Ä└É³
 72
    65
 73
     0
 40
0.0
  0
LTYPE
  2
DASHDOT
 70
     0
  3
____ _ ____ _ ____ _ ____ _ ____ _ ____ _ ____
 72
    65
 73
     4
 40
5.5
 49
4.0
 49
-0.6
 49
0.3
 49
-0.6
  0
LTYPE
  2
DASHED
 70
     0
  3
-- -- -- -- -- -- -- -- -- -- -- -- -- -- --
 72
    65
 73
     2
 40
0.75
 49
0.5
 49
-0.25
  0
ENDTAB
  0
TABLE
  2
LAYER
 70
    12
  0
LAYER
  2
0
 70
     0
 62
     7
  6
CONTINUOUS
  0
LAYER
  2
NOTE
 70
     0
 62
     4
  6
CONTINUOUS
  0
LAYER
  2
BASIS
 70
     0
 62
     6
  6
DASHDOT
  0
LAYER
  2
OUTLINE
 70
     0
 62
     3
  6
CONTINUOUS
  0
LAYER
  2
DETAIL
 70
     0
 62
     5
  6
CONTINUOUS
  0
LAYER
  2
SIZE
 70
     0
 62
    30
  6
CONTINUOUS
  0
LAYER
  2
ARRANGE
 70
     0
 62
     1
  6
CONTINUOUS
  0
LAYER
  2
DEFPOINTS
 70
     0
 62
     7
  6
CONTINUOUS
  0
LAYER
  2
ETC
 70
     0
 62
    61
  6
CONTINUOUS
  0
LAYER
  2
FIX
 70
     0
 62
    11
  6
CONTINUOUS
  0
LAYER
  2
SERVICESPACE
 70
     0
 62
     2
  6
DASHDOT
  0
LAYER
  2
SYMBOLLINE
 70
     0
 62
    15
  6
CONTINUOUS
  0
ENDTAB
  0
TABLE
  2
STYLE
 70
     1
  0
STYLE
  2
STANDARD
 70
     0
 40
64.0
 41
0.9
 50
0.0
 71
     0
 42
64.0
  3
SIMPLEX.shx
  4
BIGFONT.shx
  0
ENDTAB
  0
TABLE
  2
VIEW
 70
     1
  0
VIEW
  2
ALL
 70
     0
 40
4282.6198080000004
 10
0.0
 20
41.309904000000003
 41
5940.0
 11
0.0
 21
0.0
 31
1.0
 12
0.0
 22
0.0
 32
0.0
 42
50.0
 43
0.0
 44
0.0
 50
0.0
 71
     0
  0
ENDTAB
  0
TABLE
  2
UCS
 70
     0
  0
ENDTAB
  0
TABLE
  2
APPID
 70
    15
  0
APPID
  2
ACAD
 70
     0
  0
APPID
  2
AUTOCAD_POSTSCRIPT_FIGURE
 70
     0
  0
APPID
  2
ACAD_EXEMPT_FROM_CAD_STANDARDS
 70
     0
  0
APPID
  2
ACAD_PSEXT
 70
     0
  0
APPID
  2
ACAUTHENVIRON
 70
     0
  0
APPID
  2
GENIUS_GENOENT_13
 70
     0
  0
APPID
  2
GENIUS_GENCFG_13
 70
     0
  0
APPID
  2
GENIUS_GENCFG0_13
 70
     0
  0
APPID
  2
GENIUS_GENCFG1_13
 70
     0
  0
APPID
  2
GENIUS_GENCFG2_13
 70
     0
  0
APPID
  2
GENIUS_GENCFG3_13
 70
     0
  0
APPID
  2
GENIUS_GENCFG4_13
 70
     0
  0
APPID
  2
GENIUS_GEVCFG0_13
 70
     0
  0
APPID
  2
CONTENTBLOCKICON
 70
     0
  0
APPID
  2
CONTENTBLOCKDESCRIPTION
 70
     0
  0
ENDTAB
  0
TABLE
  2
DIMSTYLE
 70
     1
  0
DIMSTYLE
  2
STANDARD
 70
     0
  3

  4

  5

  6

  7

 40
1.0
 41
0.18
 42
0.0625
 43
0.38
 44
0.18
 45
0.0
 46
0.0
 47
0.0
 48
0.0
140
0.18
141
0.09
142
0.0
143
25.399999999999999
144
1.0
145
0.0
146
1.0
147
0.09
 71
     0
 72
     0
 73
     1
 74
     1
 75
     0
 76
     0
 77
     0
 78
     0
170
     0
171
     2
172
     0
173
     0
174
     0
175
     0
176
     7
177
     7
178
     7
  0
ENDTAB
  0
ENDSEC
  0
SECTION
  2
BLOCKS
  0
BLOCK
  8
0
  2
$MODEL_SPACE
 70
     0
 10
0.0
 20
0.0
 30
0.0
  3
$MODEL_SPACE
  1

  0
ENDBLK
  5
20
  8
0
  0
BLOCK
 67
     1
  8
0
  2
$PAPER_SPACE
 70
     0
 10
0.0
 20
0.0
 30
0.0
  3
$PAPER_SPACE
  1

  0
ENDBLK
  5
1C
 67
     1
  8
0
  0
BLOCK
  8
0
  2
DOT1
 70
     0
 10
0.0
 20
0.0
 30
0.0
  3
DOT1
  1

  0
CIRCLE
  5
44
  8
SIZE
  6
CONTINUOUS
 62
     7
 10
0.0
 20
0.0
 30
0.0
 40
3.0
  0
ENDBLK
  5
45
  8
0
  0
BLOCK
  8
0
  2
_ORIGIN
 70
     0
 10
0.0
 20
0.0
 30
0.0
  3
_ORIGIN
  1

  0
CIRCLE
  5
48
  8
0
  6
CONTINUOUS
 62
     7
 10
0.0
 20
0.0
 30
0.0
 40
0.5
  0
LINE
  5
49
  8
0
  6
CONTINUOUS
 62
     7
 10
0.0
 20
0.0
 30
0.0
 11
-1.0
 21
0.0
 31
0.0
  0
ENDBLK
  5
4A
  8
0
  0
ENDSEC
  0
SECTION
  2
ENTITIES
  0
TEXT
  5
4B
  8
ETC
  6
CONTINUOUS
 62
    61
 10
596.22833000000003
 20
853.93972799999995
 30
0.0
 40
64.0
  1
VD-15ZFVC2_5
 41
0.9
  0
TEXT
  5
4C
  8
ETC
  6
CONTINUOUS
 62
    61
 10
592.04233599999998
 20
735.98441800000001
 30
0.0
 40
64.0
  1
èÀïCÉ¯
 41
0.9
  0
CIRCLE
  5
4D
  8
ARRANGE
  6
CONTINUOUS
 62
     1
 10
0.0
 20
0.0
 30
0.0
 40
40.0
  0
POINT
  5
4E
  8
ARRANGE
  6
CONTINUOUS
 62
     1
 10
0.0
 20
0.0
 30
0.0
 39
50.0
  0
TEXT
  5
4F
  8
NOTE
  6
CONTINUOUS
 62
     4
 10
-79.691867000000002
 20
126.92580100000001
 30
0.0
 40
64.0
  1
RA3
 41
0.9
  0
TEXT
  5
50
  8
NOTE
  6
CONTINUOUS
 62
     4
 10
254.39805200000001
 20
-111.40127699999989
 30
0.0
 40
64.0
  1
8-âË5
 41
0.9
  0
LINE
  5
51
  8
NOTE
  6
CONTINUOUS
 62
     4
 39
50.0
 10
508.83997900000003
 20
-124.114271
 30
0.0
 11
237.816362
 21
-124.114271
 31
0.0
  0
LINE
  5
52
  8
NOTE
  6
CONTINUOUS
 62
     4
 39
50.0
 10
237.816362
 20
-124.114271
 30
0.0
 11
141.5
 21
0.0
 31
0.0
  0
LINE
  5
53
  8
NOTE
  6
CONTINUOUS
 62
     4
 39
50.0
 10
141.5
 20
0.0
 30
0.0
 11
152.01110299999991
 21
-33.002915000000002
 31
0.0
  0
LINE
  5
54
  8
NOTE
  6
CONTINUOUS
 62
     4
 39
50.0
 10
141.5
 20
0.0
 30
0.0
 11
170.8600999999999
 21
-18.375533999999998
 31
0.0
  0
TEXT
  5
55
  8
NOTE
  6
CONTINUOUS
 62
     4
 10
287.15127100000001
 20
76.933017000000007
 30
0.0
 40
64.0
  1
EA
 41
0.9
  0
TEXT
  5
56
  8
NOTE
  6
CONTINUOUS
 62
     4
 10
-444.159561
 20
76.933017000000007
 30
0.0
 40
64.0
  1
RA1
 41
0.9
  0
LINE
  5
57
  8
SIZE
  6
CONTINUOUS
 62
    30
 10
-54.052646000000003
 20
214.47143099999991
 30
0.0
 11
-54.052646000000003
 21
342.820626
 31
0.0
  0
LINE
  5
58
  8
SIZE
  6
CONTINUOUS
 62
    30
 10
28.027060999999989
 20
214.69141300000001
 30
0.0
 11
28.027060999999989
 21
342.820626
 31
0.0
  0
LINE
  5
59
  8
SIZE
  6
CONTINUOUS
 62
    30
 10
-42.052646000000003
 20
322.820626
 30
0.0
 11
16.027060999999989
 21
322.820626
 31
0.0
  0
CIRCLE
  5
5A
  8
SIZE
  6
CONTINUOUS
 62
    30
 10
-54.052646000000003
 20
322.820626
 30
0.0
 40
6.0
  0
LINE
  5
5B
  8
SIZE
  6
CONTINUOUS
 62
    30
 10
-54.052646000000003
 20
322.820626
 30
0.0
 11
-42.052646000000003
 21
322.820626
 31
0.0
  0
CIRCLE
  5
5C
  8
SIZE
  6
CONTINUOUS
 62
    30
 10
28.027060999999989
 20
322.820626
 30
0.0
 40
6.0
  0
LINE
  5
5D
  8
SIZE
  6
CONTINUOUS
 62
    30
 10
28.027060999999989
 20
322.820626
 30
0.0
 11
16.027060999999989
 21
322.820626
 31
0.0
  0
TEXT
  5
5E
  8
SIZE
  6
CONTINUOUS
 62
    30
 10
-99.961363428571417
 20
347.820626
 30
0.0
 40
64.0
  1
âË82
 41
0.9
 72
     1
 11
-13.012791999999999
 21
347.820626
 31
0.0
  0
POINT
  5
5F
  8
DEFPOINTS
  6
CONTINUOUS
 62
    30
 10
-54.052646000000003
 20
194.47143099999991
 30
0.0
  0
POINT
  5
60
  8
DEFPOINTS
  6
CONTINUOUS
 62
    30
 10
28.027060999999989
 20
194.69141300000001
 30
0.0
  0
POINT
  5
61
  8
DEFPOINTS
  6
CONTINUOUS
 62
    30
 10
28.027060999999989
 20
322.820626
 30
0.0
  0
LINE
  5
62
  8
BASIS
  6
DASHDOT
 62
     6
 10
0.0
 20
230.1666669999999
 30
0.0
 11
0.0
 21
-35.853166999999992
 31
0.0
  0
LINE
  5
63
  8
NOTE
  6
CONTINUOUS
 62
     4
 39
50.0
 10
85.0
 20
6.1760760000000001
 30
0.0
 11
85.0
 21
-6.1760760000000001
 31
0.0
  0
CIRCLE
  5
64
  8
FIX
  6
CONTINUOUS
 62
    11
 39
50.0
 10
85.0
 20
0.0
 30
0.0
 40
2.5
  0
CIRCLE
  5
65
  8
FIX
  6
CONTINUOUS
 62
    11
 39
50.0
 10
141.5
 20
0.0
 30
0.0
 40
2.5
  0
LINE
  5
66
  8
NOTE
  6
CONTINUOUS
 62
     4
 39
50.0
 10
141.5
 20
6.1760760000000001
 30
0.0
 11
141.5
 21
-6.1760760000000001
 31
0.0
  0
LINE
  5
67
  8
NOTE
  6
CONTINUOUS
 62
     4
 39
50.0
 10
-85.0
 20
6.1760760000000001
 30
0.0
 11
-85.0
 21
-6.1760760000000001
 31
0.0
  0
CIRCLE
  5
68
  8
FIX
  6
CONTINUOUS
 62
    11
 39
50.0
 10
-85.0
 20
0.0
 30
0.0
 40
2.5
  0
CIRCLE
  5
69
  8
FIX
  6
CONTINUOUS
 62
    11
 39
50.0
 10
-141.5
 20
0.0
 30
0.0
 40
2.5
  0
LINE
  5
6A
  8
NOTE
  6
CONTINUOUS
 62
     4
 39
50.0
 10
-141.5
 20
6.1760760000000001
 30
0.0
 11
-141.5
 21
-6.1760760000000001
 31
0.0
  0
LINE
  5
6B
  8
SIZE
  6
CONTINUOUS
 62
    30
 10
-85.0
 20
-26.176075999999991
 30
0.0
 11
-85.0
 21
-173.08680499999991
 31
0.0
  0
LINE
  5
6C
  8
SIZE
  6
CONTINUOUS
 62
    30
 10
85.0
 20
-26.176075999999991
 30
0.0
 11
85.0
 21
-173.08680499999991
 31
0.0
  0
LINE
  5
6D
  8
SIZE
  6
CONTINUOUS
 62
    30
 10
-97.0
 20
-153.086805
 30
0.0
 11
-109.0
 21
-153.086805
 31
0.0
  0
LINE
  5
6E
  8
SIZE
  6
CONTINUOUS
 62
    30
 10
97.0
 20
-153.086805
 30
0.0
 11
109.0
 21
-153.086805
 31
0.0
  0
LINE
  5
6F
  8
SIZE
  6
CONTINUOUS
 62
    30
 10
-85.0
 20
-153.086805
 30
0.0
 11
85.0
 21
-153.086805
 31
0.0
  0
CIRCLE
  5
70
  8
SIZE
  6
CONTINUOUS
 62
    30
 10
-85.0
 20
-153.086805
 30
0.0
 40
6.0
  0
LINE
  5
71
  8
SIZE
  6
CONTINUOUS
 62
    30
 10
-85.0
 20
-153.086805
 30
0.0
 11
-97.0
 21
-153.086805
 31
0.0
  0
CIRCLE
  5
72
  8
SIZE
  6
CONTINUOUS
 62
    30
 10
85.0
 20
-153.086805
 30
0.0
 40
6.0
  0
LINE
  5
73
  8
SIZE
  6
CONTINUOUS
 62
    30
 10
85.0
 20
-153.086805
 30
0.0
 11
97.0
 21
-153.086805
 31
0.0
  0
TEXT
  5
74
  8
SIZE
  6
CONTINUOUS
 62
    30
 10
-68.571428571428569
 20
-128.086805
 30
0.0
 40
64.0
  1
170
 41
0.9
 72
     1
 11
0.0
 21
-128.086805
 31
0.0
  0
POINT
  5
75
  8
DEFPOINTS
  6
CONTINUOUS
 62
    30
 10
-85.0
 20
-6.1760760000000001
 30
0.0
  0
POINT
  5
76
  8
DEFPOINTS
  6
CONTINUOUS
 62
    30
 10
85.0
 20
-6.1760760000000001
 30
0.0
  0
POINT
  5
77
  8
DEFPOINTS
  6
CONTINUOUS
 62
    30
 10
85.0
 20
-153.086805
 30
0.0
  0
LINE
  5
78
  8
SIZE
  6
CONTINUOUS
 62
    30
 10
-141.5
 20
-26.176075999999991
 30
0.0
 11
-141.5
 21
-286.55082199999993
 31
0.0
  0
LINE
  5
79
  8
SIZE
  6
CONTINUOUS
 62
    30
 10
141.5
 20
-26.176075999999991
 30
0.0
 11
141.5
 21
-286.55082199999993
 31
0.0
  0
LINE
  5
7A
  8
SIZE
  6
CONTINUOUS
 62
    30
 10
-129.49999999999989
 20
-266.55082199999993
 30
0.0
 11
129.49999999999989
 21
-266.55082199999993
 31
0.0
  0
CIRCLE
  5
7B
  8
SIZE
  6
CONTINUOUS
 62
    30
 10
-141.5
 20
-266.55082199999993
 30
0.0
 40
6.0
  0
LINE
  5
7C
  8
SIZE
  6
CONTINUOUS
 62
    30
 10
-141.5
 20
-266.55082199999993
 30
0.0
 11
-129.49999999999989
 21
-266.55082199999993
 31
0.0
  0
CIRCLE
  5
7D
  8
SIZE
  6
CONTINUOUS
 62
    30
 10
141.5
 20
-266.55082199999993
 30
0.0
 40
6.0
  0
LINE
  5
7E
  8
SIZE
  6
CONTINUOUS
 62
    30
 10
141.5
 20
-266.55082199999993
 30
0.0
 11
129.49999999999989
 21
-266.55082199999993
 31
0.0
  0
TEXT
  5
7F
  8
SIZE
  6
CONTINUOUS
 62
    30
 10
-74.057142857142836
 20
-241.5508219999999
 30
0.0
 40
64.0
  1
283
 41
0.9
 72
     1
 11
0.0
 21
-241.5508219999999
 31
0.0
  0
POINT
  5
80
  8
DEFPOINTS
  6
CONTINUOUS
 62
    30
 10
-141.5
 20
-6.1760760000000001
 30
0.0
  0
POINT
  5
81
  8
DEFPOINTS
  6
CONTINUOUS
 62
    30
 10
141.5
 20
-6.1760760000000001
 30
0.0
  0
POINT
  5
82
  8
DEFPOINTS
  6
CONTINUOUS
 62
    30
 10
141.5
 20
-266.55082199999993
 30
0.0
  0
LINE
  5
83
  8
SIZE
  6
CONTINUOUS
 62
    30
 10
-164.92730099999989
 20
-22.892258999999989
 30
0.0
 11
-164.92730099999989
 21
-401.97111200000001
 31
0.0
  0
LINE
  5
84
  8
SIZE
  6
CONTINUOUS
 62
    30
 10
164.927312
 20
-22.892258999999989
 30
0.0
 11
164.927312
 21
-401.97111200000001
 31
0.0
  0
LINE
  5
85
  8
SIZE
  6
CONTINUOUS
 62
    30
 10
-152.92730099999989
 20
-381.97111200000001
 30
0.0
 11
152.927312
 21
-381.97111200000001
 31
0.0
  0
CIRCLE
  5
86
  8
SIZE
  6
CONTINUOUS
 62
    30
 10
-164.92730099999989
 20
-381.97111200000001
 30
0.0
 40
6.0
  0
LINE
  5
87
  8
SIZE
  6
CONTINUOUS
 62
    30
 10
-164.92730099999989
 20
-381.97111200000001
 30
0.0
 11
-152.92730099999989
 21
-381.97111200000001
 31
0.0
  0
CIRCLE
  5
88
  8
SIZE
  6
CONTINUOUS
 62
    30
 10
164.927312
 20
-381.97111200000001
 30
0.0
 40
6.0
  0
LINE
  5
89
  8
SIZE
  6
CONTINUOUS
 62
    30
 10
164.927312
 20
-381.97111200000001
 30
0.0
 11
152.927312
 21
-381.97111200000001
 31
0.0
  0
TEXT
  5
8A
  8
SIZE
  6
CONTINUOUS
 62
    30
 10
-110.5371378571428
 20
-356.97111200000001
 30
0.0
 40
64.0
  1
üá330
 41
0.9
 72
     1
 11
0.0000050000000016
 21
-356.97111200000001
 31
0.0
  0
POINT
  5
8B
  8
DEFPOINTS
  6
CONTINUOUS
 62
    30
 10
-164.92730099999989
 20
-2.8922590000000001
 30
0.0
  0
POINT
  5
8C
  8
DEFPOINTS
  6
CONTINUOUS
 62
    30
 10
164.927312
 20
-2.8922590000000001
 30
0.0
  0
POINT
  5
8D
  8
DEFPOINTS
  6
CONTINUOUS
 62
    30
 10
164.927312
 20
-381.97111200000001
 30
0.0
  0
LINE
  5
8E
  8
SIZE
  6
CONTINUOUS
 62
    30
 10
189.49999999999989
 20
0.0
 30
0.0
 11
758.32179299999984
 21
0.0
 31
0.0
  0
LINE
  5
8F
  8
SIZE
  6
CONTINUOUS
 62
    30
 10
297.415527
 20
108.609632
 30
0.0
 11
758.32179299999984
 21
108.609632
 31
0.0
  0
LINE
  5
90
  8
SIZE
  6
CONTINUOUS
 62
    30
 10
738.32179299999984
 20
96.609632000000005
 30
0.0
 11
738.32179299999984
 21
12.0
 31
0.0
  0
LINE
  5
91
  8
SIZE
  6
CONTINUOUS
 62
    30
 10
738.32179299999984
 20
0.0
 30
0.0
 11
738.32179299999984
 21
-196.40000000000001
 31
0.0
  0
CIRCLE
  5
92
  8
SIZE
  6
CONTINUOUS
 62
    30
 10
738.32179299999984
 20
108.609632
 30
0.0
 40
6.0
  0
LINE
  5
93
  8
SIZE
  6
CONTINUOUS
 62
    30
 10
738.32179299999984
 20
108.609632
 30
0.0
 11
738.32179299999984
 21
96.609632000000005
 31
0.0
  0
CIRCLE
  5
94
  8
SIZE
  6
CONTINUOUS
 62
    30
 10
738.32179299999984
 20
0.0
 30
0.0
 40
6.0
  0
LINE
  5
95
  8
SIZE
  6
CONTINUOUS
 62
    30
 10
738.32179299999984
 20
0.0
 30
0.0
 11
738.32179299999984
 21
12.0
 31
0.0
  0
TEXT
  5
96
  8
SIZE
  6
CONTINUOUS
 62
    30
 10
713.32179299999984
 20
-171.39999999999989
 30
0.0
 40
64.0
  1
109
 50
90.0
 41
0.9
 72
     1
 11
713.32179299999984
 21
-104.2
 31
0.0
  0
POINT
  5
97
  8
DEFPOINTS
  6
CONTINUOUS
 62
    30
 10
169.5
 20
0.0
 30
0.0
  0
POINT
  5
98
  8
DEFPOINTS
  6
CONTINUOUS
 62
    30
 10
277.415527
 20
108.609632
 30
0.0
  0
POINT
  5
99
  8
DEFPOINTS
  6
CONTINUOUS
 62
    30
 10
738.32179299999984
 20
108.609632
 30
0.0
  0
LINE
  5
9A
  8
SIZE
  6
CONTINUOUS
 62
    30
 10
189.49999999999989
 20
0.0
 30
0.0
 11
1274.223086
 21
0.0
 31
0.0
  0
LINE
  5
9B
  8
SIZE
  6
CONTINUOUS
 62
    30
 10
139.5
 20
-20.0
 30
0.0
 11
1274.223086
 21
-20.0
 31
0.0
  0
LINE
  5
9C
  8
SIZE
  6
CONTINUOUS
 62
    30
 10
1254.223086
 20
12.0
 30
0.0
 11
1254.223086
 21
24.0
 31
0.0
  0
LINE
  5
9D
  8
SIZE
  6
CONTINUOUS
 62
    30
 10
1254.223086
 20
-32.0
 30
0.0
 11
1254.223086
 21
-187.25714300000001
 31
0.0
  0
LINE
  5
9E
  8
SIZE
  6
CONTINUOUS
 62
    30
 10
1254.223086
 20
0.0
 30
0.0
 11
1254.223086
 21
-20.0
 31
0.0
  0
CIRCLE
  5
9F
  8
SIZE
  6
CONTINUOUS
 62
    30
 10
1254.223086
 20
0.0
 30
0.0
 40
6.0
  0
LINE
  5
A0
  8
SIZE
  6
CONTINUOUS
 62
    30
 10
1254.223086
 20
0.0
 30
0.0
 11
1254.223086
 21
12.0
 31
0.0
  0
CIRCLE
  5
A1
  8
SIZE
  6
CONTINUOUS
 62
    30
 10
1254.223086
 20
-20.0
 30
0.0
 40
6.0
  0
LINE
  5
A2
  8
SIZE
  6
CONTINUOUS
 62
    30
 10
1254.223086
 20
-20.0
 30
0.0
 11
1254.223086
 21
-32.0
 31
0.0
  0
TEXT
  5
A3
  8
SIZE
  6
CONTINUOUS
 62
    30
 10
1229.223086
 20
-162.2571424285714
 30
0.0
 40
64.0
  1
20
 50
90.0
 41
0.9
 72
     1
 11
1229.223086
 21
-115.62857099999989
 31
0.0
  0
POINT
  5
A4
  8
DEFPOINTS
  6
CONTINUOUS
 62
    30
 10
169.5
 20
0.0
 30
0.0
  0
POINT
  5
A5
  8
DEFPOINTS
  6
CONTINUOUS
 62
    30
 10
119.5
 20
-20.0
 30
0.0
  0
POINT
  5
A6
  8
DEFPOINTS
  6
CONTINUOUS
 62
    30
 10
1254.223086
 20
-20.0
 30
0.0
  0
LINE
  5
A7
  8
SIZE
  6
CONTINUOUS
 62
    30
 10
37.583246000000003
 20
199.9141579999999
 30
0.0
 11
1274.223086
 21
199.9141579999999
 31
0.0
  0
LINE
  5
A8
  8
SIZE
  6
CONTINUOUS
 62
    30
 10
180.227845
 20
0.0
 30
0.0
 11
1274.223086
 21
0.0
 31
0.0
  0
LINE
  5
A9
  8
SIZE
  6
CONTINUOUS
 62
    30
 10
1254.223086
 20
187.9141579999999
 30
0.0
 11
1254.223086
 21
12.0
 31
0.0
  0
CIRCLE
  5
AA
  8
SIZE
  6
CONTINUOUS
 62
    30
 10
1254.223086
 20
199.9141579999999
 30
0.0
 40
6.0
  0
LINE
  5
AB
  8
SIZE
  6
CONTINUOUS
 62
    30
 10
1254.223086
 20
199.9141579999999
 30
0.0
 11
1254.223086
 21
187.9141579999999
 31
0.0
  0
CIRCLE
  5
AC
  8
SIZE
  6
CONTINUOUS
 62
    30
 10
1254.223086
 20
0.0
 30
0.0
 40
6.0
  0
LINE
  5
AD
  8
SIZE
  6
CONTINUOUS
 62
    30
 10
1254.223086
 20
0.0
 30
0.0
 11
1254.223086
 21
12.0
 31
0.0
  0
TEXT
  5
AE
  8
SIZE
  6
CONTINUOUS
 62
    30
 10
1229.223086
 20
25.89993614285714
 30
0.0
 40
64.0
  1
200
 50
90.0
 41
0.9
 72
     1
 11
1229.223086
 21
99.957078999999993
 31
0.0
  0
POINT
  5
AF
  8
DEFPOINTS
  6
CONTINUOUS
 62
    30
 10
17.583245999999988
 20
199.9141579999999
 30
0.0
  0
POINT
  5
B0
  8
DEFPOINTS
  6
CONTINUOUS
 62
    30
 10
160.227845
 20
0.0
 30
0.0
  0
POINT
  5
B1
  8
DEFPOINTS
  6
CONTINUOUS
 62
    30
 10
1254.223086
 20
0.0
 30
0.0
  0
LINE
  5
B2
  8
SIZE
  6
CONTINUOUS
 62
    30
 10
-142.5
 20
214.53132999999991
 30
0.0
 11
-142.5
 21
688.80638899999985
 31
0.0
  0
LINE
  5
B3
  8
SIZE
  6
CONTINUOUS
 62
    30
 10
142.5
 20
214.53132999999991
 30
0.0
 11
142.5
 21
688.80638899999985
 31
0.0
  0
LINE
  5
B4
  8
SIZE
  6
CONTINUOUS
 62
    30
 10
-130.49999999999989
 20
668.80638899999985
 30
0.0
 11
130.49999999999989
 21
668.80638899999985
 31
0.0
  0
CIRCLE
  5
B5
  8
SIZE
  6
CONTINUOUS
 62
    30
 10
-142.5
 20
668.80638899999985
 30
0.0
 40
6.0
  0
LINE
  5
B6
  8
SIZE
  6
CONTINUOUS
 62
    30
 10
-142.5
 20
668.80638899999985
 30
0.0
 11
-130.49999999999989
 21
668.80638899999985
 31
0.0
  0
CIRCLE
  5
B7
  8
SIZE
  6
CONTINUOUS
 62
    30
 10
142.5
 20
668.80638899999985
 30
0.0
 40
6.0
  0
LINE
  5
B8
  8
SIZE
  6
CONTINUOUS
 62
    30
 10
142.5
 20
668.80638899999985
 30
0.0
 11
130.49999999999989
 21
668.80638899999985
 31
0.0
  0
TEXT
  5
B9
  8
SIZE
  6
CONTINUOUS
 62
    30
 10
-73.931869857142814
 20
693.80638899999985
 30
0.0
 40
64.0
  1
285
 41
0.9
 72
     1
 11
0.1252730000000071
 21
693.80638899999985
 31
0.0
  0
POINT
  5
BA
  8
DEFPOINTS
  6
CONTINUOUS
 62
    30
 10
-142.5
 20
194.53133
 30
0.0
  0
POINT
  5
BB
  8
DEFPOINTS
  6
CONTINUOUS
 62
    30
 10
142.5
 20
194.53133
 30
0.0
  0
POINT
  5
BC
  8
DEFPOINTS
  6
CONTINUOUS
 62
    30
 10
142.5
 20
668.80638899999985
 30
0.0
  0
LINE
  5
BD
  8
BASIS
  6
DASHDOT
 62
     6
 10
-280.031114
 20
108.609632
 30
0.0
 11
279.031114
 21
108.609632
 31
0.0
  0
LINE
  5
BE
  8
NOTE
  6
CONTINUOUS
 62
     4
 39
50.0
 10
-142.5
 20
151.078487
 30
0.0
 11
-142.5
 21
196.494148
 31
0.0
  0
LINE
  5
BF
  8
NOTE
  6
CONTINUOUS
 62
     4
 39
50.0
 10
142.5
 20
151.078487
 30
0.0
 11
142.5
 21
196.494148
 31
0.0
  0
LINE
  5
C0
  8
SIZE
  6
CONTINUOUS
 62
    30
 10
127.12527300000001
 20
20.000024
 30
0.0
 11
127.12527300000001
 21
568.80638899999985
 31
0.0
  0
LINE
  5
C1
  8
SIZE
  6
CONTINUOUS
 62
    30
 10
-126.87472699999989
 20
20.0
 30
0.0
 11
-126.87472699999989
 21
568.80638899999985
 31
0.0
  0
LINE
  5
C2
  8
SIZE
  6
CONTINUOUS
 62
    30
 10
115.12527300000001
 20
548.80638899999985
 30
0.0
 11
-114.87472699999989
 21
548.80638899999985
 31
0.0
  0
CIRCLE
  5
C3
  8
SIZE
  6
CONTINUOUS
 62
    30
 10
127.12527300000001
 20
548.80638899999985
 30
0.0
 40
6.0
  0
LINE
  5
C4
  8
SIZE
  6
CONTINUOUS
 62
    30
 10
127.12527300000001
 20
548.80638899999985
 30
0.0
 11
115.12527300000001
 21
548.80638899999985
 31
0.0
  0
CIRCLE
  5
C5
  8
SIZE
  6
CONTINUOUS
 62
    30
 10
-126.87472699999989
 20
548.80638899999985
 30
0.0
 40
6.0
  0
LINE
  5
C6
  8
SIZE
  6
CONTINUOUS
 62
    30
 10
-126.87472699999989
 20
548.80638899999985
 30
0.0
 11
-114.87472699999989
 21
548.80638899999985
 31
0.0
  0
TEXT
  5
C7
  8
SIZE
  6
CONTINUOUS
 62
    30
 10
-111.7832984285714
 20
573.80638899999985
 30
0.0
 40
64.0
  1
üá254
 41
0.9
 72
     1
 11
0.1252730000000071
 21
573.80638899999985
 31
0.0
  0
POINT
  5
C8
  8
DEFPOINTS
  6
CONTINUOUS
 62
    30
 10
127.12527300000001
 20
0.000024
 30
0.0
  0
POINT
  5
C9
  8
DEFPOINTS
  6
CONTINUOUS
 62
    30
 10
-126.87472699999989
 20
0.0
 30
0.0
  0
POINT
  5
CA
  8
DEFPOINTS
  6
CONTINUOUS
 62
    30
 10
-126.87472699999989
 20
548.80638899999985
 30
0.0
  0
LINE
  5
CB
  8
SIZE
  6
CONTINUOUS
 62
    30
 10
184.0251639999999
 20
0.0
 30
0.0
 11
1150.896579
 21
0.0
 31
0.0
  0
LINE
  5
CC
  8
SIZE
  6
CONTINUOUS
 62
    30
 10
180.76561799999999
 20
170.011087
 30
0.0
 11
1150.896579
 21
170.011087
 31
0.0
  0
LINE
  5
CD
  8
SIZE
  6
CONTINUOUS
 62
    30
 10
1130.896579
 20
12.0
 30
0.0
 11
1130.896579
 21
158.011087
 31
0.0
  0
CIRCLE
  5
CE
  8
SIZE
  6
CONTINUOUS
 62
    30
 10
1130.896579
 20
0.0
 30
0.0
 40
6.0
  0
LINE
  5
CF
  8
SIZE
  6
CONTINUOUS
 62
    30
 10
1130.896579
 20
0.0
 30
0.0
 11
1130.896579
 21
12.0
 31
0.0
  0
CIRCLE
  5
D0
  8
SIZE
  6
CONTINUOUS
 62
    30
 10
1130.896579
 20
170.011087
 30
0.0
 40
6.0
  0
LINE
  5
D1
  8
SIZE
  6
CONTINUOUS
 62
    30
 10
1130.896579
 20
170.011087
 30
0.0
 11
1130.896579
 21
158.011087
 31
0.0
  0
TEXT
  5
D2
  8
SIZE
  6
CONTINUOUS
 62
    30
 10
1105.896579
 20
16.43411442857143
 30
0.0
 40
64.0
  1
170
 50
90.0
 41
0.9
 72
     1
 11
1105.896579
 21
85.005543000000003
 31
0.0
  0
POINT
  5
D3
  8
DEFPOINTS
  6
CONTINUOUS
 62
    30
 10
164.0251639999999
 20
0.0
 30
0.0
  0
POINT
  5
D4
  8
DEFPOINTS
  6
CONTINUOUS
 62
    30
 10
160.76561799999999
 20
170.011087
 30
0.0
  0
POINT
  5
D5
  8
DEFPOINTS
  6
CONTINUOUS
 62
    30
 10
1130.896579
 20
170.011087
 30
0.0
  0
LINE
  5
D6
  8
OUTLINE
  6
CONTINUOUS
 62
     3
 10
0.0
 20
-20.019680999999999
 30
0.0
 11
-118.11611600000001
 21
-20.019680999999999
 31
0.0
  0
LINE
  5
D7
  8
OUTLINE
  6
CONTINUOUS
 62
     3
 10
-121.532652
 20
165.16236599999999
 30
0.0
 11
-101.990886
 21
165.16236599999999
 31
0.0
  0
LINE
  5
D8
  8
OUTLINE
  6
CONTINUOUS
 62
     3
 10
22.521648999999989
 20
200.19682499999999
 30
0.0
 11
-13.01279199999999
 21
200.19682499999999
 31
0.0
  0
LINE
  5
D9
  8
OUTLINE
  6
CONTINUOUS
 62
     3
 10
-124.034729
 20
162.70358400000001
 30
0.0
 11
-126.87472699999989
 21
0.0
 31
0.0
  0
ARC
  5
DA
  8
OUTLINE
  6
CONTINUOUS
 62
     3
 10
-119.617593
 20
80.078722999999982
 30
0.0
 40
100.098404
 50
245.15197900000001
 51
270.0
  0
LINE
  5
DB
  8
OUTLINE
  6
CONTINUOUS
 62
     3
 10
-164.161382
 20
0.0
 30
0.0
 11
-126.87472699999989
 21
0.0
 31
0.0
  0
LINE
  5
DC
  8
OUTLINE
  6
CONTINUOUS
 62
     3
 10
-165.16236599999999
 20
-1.0009840000000001
 30
0.0
 11
-165.16236599999999
 21
-5.3032190000000003
 31
0.0
  0
ARC
  5
DD
  8
OUTLINE
  6
CONTINUOUS
 62
     3
 10
-159.15646199999989
 20
-5.3032190000000003
 30
0.0
 40
6.0059040000000001
 50
180.0
 51
245.15197900000001
  0
ARC
  5
DE
  8
OUTLINE
  6
CONTINUOUS
 62
     3
 10
-164.161382
 20
-1.0009840000000001
 30
0.0
 40
1.0009840000000001
 50
90.0
 51
180.0
  0
LINE
  5
DF
  8
OUTLINE
  6
CONTINUOUS
 62
     3
 10
-118.11611600000001
 20
-19.018696999999989
 30
0.0
 11
-118.11611600000001
 21
-20.019680999999999
 31
0.0
  0
LINE
  5
E0
  8
OUTLINE
  6
CONTINUOUS
 62
     3
 10
-119.617593
 20
-19.018696999999989
 30
0.0
 11
-119.617593
 21
-20.019680999999999
 31
0.0
  0
LINE
  5
E1
  8
OUTLINE
  6
CONTINUOUS
 62
     3
 10
-119.617593
 20
-19.018696999999989
 30
0.0
 11
-118.11611600000001
 21
-19.018696999999989
 31
0.0
  0
ARC
  5
E2
  8
OUTLINE
  6
CONTINUOUS
 62
     3
 10
-121.532652
 20
162.65990600000001
 30
0.0
 40
2.5024600000000001
 50
90.0
 51
179.0
  0
LINE
  5
E3
  8
OUTLINE
  6
CONTINUOUS
 62
     3
 10
-91.242244999999997
 20
170.1672859999999
 30
0.0
 11
-54.052646000000003
 21
170.1672859999999
 31
0.0
  0
LINE
  5
E4
  8
OUTLINE
  6
CONTINUOUS
 62
     3
 10
-101.25208499999999
 20
166.1284039999999
 30
0.0
 11
-91.242244999999997
 21
166.1284039999999
 31
0.0
  0
ARC
  5
E5
  8
OUTLINE
  6
CONTINUOUS
 62
     3
 10
-102.2530689999999
 20
166.1284039999999
 30
0.0
 40
1.0009840000000001
 50
270.0
 51
0.0
  0
LINE
  5
E6
  8
OUTLINE
  6
CONTINUOUS
 62
     3
 10
-91.242244999999997
 20
166.1284039999999
 30
0.0
 11
-91.242244999999997
 21
170.1672859999999
 31
0.0
  0
LINE
  5
E7
  8
OUTLINE
  6
CONTINUOUS
 62
     3
 10
-48.54723400000001
 20
200.19682499999999
 30
0.0
 11
-13.01279199999999
 21
200.19682499999999
 31
0.0
  0
LINE
  5
E8
  8
OUTLINE
  6
CONTINUOUS
 62
     3
 10
-54.052646000000003
 20
194.69141300000001
 30
0.0
 11
-54.052646000000003
 21
170.1672859999999
 31
0.0
  0
ARC
  5
E9
  8
OUTLINE
  6
CONTINUOUS
 62
     3
 10
-48.54723400000001
 20
194.69141300000001
 30
0.0
 40
5.5054119999999989
 50
90.0
 51
180.0
  0
LINE
  5
EA
  8
OUTLINE
  6
CONTINUOUS
 62
     3
 10
124.049549
 20
176.20813100000001
 30
0.0
 11
126.2433059999999
 21
50.528007999999993
 31
0.0
  0
LINE
  5
EB
  8
OUTLINE
  6
CONTINUOUS
 62
     3
 10
0.0
 20
-20.019680999999999
 30
0.0
 11
118.11611600000001
 21
-20.019680999999999
 31
0.0
  0
LINE
  5
EC
  8
OUTLINE
  6
CONTINUOUS
 62
     3
 10
126.2433059999999
 20
50.528007999999993
 30
0.0
 11
127.12527300000001
 21
0.000024
 31
0.0
  0
ARC
  5
ED
  8
OUTLINE
  6
CONTINUOUS
 62
     3
 10
159.15646199999989
 20
-5.3032190000000003
 30
0.0
 40
6.0059040000000001
 50
294.8480209999999
 51
0.0
  0
ARC
  5
EE
  8
OUTLINE
  6
CONTINUOUS
 62
     3
 10
164.161382
 20
-1.0009840000000001
 30
0.0
 40
1.0009840000000001
 50
0.0
 51
90.0
  0
ARC
  5
EF
  8
OUTLINE
  6
CONTINUOUS
 62
     3
 10
119.617593
 20
80.078722999999982
 30
0.0
 40
100.098404
 50
270.0
 51
294.8480209999999
  0
LINE
  5
F0
  8
OUTLINE
  6
CONTINUOUS
 62
     3
 10
164.161382
 20
0.0
 30
0.0
 11
127.1367939999999
 21
0.0
 31
0.0
  0
LINE
  5
F1
  8
OUTLINE
  6
CONTINUOUS
 62
     3
 10
118.11611600000001
 20
-19.018696999999989
 30
0.0
 11
118.11611600000001
 21
-20.019680999999999
 31
0.0
  0
LINE
  5
F2
  8
OUTLINE
  6
CONTINUOUS
 62
     3
 10
119.617593
 20
-19.018696999999989
 30
0.0
 11
119.617593
 21
-20.019680999999999
 31
0.0
  0
LINE
  5
F3
  8
OUTLINE
  6
CONTINUOUS
 62
     3
 10
119.617593
 20
-19.018696999999989
 30
0.0
 11
118.11611600000001
 21
-19.018696999999989
 31
0.0
  0
LINE
  5
F4
  8
OUTLINE
  6
CONTINUOUS
 62
     3
 10
165.16236599999999
 20
-1.0009840000000001
 30
0.0
 11
165.16236599999999
 21
-5.3032190000000003
 31
0.0
  0
LINE
  5
F5
  8
OUTLINE
  6
CONTINUOUS
 62
     3
 10
104.55278300000001
 20
193.189919
 30
0.0
 11
111.5596709999999
 21
193.189919
 31
0.0
  0
LINE
  5
F6
  8
OUTLINE
  6
CONTINUOUS
 62
     3
 10
118.0620929999999
 20
182.17909499999999
 30
0.0
 11
115.9374219999999
 21
182.17909499999999
 31
0.0
  0
LINE
  5
F7
  8
OUTLINE
  6
CONTINUOUS
 62
     3
 10
89.033556000000004
 20
175.1722069999999
 30
0.0
 11
96.566802999999993
 21
175.1722069999999
 31
0.0
  0
LINE
  5
F8
  8
OUTLINE
  6
CONTINUOUS
 62
     3
 10
30.160523000000001
 20
170.1672859999999
 30
0.0
 11
84.154993000000005
 21
170.1672859999999
 31
0.0
  0
LINE
  5
F9
  8
OUTLINE
  6
CONTINUOUS
 62
     3
 10
28.027060999999989
 20
194.69141300000001
 30
0.0
 11
28.027060999999989
 21
175.69498499999989
 31
0.0
  0
ARC
  5
FA
  8
OUTLINE
  6
CONTINUOUS
 62
     3
 10
27.645904000000002
 20
171.54929799999999
 30
0.0
 40
2.5024600000000001
 50
0.5
 51
31.695329999999998
  0
LINE
  5
FB
  8
OUTLINE
  6
CONTINUOUS
 62
     3
 10
30.14827
 20
171.57113699999999
 30
0.0
 11
30.160547999999999
 21
170.16422900000001
 31
0.0
  0
ARC
  5
FC
  8
OUTLINE
  6
CONTINUOUS
 62
     3
 10
22.521648999999989
 20
194.69141300000001
 30
0.0
 40
5.5054119999999989
 50
0.0
 51
90.0
  0
ARC
  5
FD
  8
OUTLINE
  6
CONTINUOUS
 62
     3
 10
102.3557229999999
 20
183.91483700000001
 30
0.0
 40
5.0049200000000003
 50
135.0
 51
175.000935
  0
LINE
  5
FE
  8
OUTLINE
  6
CONTINUOUS
 62
     3
 10
95.172312000000005
 20
172.0
 30
0.0
 11
96.544910000000002
 21
174.92196100000001
 31
0.0
  0
LINE
  5
FF
  8
OUTLINE
  6
CONTINUOUS
 62
     3
 10
89.033556000000004
 20
175.1722069999999
 30
0.0
 11
89.033556000000004
 21
181.178111
 31
0.0
  0
ARC
  5
100
  8
OUTLINE
  6
CONTINUOUS
 62
     3
 10
90.034540000000007
 20
181.178111
 30
0.0
 40
1.0009840000000001
 50
90.0
 51
180.0
  0
LINE
  5
101
  8
OUTLINE
  6
CONTINUOUS
 62
     3
 10
96.653706000000014
 20
174.89538200000001
 30
0.0
 11
96.594658999999993
 21
174.910461
 31
0.0
  0
LINE
  5
102
  8
OUTLINE
  6
CONTINUOUS
 62
     3
 10
96.548214000000016
 20
174.92157800000001
 30
0.0
 11
96.544910000000002
 21
174.92196100000001
 31
0.0
  0
LINE
  5
103
  8
OUTLINE
  6
CONTINUOUS
 62
     3
 10
96.557682
 20
174.919499
 30
0.0
 11
96.548214000000016
 21
174.92157800000001
 31
0.0
  0
LINE
  5
104
  8
OUTLINE
  6
CONTINUOUS
 62
     3
 10
96.573244000000003
 20
174.9157899999999
 30
0.0
 11
96.557682
 21
174.919499
 31
0.0
  0
LINE
  5
105
  8
OUTLINE
  6
CONTINUOUS
 62
     3
 10
96.594658999999993
 20
174.910461
 30
0.0
 11
96.573244000000003
 21
174.9157899999999
 31
0.0
  0
LINE
  5
106
  8
OUTLINE
  6
CONTINUOUS
 62
     3
 10
96.544910000000002
 20
174.92196100000001
 30
0.0
 11
96.566802999999993
 21
175.1722069999999
 31
0.0
  0
LINE
  5
107
  8
OUTLINE
  6
CONTINUOUS
 62
     3
 10
97.179823000000013
 20
182.17909499999999
 30
0.0
 11
97.369839000000013
 21
184.35095899999999
 31
0.0
  0
LINE
  5
108
  8
OUTLINE
  6
CONTINUOUS
 62
     3
 10
98.816709000000003
 20
187.4538509999999
 30
0.0
 11
104.55278300000001
 21
193.189919
 31
0.0
  0
LINE
  5
109
  8
OUTLINE
  6
CONTINUOUS
 62
     3
 10
111.5596709999999
 20
193.189919
 30
0.0
 11
115.914134
 21
183.51333
 31
0.0
  0
LINE
  5
10A
  8
OUTLINE
  6
CONTINUOUS
 62
     3
 10
119.06307700000001
 20
178.17515900000001
 30
0.0
 11
122.0478879999999
 21
178.17515900000001
 31
0.0
  0
LINE
  5
10B
  8
OUTLINE
  6
CONTINUOUS
 62
     3
 10
115.9374219999999
 20
182.17909499999999
 30
0.0
 11
115.914134
 21
183.51333
 31
0.0
  0
LINE
  5
10C
  8
OUTLINE
  6
CONTINUOUS
 62
     3
 10
119.06307700000001
 20
178.17515900000001
 30
0.0
 11
119.06307700000001
 21
181.178111
 31
0.0
  0
ARC
  5
10D
  8
OUTLINE
  6
CONTINUOUS
 62
     3
 10
118.0620929999999
 20
181.178111
 30
0.0
 40
1.0009840000000001
 50
0.0
 51
90.0
  0
ARC
  5
10E
  8
OUTLINE
  6
CONTINUOUS
 62
     3
 10
122.0478879999999
 20
176.17319099999989
 30
0.0
 40
2.0019680000000002
 50
1.0
 51
90.0
  0
LINE
  5
10F
  8
SIZE
  6
CONTINUOUS
 62
    30
 10
180.227845
 20
0.0
 30
0.0
 11
638.08568600000001
 21
0.0
 31
0.0
  0
LINE
  5
110
  8
SIZE
  6
CONTINUOUS
 62
    30
 10
146.217612
 20
52.0
 30
0.0
 11
638.08568600000001
 21
52.0
 31
0.0
  0
LINE
  5
111
  8
SIZE
  6
CONTINUOUS
 62
    30
 10
618.08568600000001
 20
64.0
 30
0.0
 11
618.08568600000001
 21
76.0
 31
0.0
  0
LINE
  5
112
  8
SIZE
  6
CONTINUOUS
 62
    30
 10
618.08568600000001
 20
-12.0
 30
0.0
 11
618.08568600000001
 21
-167.25714300000001
 31
0.0
  0
LINE
  5
113
  8
SIZE
  6
CONTINUOUS
 62
    30
 10
618.08568600000001
 20
52.0
 30
0.0
 11
618.08568600000001
 21
0.0
 31
0.0
  0
CIRCLE
  5
114
  8
SIZE
  6
CONTINUOUS
 62
    30
 10
618.08568600000001
 20
52.0
 30
0.0
 40
6.0
  0
LINE
  5
115
  8
SIZE
  6
CONTINUOUS
 62
    30
 10
618.08568600000001
 20
52.0
 30
0.0
 11
618.08568600000001
 21
64.0
 31
0.0
  0
CIRCLE
  5
116
  8
SIZE
  6
CONTINUOUS
 62
    30
 10
618.08568600000001
 20
0.0
 30
0.0
 40
6.0
  0
LINE
  5
117
  8
SIZE
  6
CONTINUOUS
 62
    30
 10
618.08568600000001
 20
0.0
 30
0.0
 11
618.08568600000001
 21
-12.0
 31
0.0
  0
TEXT
  5
118
  8
SIZE
  6
CONTINUOUS
 62
    30
 10
593.08568600000001
 20
-142.25714242857131
 30
0.0
 40
64.0
  1
52
 50
90.0
 41
0.9
 72
     1
 11
593.08568600000001
 21
-95.628570999999994
 31
0.0
  0
POINT
  5
119
  8
DEFPOINTS
  6
CONTINUOUS
 62
    30
 10
160.227845
 20
0.0
 30
0.0
  0
POINT
  5
11A
  8
DEFPOINTS
  6
CONTINUOUS
 62
    30
 10
126.217612
 20
52.0
 30
0.0
  0
POINT
  5
11B
  8
DEFPOINTS
  6
CONTINUOUS
 62
    30
 10
618.08568600000001
 20
52.0
 30
0.0
  0
LINE
  5
11C
  8
SIZE
  6
CONTINUOUS
 62
    30
 10
282.80397799999992
 20
157.65498600000001
 30
0.0
 11
887.136077
 21
157.65498600000001
 31
0.0
  0
LINE
  5
11D
  8
SIZE
  6
CONTINUOUS
 62
    30
 10
282.80397799999992
 20
59.55854999999999
 30
0.0
 11
887.136077
 21
59.55854999999999
 31
0.0
  0
LINE
  5
11E
  8
SIZE
  6
CONTINUOUS
 62
    30
 10
867.13607699999989
 20
145.65498600000001
 30
0.0
 11
867.13607699999989
 21
71.558549999999997
 31
0.0
  0
LINE
  5
11F
  8
SIZE
  6
CONTINUOUS
 62
    30
 10
867.13607699999989
 20
59.55854999999999
 30
0.0
 11
867.13607699999989
 21
-224.829274
 31
0.0
  0
CIRCLE
  5
120
  8
SIZE
  6
CONTINUOUS
 62
    30
 10
867.13607699999989
 20
157.65498600000001
 30
0.0
 40
6.0
  0
LINE
  5
121
  8
SIZE
  6
CONTINUOUS
 62
    30
 10
867.13607699999989
 20
157.65498600000001
 30
0.0
 11
867.13607699999989
 21
145.65498600000001
 31
0.0
  0
CIRCLE
  5
122
  8
SIZE
  6
CONTINUOUS
 62
    30
 10
867.13607699999989
 20
59.55854999999999
 30
0.0
 40
6.0
  0
LINE
  5
123
  8
SIZE
  6
CONTINUOUS
 62
    30
 10
867.13607699999989
 20
59.55854999999999
 30
0.0
 11
867.13607699999989
 21
71.558549999999997
 31
0.0
  0
TEXT
  5
124
  8
SIZE
  6
CONTINUOUS
 62
    30
 10
842.13607699999989
 20
-211.34927342857139
 30
0.0
 40
64.0
  1
âË98
 50
90.0
 41
0.9
 72
     1
 11
842.13607699999989
 21
-124.4007019999999
 31
0.0
  0
POINT
  5
125
  8
DEFPOINTS
  6
CONTINUOUS
 62
    30
 10
262.80397799999992
 20
157.65498600000001
 30
0.0
  0
POINT
  5
126
  8
DEFPOINTS
  6
CONTINUOUS
 62
    30
 10
262.80397799999992
 20
59.55854999999999
 30
0.0
  0
POINT
  5
127
  8
DEFPOINTS
  6
CONTINUOUS
 62
    30
 10
867.13607699999989
 20
59.55854999999999
 30
0.0
  0
LINE
  5
128
  8
SIZE
  6
CONTINUOUS
 62
    30
 10
250.936645
 20
161.1582359999999
 30
0.0
 11
1017.36374
 21
161.1582359999999
 31
0.0
  0
LINE
  5
129
  8
SIZE
  6
CONTINUOUS
 62
    30
 10
247.76541700000001
 20
56.010855999999997
 30
0.0
 11
1017.36374
 21
56.010855999999997
 31
0.0
  0
LINE
  5
12A
  8
SIZE
  6
CONTINUOUS
 62
    30
 10
997.36373999999989
 20
149.1582359999999
 30
0.0
 11
997.36373999999989
 21
68.010856000000004
 31
0.0
  0
LINE
  5
12B
  8
SIZE
  6
CONTINUOUS
 62
    30
 10
997.36373999999989
 20
56.010855999999997
 30
0.0
 11
997.36373999999989
 21
-261.22364099999987
 31
0.0
  0
CIRCLE
  5
12C
  8
SIZE
  6
CONTINUOUS
 62
    30
 10
997.36373999999989
 20
161.1582359999999
 30
0.0
 40
6.0
  0
LINE
  5
12D
  8
SIZE
  6
CONTINUOUS
 62
    30
 10
997.36373999999989
 20
161.1582359999999
 30
0.0
 11
997.36373999999989
 21
149.1582359999999
 31
0.0
  0
CIRCLE
  5
12E
  8
SIZE
  6
CONTINUOUS
 62
    30
 10
997.36373999999989
 20
56.010855999999997
 30
0.0
 40
6.0
  0
LINE
  5
12F
  8
SIZE
  6
CONTINUOUS
 62
    30
 10
997.36373999999989
 20
56.010855999999997
 30
0.0
 11
997.36373999999989
 21
68.01085599999999
 31
0.0
  0
TEXT
  5
130
  8
SIZE
  6
CONTINUOUS
 62
    30
 10
972.36373999999989
 20
-247.74364157142861
 30
0.0
 40
64.0
  1
âË105
 50
90.0
 41
0.9
 72
     1
 11
972.36373999999989
 21
-138.85221300000001
 31
0.0
  0
POINT
  5
131
  8
DEFPOINTS
  6
CONTINUOUS
 62
    30
 10
230.936645
 20
161.1582359999999
 30
0.0
  0
POINT
  5
132
  8
DEFPOINTS
  6
CONTINUOUS
 62
    30
 10
227.76541700000001
 20
56.010855999999997
 30
0.0
  0
POINT
  5
133
  8
DEFPOINTS
  6
CONTINUOUS
 62
    30
 10
997.36373999999989
 20
56.010855999999997
 30
0.0
  0
LINE
  5
134
  8
SIZE
  6
CONTINUOUS
 62
    30
 10
237.00032999999999
 20
174.90867800000001
 30
0.0
 11
237.00032999999999
 21
342.820626
 31
0.0
  0
LINE
  5
135
  8
SIZE
  6
CONTINUOUS
 62
    30
 10
207.00032999999991
 20
175.54398399999999
 30
0.0
 11
207.00032999999991
 21
342.820626
 31
0.0
  0
LINE
  5
136
  8
SIZE
  6
CONTINUOUS
 62
    30
 10
195.00032999999991
 20
322.820626
 30
0.0
 11
183.00032999999991
 21
322.820626
 31
0.0
  0
LINE
  5
137
  8
SIZE
  6
CONTINUOUS
 62
    30
 10
249.00032999999999
 20
322.820626
 30
0.0
 11
433.52793500000001
 21
322.820626
 31
0.0
  0
LINE
  5
138
  8
SIZE
  6
CONTINUOUS
 62
    30
 10
207.00032999999991
 20
322.820626
 30
0.0
 11
237.00032999999999
 21
322.820626
 31
0.0
  0
CIRCLE
  5
139
  8
SIZE
  6
CONTINUOUS
 62
    30
 10
207.00032999999991
 20
322.820626
 30
0.0
 40
6.0
  0
LINE
  5
13A
  8
SIZE
  6
CONTINUOUS
 62
    30
 10
207.00032999999991
 20
322.820626
 30
0.0
 11
195.00032999999991
 21
322.820626
 31
0.0
  0
CIRCLE
  5
13B
  8
SIZE
  6
CONTINUOUS
 62
    30
 10
237.00032999999999
 20
322.820626
 30
0.0
 40
6.0
  0
LINE
  5
13C
  8
SIZE
  6
CONTINUOUS
 62
    30
 10
237.00032999999999
 20
322.820626
 30
0.0
 11
249.00032999999999
 21
322.820626
 31
0.0
  0
TEXT
  5
13D
  8
SIZE
  6
CONTINUOUS
 62
    30
 10
315.2707925714285
 20
347.820626
 30
0.0
 40
64.0
  1
30
 41
0.9
 72
     1
 11
361.89936399999988
 21
347.820626
 31
0.0
  0
POINT
  5
13E
  8
DEFPOINTS
  6
CONTINUOUS
 62
    30
 10
237.00032999999999
 20
154.90867800000001
 30
0.0
  0
POINT
  5
13F
  8
DEFPOINTS
  6
CONTINUOUS
 62
    30
 10
207.00032999999991
 20
155.54398399999999
 30
0.0
  0
POINT
  5
140
  8
DEFPOINTS
  6
CONTINUOUS
 62
    30
 10
207.00032999999991
 20
322.820626
 30
0.0
  0
LINE
  5
141
  8
SIZE
  6
CONTINUOUS
 62
    30
 10
237.00032999999999
 20
174.90867800000001
 30
0.0
 11
237.00032999999999
 21
454.07819999999998
 31
0.0
  0
LINE
  5
142
  8
SIZE
  6
CONTINUOUS
 62
    30
 10
167.00032999999991
 20
179.49999999999989
 30
0.0
 11
167.00032999999991
 21
454.07819999999998
 31
0.0
  0
LINE
  5
143
  8
SIZE
  6
CONTINUOUS
 62
    30
 10
155.00032999999999
 20
434.07819999999992
 30
0.0
 11
143.00032999999991
 21
434.07819999999992
 31
0.0
  0
LINE
  5
144
  8
SIZE
  6
CONTINUOUS
 62
    30
 10
249.00032999999999
 20
434.07819999999992
 30
0.0
 11
433.52793500000001
 21
434.07819999999992
 31
0.0
  0
LINE
  5
145
  8
SIZE
  6
CONTINUOUS
 62
    30
 10
167.00032999999991
 20
434.07819999999992
 30
0.0
 11
237.00032999999999
 21
434.07819999999992
 31
0.0
  0
CIRCLE
  5
146
  8
SIZE
  6
CONTINUOUS
 62
    30
 10
167.00032999999991
 20
434.07819999999992
 30
0.0
 40
6.0
  0
LINE
  5
147
  8
SIZE
  6
CONTINUOUS
 62
    30
 10
167.00032999999991
 20
434.07819999999992
 30
0.0
 11
155.00032999999999
 21
434.07819999999992
 31
0.0
  0
CIRCLE
  5
148
  8
SIZE
  6
CONTINUOUS
 62
    30
 10
237.00032999999999
 20
434.07819999999992
 30
0.0
 40
6.0
  0
LINE
  5
149
  8
SIZE
  6
CONTINUOUS
 62
    30
 10
237.00032999999999
 20
434.07819999999992
 30
0.0
 11
249.00032999999999
 21
434.07819999999992
 31
0.0
  0
TEXT
  5
14A
  8
SIZE
  6
CONTINUOUS
 62
    30
 10
315.2707925714285
 20
459.07819999999992
 30
0.0
 40
64.0
  1
70
 41
0.9
 72
     1
 11
361.89936399999988
 21
459.07819999999992
 31
0.0
  0
POINT
  5
14B
  8
DEFPOINTS
  6
CONTINUOUS
 62
    30
 10
237.00032999999999
 20
154.90867800000001
 30
0.0
  0
POINT
  5
14C
  8
DEFPOINTS
  6
CONTINUOUS
 62
    30
 10
167.00032999999991
 20
159.49999999999989
 30
0.0
  0
POINT
  5
14D
  8
DEFPOINTS
  6
CONTINUOUS
 62
    30
 10
167.00032999999991
 20
434.07819999999992
 30
0.0
  0
LINE
  5
14E
  8
SIZE
  6
CONTINUOUS
 62
    30
 10
237.00032999999999
 20
174.90867800000001
 30
0.0
 11
237.00032999999999
 21
568.80638899999985
 31
0.0
  0
LINE
  5
14F
  8
SIZE
  6
CONTINUOUS
 62
    30
 10
127.12527300000001
 20
207.61856999999989
 30
0.0
 11
127.12527300000001
 21
568.80638899999985
 31
0.0
  0
LINE
  5
150
  8
SIZE
  6
CONTINUOUS
 62
    30
 10
139.12527299999991
 20
548.80638899999985
 30
0.0
 11
225.00032999999991
 21
548.80638899999985
 31
0.0
  0
LINE
  5
151
  8
SIZE
  6
CONTINUOUS
 62
    30
 10
237.00032999999999
 20
548.80638899999985
 30
0.0
 11
458.55650700000001
 21
548.80638899999985
 31
0.0
  0
CIRCLE
  5
152
  8
SIZE
  6
CONTINUOUS
 62
    30
 10
127.12527300000001
 20
548.80638899999985
 30
0.0
 40
6.0
  0
LINE
  5
153
  8
SIZE
  6
CONTINUOUS
 62
    30
 10
127.12527300000001
 20
548.80638899999985
 30
0.0
 11
139.12527299999991
 21
548.80638899999985
 31
0.0
  0
CIRCLE
  5
154
  8
SIZE
  6
CONTINUOUS
 62
    30
 10
237.00032999999999
 20
548.80638899999985
 30
0.0
 40
6.0
  0
LINE
  5
155
  8
SIZE
  6
CONTINUOUS
 62
    30
 10
237.00032999999999
 20
548.80638899999985
 30
0.0
 11
225.00032999999991
 21
548.80638899999985
 31
0.0
  0
TEXT
  5
156
  8
SIZE
  6
CONTINUOUS
 62
    30
 10
307.38507771428573
 20
573.80638899999985
 30
0.0
 40
64.0
  1
110
 41
0.9
 72
     1
 11
370.47079200000002
 21
573.80638899999985
 31
0.0
  0
POINT
  5
157
  8
DEFPOINTS
  6
CONTINUOUS
 62
    30
 10
237.00032999999999
 20
154.90867800000001
 30
0.0
  0
POINT
  5
158
  8
DEFPOINTS
  6
CONTINUOUS
 62
    30
 10
127.12527300000001
 20
187.61857000000001
 30
0.0
  0
POINT
  5
159
  8
DEFPOINTS
  6
CONTINUOUS
 62
    30
 10
127.12527300000001
 20
548.80638899999985
 30
0.0
  0
LINE
  5
15A
  8
SIZE
  6
CONTINUOUS
 62
    30
 10
-207.00062299999991
 20
174.88124500000001
 30
0.0
 11
-207.00062299999991
 21
342.820626
 31
0.0
  0
LINE
  5
15B
  8
SIZE
  6
CONTINUOUS
 62
    30
 10
-182.00062299999991
 20
176.6480249999999
 30
0.0
 11
-182.00062299999991
 21
342.820626
 31
0.0
  0
LINE
  5
15C
  8
SIZE
  6
CONTINUOUS
 62
    30
 10
-170.00062299999991
 20
322.820626
 30
0.0
 11
-158.00062299999991
 21
322.820626
 31
0.0
  0
LINE
  5
15D
  8
SIZE
  6
CONTINUOUS
 62
    30
 10
-219.00062299999991
 20
322.820626
 30
0.0
 11
-438.60188799999992
 21
322.820626
 31
0.0
  0
LINE
  5
15E
  8
SIZE
  6
CONTINUOUS
 62
    30
 10
-182.00062299999991
 20
322.820626
 30
0.0
 11
-207.00062299999991
 21
322.820626
 31
0.0
  0
CIRCLE
  5
15F
  8
SIZE
  6
CONTINUOUS
 62
    30
 10
-182.00062299999991
 20
322.820626
 30
0.0
 40
6.0
  0
LINE
  5
160
  8
SIZE
  6
CONTINUOUS
 62
    30
 10
-182.00062299999991
 20
322.820626
 30
0.0
 11
-170.00062299999991
 21
322.820626
 31
0.0
  0
CIRCLE
  5
161
  8
SIZE
  6
CONTINUOUS
 62
    30
 10
-207.00062299999991
 20
322.820626
 30
0.0
 40
6.0
  0
LINE
  5
162
  8
SIZE
  6
CONTINUOUS
 62
    30
 10
-207.00062299999991
 20
322.820626
 30
0.0
 11
-219.00062299999991
 21
322.820626
 31
0.0
  0
TEXT
  5
163
  8
SIZE
  6
CONTINUOUS
 62
    30
 10
-413.60188842857139
 20
347.820626
 30
0.0
 40
64.0
  1
25
 41
0.9
 72
     1
 11
-366.97331700000001
 21
347.820626
 31
0.0
  0
POINT
  5
164
  8
DEFPOINTS
  6
CONTINUOUS
 62
    30
 10
-207.00062299999991
 20
154.88124499999989
 30
0.0
  0
POINT
  5
165
  8
DEFPOINTS
  6
CONTINUOUS
 62
    30
 10
-182.00062299999991
 20
156.6480249999999
 30
0.0
  0
POINT
  5
166
  8
DEFPOINTS
  6
CONTINUOUS
 62
    30
 10
-182.00062299999991
 20
322.820626
 30
0.0
  0
LINE
  5
167
  8
SIZE
  6
CONTINUOUS
 62
    30
 10
-207.00062299999991
 20
174.88124500000001
 30
0.0
 11
-207.00062299999991
 21
568.80638899999985
 31
0.0
  0
LINE
  5
168
  8
SIZE
  6
CONTINUOUS
 62
    30
 10
-126.87472699999989
 20
230.17601099999999
 30
0.0
 11
-126.87472699999989
 21
568.80638899999985
 31
0.0
  0
LINE
  5
169
  8
SIZE
  6
CONTINUOUS
 62
    30
 10
-138.87472700000001
 20
548.80638899999985
 30
0.0
 11
-195.00062299999991
 21
548.80638899999985
 31
0.0
  0
LINE
  5
16A
  8
SIZE
  6
CONTINUOUS
 62
    30
 10
-207.00062299999991
 20
548.80638899999985
 30
0.0
 11
-448.91617400000001
 21
548.80638899999985
 31
0.0
  0
CIRCLE
  5
16B
  8
SIZE
  6
CONTINUOUS
 62
    30
 10
-126.87472699999989
 20
548.80638899999985
 30
0.0
 40
6.0
  0
LINE
  5
16C
  8
SIZE
  6
CONTINUOUS
 62
    30
 10
-126.87472699999989
 20
548.80638899999985
 30
0.0
 11
-138.87472700000001
 21
548.80638899999985
 31
0.0
  0
CIRCLE
  5
16D
  8
SIZE
  6
CONTINUOUS
 62
    30
 10
-207.00062299999991
 20
548.80638899999985
 30
0.0
 40
6.0
  0
LINE
  5
16E
  8
SIZE
  6
CONTINUOUS
 62
    30
 10
-207.00062299999991
 20
548.80638899999985
 30
0.0
 11
-195.00062299999991
 21
548.80638899999985
 31
0.0
  0
TEXT
  5
16F
  8
SIZE
  6
CONTINUOUS
 62
    30
 10
-423.91617342857143
 20
573.80638899999985
 30
0.0
 40
64.0
  1
80
 41
0.9
 72
     1
 11
-377.28760199999988
 21
573.80638899999985
 31
0.0
  0
POINT
  5
170
  8
DEFPOINTS
  6
CONTINUOUS
 62
    30
 10
-207.00062299999991
 20
154.88124499999989
 30
0.0
  0
POINT
  5
171
  8
DEFPOINTS
  6
CONTINUOUS
 62
    30
 10
-126.87472699999989
 20
210.1760109999999
 30
0.0
  0
POINT
  5
172
  8
DEFPOINTS
  6
CONTINUOUS
 62
    30
 10
-126.87472699999989
 20
548.80638899999985
 30
0.0
  0
LINE
  5
173
  8
SIZE
  6
CONTINUOUS
 62
    30
 10
-232.609825
 20
158.120532
 30
0.0
 11
-505.60385100000002
 21
158.120532
 31
0.0
  0
LINE
  5
174
  8
SIZE
  6
CONTINUOUS
 62
    30
 10
-230.9723899999999
 20
60.024096
 30
0.0
 11
-505.60385100000002
 21
60.024096
 31
0.0
  0
LINE
  5
175
  8
SIZE
  6
CONTINUOUS
 62
    30
 10
-485.60385100000002
 20
146.12053199999991
 30
0.0
 11
-485.60385100000002
 21
72.024096
 31
0.0
  0
LINE
  5
176
  8
SIZE
  6
CONTINUOUS
 62
    30
 10
-485.60385100000002
 20
60.024096
 30
0.0
 11
-485.60385100000002
 21
-152.83304699999999
 31
0.0
  0
CIRCLE
  5
177
  8
SIZE
  6
CONTINUOUS
 62
    30
 10
-485.60385100000002
 20
158.120532
 30
0.0
 40
6.0
  0
LINE
  5
178
  8
SIZE
  6
CONTINUOUS
 62
    30
 10
-485.60385100000002
 20
158.120532
 30
0.0
 11
-485.60385100000002
 21
146.12053199999991
 31
0.0
  0
CIRCLE
  5
179
  8
SIZE
  6
CONTINUOUS
 62
    30
 10
-485.60385100000002
 20
60.024096
 30
0.0
 40
6.0
  0
LINE
  5
17A
  8
SIZE
  6
CONTINUOUS
 62
    30
 10
-485.60385100000002
 20
60.024096
 30
0.0
 11
-485.60385100000002
 21
72.024096
 31
0.0
  0
TEXT
  5
17B
  8
SIZE
  6
CONTINUOUS
 62
    30
 10
-510.60385100000002
 20
-139.35304642857139
 30
0.0
 40
64.0
  1
âË98
 50
90.0
 41
0.9
 72
     1
 11
-510.60385100000002
 21
-52.404474999999998
 31
0.0
  0
POINT
  5
17C
  8
DEFPOINTS
  6
CONTINUOUS
 62
    30
 10
-212.609825
 20
158.120532
 30
0.0
  0
POINT
  5
17D
  8
DEFPOINTS
  6
CONTINUOUS
 62
    30
 10
-210.97238999999999
 20
60.024096
 30
0.0
  0
POINT
  5
17E
  8
DEFPOINTS
  6
CONTINUOUS
 62
    30
 10
-485.60385100000002
 20
60.024096
 30
0.0
  0
LINE
  5
17F
  8
SIZE
  6
CONTINUOUS
 62
    30
 10
-200.78193799999991
 20
161.6559
 30
0.0
 11
-630.00283699999989
 21
161.6559
 31
0.0
  0
LINE
  5
180
  8
SIZE
  6
CONTINUOUS
 62
    30
 10
-199.378533
 20
56.478597999999991
 30
0.0
 11
-630.00283699999989
 21
56.478597999999991
 31
0.0
  0
LINE
  5
181
  8
SIZE
  6
CONTINUOUS
 62
    30
 10
-610.002837
 20
149.65589999999989
 30
0.0
 11
-610.002837
 21
68.478598000000005
 31
0.0
  0
LINE
  5
182
  8
SIZE
  6
CONTINUOUS
 62
    30
 10
-610.002837
 20
56.478597999999991
 30
0.0
 11
-610.002837
 21
-200.26425900000001
 31
0.0
  0
CIRCLE
  5
183
  8
SIZE
  6
CONTINUOUS
 62
    30
 10
-610.002837
 20
161.6559
 30
0.0
 40
6.0
  0
LINE
  5
184
  8
SIZE
  6
CONTINUOUS
 62
    30
 10
-610.002837
 20
161.6559
 30
0.0
 11
-610.002837
 21
149.65589999999989
 31
0.0
  0
CIRCLE
  5
185
  8
SIZE
  6
CONTINUOUS
 62
    30
 10
-610.002837
 20
56.478597999999991
 30
0.0
 40
6.0
  0
LINE
  5
186
  8
SIZE
  6
CONTINUOUS
 62
    30
 10
-610.002837
 20
56.478597999999991
 30
0.0
 11
-610.002837
 21
68.478598000000005
 31
0.0
  0
TEXT
  5
187
  8
SIZE
  6
CONTINUOUS
 62
    30
 10
-635.002837
 20
-186.7842585714285
 30
0.0
 40
64.0
  1
âË105
 50
90.0
 41
0.9
 72
     1
 11
-635.002837
 21
-77.892830000000004
 31
0.0
  0
POINT
  5
188
  8
DEFPOINTS
  6
CONTINUOUS
 62
    30
 10
-180.78193799999991
 20
161.6559
 30
0.0
  0
POINT
  5
189
  8
DEFPOINTS
  6
CONTINUOUS
 62
    30
 10
-179.378533
 20
56.478597999999991
 30
0.0
  0
POINT
  5
18A
  8
DEFPOINTS
  6
CONTINUOUS
 62
    30
 10
-610.002837
 20
56.478597999999991
 30
0.0
  0
LINE
  5
18B
  8
SIZE
  6
CONTINUOUS
 62
    30
 10
-182.24055000000001
 20
0.0
 30
0.0
 11
-384.47533900000002
 21
0.0
 31
0.0
  0
LINE
  5
18C
  8
SIZE
  6
CONTINUOUS
 62
    30
 10
-146.176525
 20
40.0
 30
0.0
 11
-384.47533900000002
 21
40.0
 31
0.0
  0
LINE
  5
18D
  8
SIZE
  6
CONTINUOUS
 62
    30
 10
-364.47533900000002
 20
52.0
 30
0.0
 11
-364.47533900000002
 21
64.0
 31
0.0
  0
LINE
  5
18E
  8
SIZE
  6
CONTINUOUS
 62
    30
 10
-364.47533900000002
 20
-12.0
 30
0.0
 11
-364.47533900000002
 21
-167.25714300000001
 31
0.0
  0
LINE
  5
18F
  8
SIZE
  6
CONTINUOUS
 62
    30
 10
-364.47533900000002
 20
40.0
 30
0.0
 11
-364.47533900000002
 21
0.0
 31
0.0
  0
CIRCLE
  5
190
  8
SIZE
  6
CONTINUOUS
 62
    30
 10
-364.47533900000002
 20
40.0
 30
0.0
 40
6.0
  0
LINE
  5
191
  8
SIZE
  6
CONTINUOUS
 62
    30
 10
-364.47533900000002
 20
40.0
 30
0.0
 11
-364.47533900000002
 21
52.0
 31
0.0
  0
CIRCLE
  5
192
  8
SIZE
  6
CONTINUOUS
 62
    30
 10
-364.47533900000002
 20
0.0
 30
0.0
 40
6.0
  0
LINE
  5
193
  8
SIZE
  6
CONTINUOUS
 62
    30
 10
-364.47533900000002
 20
0.0
 30
0.0
 11
-364.47533900000002
 21
-12.0
 31
0.0
  0
TEXT
  5
194
  8
SIZE
  6
CONTINUOUS
 62
    30
 10
-389.47533900000002
 20
-142.25714242857131
 30
0.0
 40
64.0
  1
40
 50
90.0
 41
0.9
 72
     1
 11
-389.47533900000002
 21
-95.628570999999937
 31
0.0
  0
POINT
  5
195
  8
DEFPOINTS
  6
CONTINUOUS
 62
    30
 10
-162.24055000000001
 20
0.0
 30
0.0
  0
POINT
  5
196
  8
DEFPOINTS
  6
CONTINUOUS
 62
    30
 10
-126.176525
 20
40.0
 30
0.0
  0
POINT
  5
197
  8
DEFPOINTS
  6
CONTINUOUS
 62
    30
 10
-364.47533900000002
 20
40.0
 30
0.0
  0
LINE
  5
198
  8
OUTLINE
  6
CONTINUOUS
 62
     3
 10
84.123002999999983
 20
172.0
 30
0.0
 11
84.154993000000005
 21
170.1672859999999
 31
0.0
  0
LINE
  5
199
  8
OUTLINE
  6
CONTINUOUS
 62
     3
 10
95.172312000000005
 20
172.0
 30
0.0
 11
84.123002999999983
 21
172.0
 31
0.0
  0
LINE
  5
19A
  8
DETAIL
  6
CONTINUOUS
 62
     5
 10
21.82238499999999
 20
179.176143
 30
0.0
 11
-21.322391
 21
179.176143
 31
0.0
  0
LINE
  5
19B
  8
DETAIL
  6
CONTINUOUS
 62
     5
 10
22.955881999999999
 20
182.17909499999999
 30
0.0
 11
-22.455887000000001
 21
182.17909499999999
 31
0.0
  0
LINE
  5
19C
  8
DETAIL
  6
CONTINUOUS
 62
     5
 10
59.057805000000002
 20
165.16236599999999
 30
0.0
 11
-36.535545999999989
 21
165.16236599999999
 31
0.0
  0
LINE
  5
19D
  8
DETAIL
  6
CONTINUOUS
 62
     5
 10
26.525584999999989
 20
168.16531800000001
 30
0.0
 11
-26.025585
 21
168.16531800000001
 31
0.0
  0
LINE
  5
19E
  8
DETAIL
  6
CONTINUOUS
 62
     5
 10
-118.11611600000001
 20
-10.753130000000001
 30
0.0
 11
0.0
 21
-10.753130000000001
 31
0.0
  0
LINE
  5
19F
  8
DETAIL
  6
CONTINUOUS
 62
     5
 10
0.0
 20
-20.019680999999999
 30
0.0
 11
-118.11611600000001
 21
-20.019680999999999
 31
0.0
  0
LINE
  5
1A0
  8
DETAIL
  6
CONTINUOUS
 62
     5
 10
0.0
 20
0.0
 30
0.0
 11
-117.94050900000001
 21
0.0
 31
0.0
  0
LINE
  5
1A1
  8
DETAIL
  6
CONTINUOUS
 62
     5
 10
-121.532652
 20
165.16236599999999
 30
0.0
 11
84.242354000000006
 21
165.16236599999999
 31
0.0
  0
LINE
  5
1A2
  8
DETAIL
  6
CONTINUOUS
 62
     5
 10
22.521648999999989
 20
200.19682499999999
 30
0.0
 11
-13.01279199999999
 21
200.19682499999999
 31
0.0
  0
LINE
  5
1A3
  8
DETAIL
  6
CONTINUOUS
 62
     5
 10
-146.1443109999999
 20
52.89331
 30
0.0
 11
-146.1443109999999
 21
167.12938800000001
 31
0.0
  0
LINE
  5
1A4
  8
DETAIL
  6
CONTINUOUS
 62
     5
 10
-124.034729
 20
162.70358400000001
 30
0.0
 11
-126.87472699999989
 21
0.0
 31
0.0
  0
ARC
  5
1A5
  8
DETAIL
  6
CONTINUOUS
 62
     5
 10
-119.617593
 20
80.078722999999982
 30
0.0
 40
100.098404
 50
245.15197900000001
 51
270.0
  0
LINE
  5
1A6
  8
DETAIL
  6
CONTINUOUS
 62
     5
 10
-164.161382
 20
0.0
 30
0.0
 11
-117.94050900000001
 21
0.0
 31
0.0
  0
LINE
  5
1A7
  8
DETAIL
  6
CONTINUOUS
 62
     5
 10
-157.38347200000001
 20
-10.753130000000001
 30
0.0
 11
-119.617593
 21
-10.753130000000001
 31
0.0
  0
LINE
  5
1A8
  8
DETAIL
  6
CONTINUOUS
 62
     5
 10
-165.16236599999999
 20
-1.0009840000000001
 30
0.0
 11
-165.16236599999999
 21
-5.3032190000000003
 31
0.0
  0
ARC
  5
1A9
  8
DETAIL
  6
CONTINUOUS
 62
     5
 10
-159.15646199999989
 20
-5.3032190000000003
 30
0.0
 40
6.0059040000000001
 50
180.0
 51
245.15197900000001
  0
ARC
  5
1AA
  8
DETAIL
  6
CONTINUOUS
 62
     5
 10
-164.161382
 20
-1.0009840000000001
 30
0.0
 40
1.0009840000000001
 50
90.0
 51
180.0
  0
LINE
  5
1AB
  8
DETAIL
  6
CONTINUOUS
 62
     5
 10
-146.1443109999999
 20
52.89331
 30
0.0
 11
-126.176525
 21
40.0
 31
0.0
  0
LINE
  5
1AC
  8
DETAIL
  6
CONTINUOUS
 62
     5
 10
-118.11611600000001
 20
0.0
 30
0.0
 11
-118.11611600000001
 21
-20.019680999999999
 31
0.0
  0
LINE
  5
1AD
  8
DETAIL
  6
CONTINUOUS
 62
     5
 10
-119.617593
 20
0.0
 30
0.0
 11
-119.617593
 21
-20.019680999999999
 31
0.0
  0
LINE
  5
1AE
  8
DETAIL
  6
CONTINUOUS
 62
     5
 10
-119.617593
 20
-19.018696999999989
 30
0.0
 11
-118.11611600000001
 21
-19.018696999999989
 31
0.0
  0
LINE
  5
1AF
  8
DETAIL
  6
CONTINUOUS
 62
     5
 10
-92.243229000000014
 20
173.13529199999991
 30
0.0
 11
-141.29144700000001
 21
173.13529199999991
 31
0.0
  0
ARC
  5
1B0
  8
DETAIL
  6
CONTINUOUS
 62
     5
 10
-121.532652
 20
162.65990600000001
 30
0.0
 40
2.5024600000000001
 50
90.0
 51
179.0
  0
LINE
  5
1B1
  8
DETAIL
  6
CONTINUOUS
 62
     5
 10
-146.296367
 20
168.13037199999999
 30
0.0
 11
-146.296367
 21
167.12938800000001
 31
0.0
  0
ARC
  5
1B2
  8
DETAIL
  6
CONTINUOUS
 62
     5
 10
-141.29144700000001
 20
168.13037199999999
 30
0.0
 40
5.0049200000000003
 50
94.450412000000014
 51
180.0
  0
LINE
  5
1B3
  8
DETAIL
  6
CONTINUOUS
 62
     5
 10
-91.242244999999997
 20
170.1672859999999
 30
0.0
 11
-29.66052899999999
 21
170.1672859999999
 31
0.0
  0
LINE
  5
1B4
  8
DETAIL
  6
CONTINUOUS
 62
     5
 10
-101.25208499999999
 20
166.1284039999999
 30
0.0
 11
-91.242244999999997
 21
166.1284039999999
 31
0.0
  0
LINE
  5
1B5
  8
DETAIL
  6
CONTINUOUS
 62
     5
 10
-96.131497999999993
 20
173.13529199999991
 30
0.0
 11
-104.3928259999999
 21
187.19712799999991
 31
0.0
  0
LINE
  5
1B6
  8
DETAIL
  6
CONTINUOUS
 62
     5
 10
-109.43855600000001
 20
173.13529199999991
 30
0.0
 11
-109.21019699999989
 21
186.21797100000001
 31
0.0
  0
LINE
  5
1B7
  8
DETAIL
  6
CONTINUOUS
 62
     5
 10
-102.2530689999999
 20
165.12742
 30
0.0
 11
-122.02258
 21
165.12742
 31
0.0
  0
ARC
  5
1B8
  8
DETAIL
  6
CONTINUOUS
 62
     5
 10
-102.2530689999999
 20
166.1284039999999
 30
0.0
 40
1.0009840000000001
 50
270.0
 51
0.0
  0
LINE
  5
1B9
  8
DETAIL
  6
CONTINUOUS
 62
     5
 10
-108.284481
 20
182.423035
 30
0.0
 11
-107.7218389999999
 21
182.423035
 31
0.0
  0
LINE
  5
1BA
  8
DETAIL
  6
CONTINUOUS
 62
     5
 10
-106.715108
 20
180.6798739999999
 30
0.0
 11
-106.70862
 21
180.4994079999999
 31
0.0
  0
LINE
  5
1BB
  8
DETAIL
  6
CONTINUOUS
 62
     5
 10
-106.72833900000001
 20
180.85033000000001
 30
0.0
 11
-106.715108
 21
180.6798739999999
 31
0.0
  0
LINE
  5
1BC
  8
DETAIL
  6
CONTINUOUS
 62
     5
 10
-106.748712
 20
181.0105869999999
 30
0.0
 11
-106.72833900000001
 21
180.85033000000001
 31
0.0
  0
LINE
  5
1BD
  8
DETAIL
  6
CONTINUOUS
 62
     5
 10
-106.77502
 20
181.16118800000001
 30
0.0
 11
-106.748712
 21
181.0105869999999
 31
0.0
  0
LINE
  5
1BE
  8
DETAIL
  6
CONTINUOUS
 62
     5
 10
-106.80632199999989
 20
181.30253899999991
 30
0.0
 11
-106.77502
 21
181.16118800000001
 31
0.0
  0
LINE
  5
1BF
  8
DETAIL
  6
CONTINUOUS
 62
     5
 10
-106.842204
 20
181.43486899999991
 30
0.0
 11
-106.80632199999989
 21
181.30253899999991
 31
0.0
  0
LINE
  5
1C0
  8
DETAIL
  6
CONTINUOUS
 62
     5
 10
-106.88205499999989
 20
181.5585079999999
 30
0.0
 11
-106.842204
 21
181.43486899999991
 31
0.0
  0
LINE
  5
1C1
  8
DETAIL
  6
CONTINUOUS
 62
     5
 10
-106.925557
 20
181.67357999999999
 30
0.0
 11
-106.88205499999989
 21
181.5585079999999
 31
0.0
  0
LINE
  5
1C2
  8
DETAIL
  6
CONTINUOUS
 62
     5
 10
-106.972291
 20
181.780303
 30
0.0
 11
-106.925557
 21
181.67357999999999
 31
0.0
  0
LINE
  5
1C3
  8
DETAIL
  6
CONTINUOUS
 62
     5
 10
-107.021981
 20
181.87872899999991
 30
0.0
 11
-106.972291
 21
181.780303
 31
0.0
  0
LINE
  5
1C4
  8
DETAIL
  6
CONTINUOUS
 62
     5
 10
-107.0743259999999
 20
181.96899400000001
 30
0.0
 11
-107.021981
 21
181.87872899999991
 31
0.0
  0
LINE
  5
1C5
  8
DETAIL
  6
CONTINUOUS
 62
     5
 10
-107.12902699999989
 20
182.051051
 30
0.0
 11
-107.0743259999999
 21
181.96899400000001
 31
0.0
  0
LINE
  5
1C6
  8
DETAIL
  6
CONTINUOUS
 62
     5
 10
-107.185807
 20
182.12491800000001
 30
0.0
 11
-107.12902699999989
 21
182.051051
 31
0.0
  0
LINE
  5
1C7
  8
DETAIL
  6
CONTINUOUS
 62
     5
 10
-107.2443169999999
 20
182.19052400000001
 30
0.0
 11
-107.185807
 21
182.12491800000001
 31
0.0
  0
LINE
  5
1C8
  8
DETAIL
  6
CONTINUOUS
 62
     5
 10
-107.304305
 20
182.24782699999989
 30
0.0
 11
-107.2443169999999
 21
182.19052400000001
 31
0.0
  0
LINE
  5
1C9
  8
DETAIL
  6
CONTINUOUS
 62
     5
 10
-107.365148
 20
182.29678100000001
 30
0.0
 11
-107.304305
 21
182.24782699999989
 31
0.0
  0
LINE
  5
1CA
  8
DETAIL
  6
CONTINUOUS
 62
     5
 10
-107.426337
 20
182.33718599999989
 30
0.0
 11
-107.365148
 21
182.29678100000001
 31
0.0
  0
LINE
  5
1CB
  8
DETAIL
  6
CONTINUOUS
 62
     5
 10
-107.487309
 20
182.369406
 30
0.0
 11
-107.426337
 21
182.33718599999989
 31
0.0
  0
LINE
  5
1CC
  8
DETAIL
  6
CONTINUOUS
 62
     5
 10
-107.54725000000001
 20
182.3935119999999
 30
0.0
 11
-107.487309
 21
182.369406
 31
0.0
  0
LINE
  5
1CD
  8
DETAIL
  6
CONTINUOUS
 62
     5
 10
-107.60636700000001
 20
182.41015100000001
 30
0.0
 11
-107.54725000000001
 21
182.3935119999999
 31
0.0
  0
LINE
  5
1CE
  8
DETAIL
  6
CONTINUOUS
 62
     5
 10
-107.664548
 20
182.4200789999999
 30
0.0
 11
-107.60636700000001
 21
182.41015100000001
 31
0.0
  0
LINE
  5
1CF
  8
DETAIL
  6
CONTINUOUS
 62
     5
 10
-107.7218389999999
 20
182.423035
 30
0.0
 11
-107.664548
 21
182.4200789999999
 31
0.0
  0
LINE
  5
1D0
  8
DETAIL
  6
CONTINUOUS
 62
     5
 10
-106.70862
 20
180.4994079999999
 30
0.0
 11
-106.644351
 21
173.13529199999991
 31
0.0
  0
LINE
  5
1D1
  8
DETAIL
  6
CONTINUOUS
 62
     5
 10
-108.848294
 20
182.1003409999999
 30
0.0
 11
-108.7803149999999
 21
182.1728359999999
 31
0.0
  0
LINE
  5
1D2
  8
DETAIL
  6
CONTINUOUS
 62
     5
 10
-108.914959
 20
182.02838199999999
 30
0.0
 11
-108.848294
 21
182.1003409999999
 31
0.0
  0
LINE
  5
1D3
  8
DETAIL
  6
CONTINUOUS
 62
     5
 10
-108.9797409999999
 20
181.9567879999999
 30
0.0
 11
-108.914959
 21
182.02838199999999
 31
0.0
  0
LINE
  5
1D4
  8
DETAIL
  6
CONTINUOUS
 62
     5
 10
-109.0408299999999
 20
181.88559499999991
 30
0.0
 11
-108.9797409999999
 21
181.9567879999999
 31
0.0
  0
LINE
  5
1D5
  8
DETAIL
  6
CONTINUOUS
 62
     5
 10
-109.096791
 20
181.81519
 30
0.0
 11
-109.0408299999999
 21
181.88559499999991
 31
0.0
  0
LINE
  5
1D6
  8
DETAIL
  6
CONTINUOUS
 62
     5
 10
-109.146852
 20
181.74532099999999
 30
0.0
 11
-109.096791
 21
181.81519
 31
0.0
  0
LINE
  5
1D7
  8
DETAIL
  6
CONTINUOUS
 62
     5
 10
-109.19014799999989
 20
181.67615900000001
 30
0.0
 11
-109.146852
 21
181.74532099999999
 31
0.0
  0
LINE
  5
1D8
  8
DETAIL
  6
CONTINUOUS
 62
     5
 10
-109.22642999999989
 20
181.60732100000001
 30
0.0
 11
-109.19014799999989
 21
181.67615900000001
 31
0.0
  0
LINE
  5
1D9
  8
DETAIL
  6
CONTINUOUS
 62
     5
 10
-109.2553409999999
 20
181.5386059999999
 30
0.0
 11
-109.22642999999989
 21
181.60732100000001
 31
0.0
  0
LINE
  5
1DA
  8
DETAIL
  6
CONTINUOUS
 62
     5
 10
-109.276662
 20
181.46970899999991
 30
0.0
 11
-109.2553409999999
 21
181.5386059999999
 31
0.0
  0
LINE
  5
1DB
  8
DETAIL
  6
CONTINUOUS
 62
     5
 10
-109.29015200000001
 20
181.40005300000001
 30
0.0
 11
-109.276662
 21
181.46970899999991
 31
0.0
  0
LINE
  5
1DC
  8
DETAIL
  6
CONTINUOUS
 62
     5
 10
-109.29551600000001
 20
181.330308
 30
0.0
 11
-109.29015200000001
 21
181.40005300000001
 31
0.0
  0
LINE
  5
1DD
  8
DETAIL
  6
CONTINUOUS
 62
     5
 10
-108.3436269999999
 20
182.41991400000001
 30
0.0
 11
-108.284481
 21
182.423035
 31
0.0
  0
LINE
  5
1DE
  8
DETAIL
  6
CONTINUOUS
 62
     5
 10
-108.403863
 20
182.40928600000001
 30
0.0
 11
-108.3436269999999
 21
182.41991400000001
 31
0.0
  0
LINE
  5
1DF
  8
DETAIL
  6
CONTINUOUS
 62
     5
 10
-108.46524699999991
 20
182.391445
 30
0.0
 11
-108.403863
 21
182.40928600000001
 31
0.0
  0
LINE
  5
1E0
  8
DETAIL
  6
CONTINUOUS
 62
     5
 10
-108.52762
 20
182.36552499999991
 30
0.0
 11
-108.46524699999991
 21
182.391445
 31
0.0
  0
LINE
  5
1E1
  8
DETAIL
  6
CONTINUOUS
 62
     5
 10
-108.5911649999999
 20
182.33077299999991
 30
0.0
 11
-108.52762
 21
182.36552499999991
 31
0.0
  0
LINE
  5
1E2
  8
DETAIL
  6
CONTINUOUS
 62
     5
 10
-108.65491
 20
182.28719499999991
 30
0.0
 11
-108.5911649999999
 21
182.33077299999991
 31
0.0
  0
LINE
  5
1E3
  8
DETAIL
  6
CONTINUOUS
 62
     5
 10
-108.717848
 20
182.23451999999989
 30
0.0
 11
-108.65491
 21
182.28719499999991
 31
0.0
  0
LINE
  5
1E4
  8
DETAIL
  6
CONTINUOUS
 62
     5
 10
-108.7803149999999
 20
182.1728359999999
 30
0.0
 11
-108.717848
 21
182.23451999999989
 31
0.0
  0
ARC
  5
1E5
  8
DETAIL
  6
CONTINUOUS
 62
     5
 10
-107.208535
 20
186.183031
 30
0.0
 40
2.0019680000000002
 50
90.0
 51
179.0
  0
ARC
  5
1E6
  8
DETAIL
  6
CONTINUOUS
 62
     5
 10
-106.1189399999999
 20
186.183031
 30
0.0
 40
2.0019680000000002
 50
30.434235999999999
 51
90.0
  0
LINE
  5
1E7
  8
DETAIL
  6
CONTINUOUS
 62
     5
 10
-106.1189399999999
 20
188.184999
 30
0.0
 11
-107.208535
 21
188.184999
 31
0.0
  0
LINE
  5
1E8
  8
DETAIL
  6
CONTINUOUS
 62
     5
 10
-91.242244999999997
 20
166.1284039999999
 30
0.0
 11
-91.242244999999997
 21
172.134308
 31
0.0
  0
ARC
  5
1E9
  8
DETAIL
  6
CONTINUOUS
 62
     5
 10
-92.243229000000014
 20
172.134308
 30
0.0
 40
1.0009840000000001
 50
0.0
 51
90.0
  0
LINE
  5
1EA
  8
DETAIL
  6
CONTINUOUS
 62
     5
 10
-37.03616199999999
 20
165.16236599999999
 30
0.0
 11
-42.041330000000002
 21
165.16236599999999
 31
0.0
  0
LINE
  5
1EB
  8
DETAIL
  6
CONTINUOUS
 62
     5
 10
-29.028537
 20
168.16531800000001
 30
0.0
 11
-41.040346
 21
168.16531800000001
 31
0.0
  0
ARC
  5
1EC
  8
DETAIL
  6
CONTINUOUS
 62
     5
 10
-37.67942399999999
 20
164.66187400000001
 30
0.0
 40
0.5004920000000001
 50
0.8797129999999999
 51
90.0
  0
LINE
  5
1ED
  8
DETAIL
  6
CONTINUOUS
 62
     5
 10
-48.54723400000001
 20
200.19682499999999
 30
0.0
 11
-13.01279199999999
 21
200.19682499999999
 31
0.0
  0
LINE
  5
1EE
  8
DETAIL
  6
CONTINUOUS
 62
     5
 10
-54.052646000000003
 20
194.69141300000001
 30
0.0
 11
-54.052646000000003
 21
170.1672859999999
 31
0.0
  0
ARC
  5
1EF
  8
DETAIL
  6
CONTINUOUS
 62
     5
 10
-41.040346
 20
167.16433399999991
 30
0.0
 40
1.0009840000000001
 50
90.0
 51
180.0
  0
LINE
  5
1F0
  8
DETAIL
  6
CONTINUOUS
 62
     5
 10
-42.041330000000002
 20
165.16236599999999
 30
0.0
 11
-42.041330000000002
 21
167.16433399999991
 31
0.0
  0
ARC
  5
1F1
  8
DETAIL
  6
CONTINUOUS
 62
     5
 10
-41.306378000000002
 20
164.66187400000001
 30
0.0
 40
0.5004920000000001
 50
90.0
 51
179.09999999999991
  0
ARC
  5
1F2
  8
DETAIL
  6
CONTINUOUS
 62
     5
 10
-48.54723400000001
 20
194.69141300000001
 30
0.0
 40
5.5054119999999989
 50
90.0
 51
180.0
  0
LINE
  5
1F3
  8
DETAIL
  6
CONTINUOUS
 62
     5
 10
-21.217251999999991
 20
187.68887599999991
 30
0.0
 11
-21.169170000000001
 21
182.17909499999999
 31
0.0
  0
LINE
  5
1F4
  8
DETAIL
  6
CONTINUOUS
 62
     5
 10
-23.374679
 20
182.1728359999999
 30
0.0
 11
-23.326543000000001
 21
187.68887599999991
 31
0.0
  0
LINE
  5
1F5
  8
DETAIL
  6
CONTINUOUS
 62
     5
 10
-26.025585
 20
171.3374839999999
 30
0.0
 11
-21.322391
 21
179.176143
 31
0.0
  0
ARC
  5
1F6
  8
DETAIL
  6
CONTINUOUS
 62
     5
 10
-22.455887000000001
 20
181.178111
 30
0.0
 40
1.0009840000000001
 50
90.0
 51
149.03624300000001
  0
LINE
  5
1F7
  8
DETAIL
  6
CONTINUOUS
 62
     5
 10
-26.025585
 20
168.16531800000001
 30
0.0
 11
-26.025585
 21
171.3374839999999
 31
0.0
  0
ARC
  5
1F8
  8
DETAIL
  6
CONTINUOUS
 62
     5
 10
-28.027553000000001
 20
171.89199999999991
 30
0.0
 40
1.0009840000000001
 50
149.03624300000001
 51
180.0
  0
LINE
  5
1F9
  8
DETAIL
  6
CONTINUOUS
 62
     5
 10
-23.31422499999999
 20
181.693117
 30
0.0
 11
-28.885891000000001
 21
172.40700000000001
 31
0.0
  0
LINE
  5
1FA
  8
DETAIL
  6
CONTINUOUS
 62
     5
 10
-29.028537
 20
168.16531800000001
 30
0.0
 11
-29.028537
 21
171.89199999999991
 31
0.0
  0
LINE
  5
1FB
  8
DETAIL
  6
CONTINUOUS
 62
     5
 10
-23.374679
 20
182.1728359999999
 30
0.0
 11
-23.345126
 21
181.63770400000001
 31
0.0
  0
ARC
  5
1FC
  8
DETAIL
  6
CONTINUOUS
 62
     5
 10
-22.826069
 20
187.68450100000001
 30
0.0
 40
0.5004920000000001
 50
90.0
 51
179.4992509999999
  0
ARC
  5
1FD
  8
DETAIL
  6
CONTINUOUS
 62
     5
 10
-21.717727
 20
187.68450100000001
 30
0.0
 40
0.5004920000000001
 50
0.5007410000000001
 51
90.0
  0
LINE
  5
1FE
  8
DETAIL
  6
CONTINUOUS
 62
     5
 10
-22.826069
 20
188.184999
 30
0.0
 11
-21.717727
 21
188.184999
 31
0.0
  0
LINE
  5
1FF
  8
DETAIL
  6
CONTINUOUS
 62
     5
 10
116.86556400000001
 20
172.0
 30
0.0
 11
116.81456
 21
174.92196100000001
 31
0.0
  0
LINE
  5
200
  8
DETAIL
  6
CONTINUOUS
 62
     5
 10
117.56047599999989
 20
175.1722069999999
 30
0.0
 11
117.615847
 21
172.0
 31
0.0
  0
LINE
  5
201
  8
DETAIL
  6
CONTINUOUS
 62
     5
 10
124.049549
 20
176.20813100000001
 30
0.0
 11
126.2433059999999
 21
50.528007999999993
 31
0.0
  0
LINE
  5
202
  8
DETAIL
  6
CONTINUOUS
 62
     5
 10
118.11611600000001
 20
-10.753130000000001
 30
0.0
 11
0.0
 21
-10.753130000000001
 31
0.0
  0
LINE
  5
203
  8
DETAIL
  6
CONTINUOUS
 62
     5
 10
0.0
 20
-20.019680999999999
 30
0.0
 11
118.11611600000001
 21
-20.019680999999999
 31
0.0
  0
LINE
  5
204
  8
DETAIL
  6
CONTINUOUS
 62
     5
 10
0.0
 20
0.0
 30
0.0
 11
117.94050300000001
 21
0.0
 31
0.0
  0
LINE
  5
205
  8
DETAIL
  6
CONTINUOUS
 62
     5
 10
126.2433059999999
 20
50.528007999999993
 30
0.0
 11
127.12527300000001
 21
0.000024
 31
0.0
  0
ARC
  5
206
  8
DETAIL
  6
CONTINUOUS
 62
     5
 10
159.15646199999989
 20
-5.3032190000000003
 30
0.0
 40
6.0059040000000001
 50
294.8480209999999
 51
0.0
  0
ARC
  5
207
  8
DETAIL
  6
CONTINUOUS
 62
     5
 10
164.161382
 20
-1.0009840000000001
 30
0.0
 40
1.0009840000000001
 50
0.0
 51
90.0
  0
ARC
  5
208
  8
DETAIL
  6
CONTINUOUS
 62
     5
 10
119.617593
 20
80.078722999999982
 30
0.0
 40
100.098404
 50
270.0
 51
294.8480209999999
  0
LINE
  5
209
  8
DETAIL
  6
CONTINUOUS
 62
     5
 10
157.38346599999991
 20
-10.753130000000001
 30
0.0
 11
119.617593
 21
-10.753130000000001
 31
0.0
  0
LINE
  5
20A
  8
DETAIL
  6
CONTINUOUS
 62
     5
 10
164.161382
 20
0.0
 30
0.0
 11
117.94050300000001
 21
0.0
 31
0.0
  0
LINE
  5
20B
  8
DETAIL
  6
CONTINUOUS
 62
     5
 10
118.11611600000001
 20
0.0
 30
0.0
 11
118.11611600000001
 21
-20.019680999999999
 31
0.0
  0
LINE
  5
20C
  8
DETAIL
  6
CONTINUOUS
 62
     5
 10
119.617593
 20
0.0
 30
0.0
 11
119.617593
 21
-20.019680999999999
 31
0.0
  0
LINE
  5
20D
  8
DETAIL
  6
CONTINUOUS
 62
     5
 10
119.617593
 20
-19.018696999999989
 30
0.0
 11
118.11611600000001
 21
-19.018696999999989
 31
0.0
  0
LINE
  5
20E
  8
DETAIL
  6
CONTINUOUS
 62
     5
 10
165.16236599999999
 20
-1.0009840000000001
 30
0.0
 11
165.16236599999999
 21
-5.3032190000000003
 31
0.0
  0
LINE
  5
20F
  8
DETAIL
  6
CONTINUOUS
 62
     5
 10
104.55278300000001
 20
193.189919
 30
0.0
 11
111.5596709999999
 21
193.189919
 31
0.0
  0
LINE
  5
210
  8
DETAIL
  6
CONTINUOUS
 62
     5
 10
107.151184
 20
182.67985799999991
 30
0.0
 11
107.96101
 21
182.67987500000001
 31
0.0
  0
LINE
  5
211
  8
DETAIL
  6
CONTINUOUS
 62
     5
 10
118.0620929999999
 20
182.17909499999999
 30
0.0
 11
90.034540000000007
 21
182.17909499999999
 31
0.0
  0
LINE
  5
212
  8
DETAIL
  6
CONTINUOUS
 62
     5
 10
89.033556000000004
 20
175.1722069999999
 30
0.0
 11
117.56047599999989
 21
175.1722069999999
 31
0.0
  0
LINE
  5
213
  8
DETAIL
  6
CONTINUOUS
 62
     5
 10
63.061993999999999
 20
168.16531800000001
 30
0.0
 11
29.528537
 21
168.16531800000001
 31
0.0
  0
LINE
  5
214
  8
DETAIL
  6
CONTINUOUS
 62
     5
 10
30.160523000000001
 20
170.1672859999999
 30
0.0
 11
84.154993000000005
 21
170.1672859999999
 31
0.0
  0
LINE
  5
215
  8
DETAIL
  6
CONTINUOUS
 62
     5
 10
21.669163999999991
 20
182.17909499999999
 30
0.0
 11
21.717245999999999
 21
187.68887599999991
 31
0.0
  0
LINE
  5
216
  8
DETAIL
  6
CONTINUOUS
 62
     5
 10
23.826537999999989
 20
187.68887599999991
 30
0.0
 11
23.872489000000002
 21
182.423035
 31
0.0
  0
LINE
  5
217
  8
DETAIL
  6
CONTINUOUS
 62
     5
 10
28.027060999999989
 20
194.69141300000001
 30
0.0
 11
28.027060999999989
 21
175.69498499999989
 31
0.0
  0
LINE
  5
218
  8
DETAIL
  6
CONTINUOUS
 62
     5
 10
26.525584999999989
 20
168.16531800000001
 30
0.0
 11
26.525584999999989
 21
171.3374839999999
 31
0.0
  0
LINE
  5
219
  8
DETAIL
  6
CONTINUOUS
 62
     5
 10
21.82238499999999
 20
179.176143
 30
0.0
 11
26.525584999999989
 21
171.3374839999999
 31
0.0
  0
ARC
  5
21A
  8
DETAIL
  6
CONTINUOUS
 62
     5
 10
28.527553000000001
 20
171.89199999999991
 30
0.0
 40
1.0009840000000001
 50
0.0
 51
30.963757000000001
  0
ARC
  5
21B
  8
DETAIL
  6
CONTINUOUS
 62
     5
 10
22.955881999999999
 20
181.178111
 30
0.0
 40
1.0009840000000001
 50
30.963757000000001
 51
90.0
  0
LINE
  5
21C
  8
DETAIL
  6
CONTINUOUS
 62
     5
 10
23.814219999999999
 20
181.693117
 30
0.0
 11
29.385884999999991
 21
172.40700000000001
 31
0.0
  0
LINE
  5
21D
  8
DETAIL
  6
CONTINUOUS
 62
     5
 10
29.528537
 20
168.16531800000001
 30
0.0
 11
29.528537
 21
171.89199999999991
 31
0.0
  0
ARC
  5
21E
  8
DETAIL
  6
CONTINUOUS
 62
     5
 10
27.645904000000002
 20
171.54929799999999
 30
0.0
 40
2.5024600000000001
 50
0.5
 51
31.695329999999998
  0
LINE
  5
21F
  8
DETAIL
  6
CONTINUOUS
 62
     5
 10
23.872489000000002
 20
182.423035
 30
0.0
 11
29.775131999999999
 21
172.8640959999999
 31
0.0
  0
LINE
  5
220
  8
DETAIL
  6
CONTINUOUS
 62
     5
 10
30.14827
 20
171.57113699999999
 30
0.0
 11
30.204201000000001
 21
165.16236599999999
 31
0.0
  0
ARC
  5
221
  8
DETAIL
  6
CONTINUOUS
 62
     5
 10
22.217721000000001
 20
187.68450100000001
 30
0.0
 40
0.5004920000000001
 50
90.0
 51
179.4992509999999
  0
ARC
  5
222
  8
DETAIL
  6
CONTINUOUS
 62
     5
 10
23.326063000000001
 20
187.68450100000001
 30
0.0
 40
0.5004920000000001
 50
0.5007410000000001
 51
90.0
  0
LINE
  5
223
  8
DETAIL
  6
CONTINUOUS
 62
     5
 10
22.217721000000001
 20
188.184999
 30
0.0
 11
23.326063000000001
 21
188.184999
 31
0.0
  0
ARC
  5
224
  8
DETAIL
  6
CONTINUOUS
 62
     5
 10
22.521648999999989
 20
194.69141300000001
 30
0.0
 40
5.5054119999999989
 50
0.0
 51
90.0
  0
ARC
  5
225
  8
DETAIL
  6
CONTINUOUS
 62
     5
 10
63.061993999999999
 20
167.16433399999991
 30
0.0
 40
1.0009840000000001
 50
0.0
 51
90.0
  0
LINE
  5
226
  8
DETAIL
  6
CONTINUOUS
 62
     5
 10
64.062978000000001
 20
165.16236599999999
 30
0.0
 11
59.057805000000002
 21
165.16236599999999
 31
0.0
  0
ARC
  5
227
  8
DETAIL
  6
CONTINUOUS
 62
     5
 10
59.701067000000002
 20
164.66187400000001
 30
0.0
 40
0.5004920000000001
 50
90.0
 51
179.12028699999999
  0
ARC
  5
228
  8
DETAIL
  6
CONTINUOUS
 62
     5
 10
63.328015000000001
 20
164.66187400000001
 30
0.0
 40
0.5004920000000001
 50
0.8999919999999999
 51
90.0
  0
LINE
  5
229
  8
DETAIL
  6
CONTINUOUS
 62
     5
 10
64.062978000000001
 20
165.16236599999999
 30
0.0
 11
64.062978000000001
 21
167.16433399999991
 31
0.0
  0
ARC
  5
22A
  8
DETAIL
  6
CONTINUOUS
 62
     5
 10
102.3557229999999
 20
183.91483700000001
 30
0.0
 40
5.0049200000000003
 50
135.0
 51
175.000935
  0
LINE
  5
22B
  8
DETAIL
  6
CONTINUOUS
 62
     5
 10
106.70325
 20
182.17909499999999
 30
0.0
 11
106.790583
 21
192.18612100000001
 31
0.0
  0
LINE
  5
22C
  8
DETAIL
  6
CONTINUOUS
 62
     5
 10
95.172312000000005
 20
172.0
 30
0.0
 11
96.544910000000002
 21
174.92196100000001
 31
0.0
  0
LINE
  5
22D
  8
DETAIL
  6
CONTINUOUS
 62
     5
 10
89.033556000000004
 20
175.1722069999999
 30
0.0
 11
89.033556000000004
 21
181.178111
 31
0.0
  0
ARC
  5
22E
  8
DETAIL
  6
CONTINUOUS
 62
     5
 10
90.034540000000007
 20
181.178111
 30
0.0
 40
1.0009840000000001
 50
90.0
 51
180.0
  0
LINE
  5
22F
  8
DETAIL
  6
CONTINUOUS
 62
     5
 10
97.035740000000004
 20
174.79407
 30
0.0
 11
96.776472999999996
 21
174.86326800000001
 31
0.0
  0
LINE
  5
230
  8
DETAIL
  6
CONTINUOUS
 62
     5
 10
96.776472999999996
 20
174.86326800000001
 30
0.0
 11
96.653706000000014
 21
174.89538200000001
 31
0.0
  0
LINE
  5
231
  8
DETAIL
  6
CONTINUOUS
 62
     5
 10
96.653706000000014
 20
174.89538200000001
 30
0.0
 11
96.594658999999993
 21
174.910461
 31
0.0
  0
LINE
  5
232
  8
DETAIL
  6
CONTINUOUS
 62
     5
 10
96.548214000000016
 20
174.92157800000001
 30
0.0
 11
96.544910000000002
 21
174.92196100000001
 31
0.0
  0
LINE
  5
233
  8
DETAIL
  6
CONTINUOUS
 62
     5
 10
96.557682
 20
174.919499
 30
0.0
 11
96.548214000000016
 21
174.92157800000001
 31
0.0
  0
LINE
  5
234
  8
DETAIL
  6
CONTINUOUS
 62
     5
 10
96.573244000000003
 20
174.9157899999999
 30
0.0
 11
96.557682
 21
174.919499
 31
0.0
  0
LINE
  5
235
  8
DETAIL
  6
CONTINUOUS
 62
     5
 10
96.594658999999993
 20
174.910461
 30
0.0
 11
96.573244000000003
 21
174.9157899999999
 31
0.0
  0
LINE
  5
236
  8
DETAIL
  6
CONTINUOUS
 62
     5
 10
106.6144189999999
 20
172.0
 30
0.0
 11
106.642101
 21
175.1722069999999
 31
0.0
  0
LINE
  5
237
  8
DETAIL
  6
CONTINUOUS
 62
     5
 10
106.7100149999999
 20
182.6020169999999
 30
0.0
 11
106.706853
 21
182.59174200000001
 31
0.0
  0
LINE
  5
238
  8
DETAIL
  6
CONTINUOUS
 62
     5
 10
106.7193009999999
 20
182.61201500000001
 30
0.0
 11
106.7100149999999
 21
182.6020169999999
 31
0.0
  0
LINE
  5
239
  8
DETAIL
  6
CONTINUOUS
 62
     5
 10
106.7346389999999
 20
182.62178900000001
 30
0.0
 11
106.7193009999999
 21
182.61201500000001
 31
0.0
  0
LINE
  5
23A
  8
DETAIL
  6
CONTINUOUS
 62
     5
 10
106.7558659999999
 20
182.63115099999999
 30
0.0
 11
106.7346389999999
 21
182.62178900000001
 31
0.0
  0
LINE
  5
23B
  8
DETAIL
  6
CONTINUOUS
 62
     5
 10
106.7827629999999
 20
182.63998900000001
 30
0.0
 11
106.7558659999999
 21
182.63115099999999
 31
0.0
  0
LINE
  5
23C
  8
DETAIL
  6
CONTINUOUS
 62
     5
 10
106.81501299999999
 20
182.64818500000001
 30
0.0
 11
106.7827629999999
 21
182.63998900000001
 31
0.0
  0
LINE
  5
23D
  8
DETAIL
  6
CONTINUOUS
 62
     5
 10
106.8522429999999
 20
182.65562800000001
 30
0.0
 11
106.81501299999999
 21
182.64818500000001
 31
0.0
  0
LINE
  5
23E
  8
DETAIL
  6
CONTINUOUS
 62
     5
 10
106.893996
 20
182.66223500000001
 30
0.0
 11
106.8522429999999
 21
182.65562800000001
 31
0.0
  0
LINE
  5
23F
  8
DETAIL
  6
CONTINUOUS
 62
     5
 10
106.93977099999999
 20
182.66789299999991
 30
0.0
 11
106.893996
 21
182.66223500000001
 31
0.0
  0
LINE
  5
240
  8
DETAIL
  6
CONTINUOUS
 62
     5
 10
106.988984
 20
182.67255099999991
 30
0.0
 11
106.93977099999999
 21
182.66789299999991
 31
0.0
  0
LINE
  5
241
  8
DETAIL
  6
CONTINUOUS
 62
     5
 10
107.040982
 20
182.67612500000001
 30
0.0
 11
106.988984
 21
182.67255099999991
 31
0.0
  0
LINE
  5
242
  8
DETAIL
  6
CONTINUOUS
 62
     5
 10
107.0952349999999
 20
182.67858000000001
 30
0.0
 11
107.040982
 21
182.67612500000001
 31
0.0
  0
LINE
  5
243
  8
DETAIL
  6
CONTINUOUS
 62
     5
 10
107.151184
 20
182.67985799999991
 30
0.0
 11
107.0952349999999
 21
182.67858000000001
 31
0.0
  0
LINE
  5
244
  8
DETAIL
  6
CONTINUOUS
 62
     5
 10
96.544910000000002
 20
174.92196100000001
 30
0.0
 11
96.566802999999993
 21
175.1722069999999
 31
0.0
  0
LINE
  5
245
  8
DETAIL
  6
CONTINUOUS
 62
     5
 10
97.179823000000013
 20
182.17909499999999
 30
0.0
 11
97.369839000000013
 21
184.35095899999999
 31
0.0
  0
ARC
  5
246
  8
DETAIL
  6
CONTINUOUS
 62
     5
 10
107.295485
 20
192.68942699999999
 30
0.0
 40
0.5004920000000001
 50
90.0
 51
129.01799700000001
  0
LINE
  5
247
  8
DETAIL
  6
CONTINUOUS
 62
     5
 10
104.55432500000001
 20
193.18651600000001
 30
0.0
 11
104.55278300000001
 21
193.189919
 31
0.0
  0
LINE
  5
248
  8
DETAIL
  6
CONTINUOUS
 62
     5
 10
104.5587949999999
 20
193.1764059999999
 30
0.0
 11
104.55432500000001
 21
193.18651600000001
 31
0.0
  0
LINE
  5
249
  8
DETAIL
  6
CONTINUOUS
 62
     5
 10
104.760092
 20
192.69379599999999
 30
0.0
 11
104.73820000000001
 21
192.74693099999999
 31
0.0
  0
LINE
  5
24A
  8
DETAIL
  6
CONTINUOUS
 62
     5
 10
104.73820000000001
 20
192.74693099999999
 30
0.0
 11
104.5754459999999
 21
193.137156
 31
0.0
  0
LINE
  5
24B
  8
DETAIL
  6
CONTINUOUS
 62
     5
 10
104.5754459999999
 20
193.137156
 30
0.0
 11
104.5587949999999
 21
193.1764059999999
 31
0.0
  0
LINE
  5
24C
  8
DETAIL
  6
CONTINUOUS
 62
     5
 10
106.816632
 20
192.61835199999999
 30
0.0
 11
106.82613499999989
 21
192.69379599999999
 31
0.0
  0
LINE
  5
24D
  8
DETAIL
  6
CONTINUOUS
 62
     5
 10
106.8084709999999
 20
192.539321
 30
0.0
 11
106.816632
 21
192.61835199999999
 31
0.0
  0
LINE
  5
24E
  8
DETAIL
  6
CONTINUOUS
 62
     5
 10
106.8015699999999
 20
192.45677499999991
 30
0.0
 11
106.8084709999999
 21
192.539321
 31
0.0
  0
LINE
  5
24F
  8
DETAIL
  6
CONTINUOUS
 62
     5
 10
106.796182
 20
192.370496
 30
0.0
 11
106.8015699999999
 21
192.45677499999991
 31
0.0
  0
LINE
  5
250
  8
DETAIL
  6
CONTINUOUS
 62
     5
 10
106.79254299999999
 20
192.28025400000001
 30
0.0
 11
106.796182
 21
192.370496
 31
0.0
  0
LINE
  5
251
  8
DETAIL
  6
CONTINUOUS
 62
     5
 10
106.790583
 20
192.18612100000001
 30
0.0
 11
106.79254299999999
 21
192.28025400000001
 31
0.0
  0
LINE
  5
252
  8
DETAIL
  6
CONTINUOUS
 62
     5
 10
106.9515589999999
 20
193.05182500000001
 30
0.0
 11
106.98039300000001
 21
193.07828599999991
 31
0.0
  0
LINE
  5
253
  8
DETAIL
  6
CONTINUOUS
 62
     5
 10
106.92538
 20
193.0209999999999
 30
0.0
 11
106.9515589999999
 21
193.05182500000001
 31
0.0
  0
LINE
  5
254
  8
DETAIL
  6
CONTINUOUS
 62
     5
 10
106.901662
 20
192.98519999999991
 30
0.0
 11
106.92538
 21
193.0209999999999
 31
0.0
  0
LINE
  5
255
  8
DETAIL
  6
CONTINUOUS
 62
     5
 10
106.8810009999999
 20
192.9452729999999
 30
0.0
 11
106.901662
 21
192.98519999999991
 31
0.0
  0
LINE
  5
256
  8
DETAIL
  6
CONTINUOUS
 62
     5
 10
106.863996
 20
192.90218400000001
 30
0.0
 11
106.8810009999999
 21
192.9452729999999
 31
0.0
  0
LINE
  5
257
  8
DETAIL
  6
CONTINUOUS
 62
     5
 10
106.850483
 20
192.85650899999999
 30
0.0
 11
106.863996
 21
192.90218400000001
 31
0.0
  0
LINE
  5
258
  8
DETAIL
  6
CONTINUOUS
 62
     5
 10
106.8405199999999
 20
192.80932200000001
 30
0.0
 11
106.850483
 21
192.85650899999999
 31
0.0
  0
LINE
  5
259
  8
DETAIL
  6
CONTINUOUS
 62
     5
 10
106.834084
 20
192.7608559999999
 30
0.0
 11
106.8405199999999
 21
192.80932200000001
 31
0.0
  0
LINE
  5
25A
  8
DETAIL
  6
CONTINUOUS
 62
     5
 10
106.8323469999999
 20
192.744169
 30
0.0
 11
106.834084
 21
192.7608559999999
 31
0.0
  0
LINE
  5
25B
  8
DETAIL
  6
CONTINUOUS
 62
     5
 10
106.830434
 20
192.72742899999989
 30
0.0
 11
106.8323469999999
 21
192.744169
 31
0.0
  0
LINE
  5
25C
  8
DETAIL
  6
CONTINUOUS
 62
     5
 10
106.828355
 20
192.71064200000001
 30
0.0
 11
106.830434
 21
192.72742899999989
 31
0.0
  0
LINE
  5
25D
  8
DETAIL
  6
CONTINUOUS
 62
     5
 10
106.82613499999989
 20
192.69379599999999
 30
0.0
 11
106.828355
 21
192.71064200000001
 31
0.0
  0
LINE
  5
25E
  8
DETAIL
  6
CONTINUOUS
 62
     5
 10
98.816709000000003
 20
187.4538509999999
 30
0.0
 11
104.55278300000001
 21
193.189919
 31
0.0
  0
LINE
  5
25F
  8
DETAIL
  6
CONTINUOUS
 62
     5
 10
111.5596709999999
 20
193.189919
 30
0.0
 11
115.914134
 21
183.51333
 31
0.0
  0
LINE
  5
260
  8
DETAIL
  6
CONTINUOUS
 62
     5
 10
108.320881
 20
192.18612100000001
 30
0.0
 11
108.4082139999999
 21
182.17909499999999
 31
0.0
  0
LINE
  5
261
  8
DETAIL
  6
CONTINUOUS
 62
     5
 10
119.06307700000001
 20
178.17515900000001
 30
0.0
 11
122.0478879999999
 21
178.17515900000001
 31
0.0
  0
LINE
  5
262
  8
DETAIL
  6
CONTINUOUS
 62
     5
 10
114.9319449999999
 20
172.0
 30
0.0
 11
114.98294799999989
 21
174.92196100000001
 31
0.0
  0
LINE
  5
263
  8
DETAIL
  6
CONTINUOUS
 62
     5
 10
116.064099
 20
174.92196100000001
 30
0.0
 11
116.05973
 21
175.1722069999999
 31
0.0
  0
LINE
  5
264
  8
DETAIL
  6
CONTINUOUS
 62
     5
 10
108.401431
 20
182.601934
 30
0.0
 11
108.404611
 21
182.59174200000001
 31
0.0
  0
LINE
  5
265
  8
DETAIL
  6
CONTINUOUS
 62
     5
 10
108.392104
 20
182.61206799999999
 30
0.0
 11
108.401431
 21
182.601934
 31
0.0
  0
LINE
  5
266
  8
DETAIL
  6
CONTINUOUS
 62
     5
 10
108.376724
 20
182.62184199999999
 30
0.0
 11
108.392104
 21
182.61206799999999
 31
0.0
  0
LINE
  5
267
  8
DETAIL
  6
CONTINUOUS
 62
     5
 10
108.355474
 20
182.63119800000001
 30
0.0
 11
108.376724
 21
182.62184199999999
 31
0.0
  0
LINE
  5
268
  8
DETAIL
  6
CONTINUOUS
 62
     5
 10
108.32858899999989
 20
182.64002500000001
 30
0.0
 11
108.355474
 21
182.63119800000001
 31
0.0
  0
LINE
  5
269
  8
DETAIL
  6
CONTINUOUS
 62
     5
 10
108.296381
 20
182.648203
 30
0.0
 11
108.32858899999989
 21
182.64002500000001
 31
0.0
  0
LINE
  5
26A
  8
DETAIL
  6
CONTINUOUS
 62
     5
 10
108.259221
 20
182.65563399999991
 30
0.0
 11
108.296381
 21
182.648203
 31
0.0
  0
LINE
  5
26B
  8
DETAIL
  6
CONTINUOUS
 62
     5
 10
108.217556
 20
182.66222300000001
 30
0.0
 11
108.259221
 21
182.65563399999991
 31
0.0
  0
LINE
  5
26C
  8
DETAIL
  6
CONTINUOUS
 62
     5
 10
108.171876
 20
182.66788099999991
 30
0.0
 11
108.217556
 21
182.66222300000001
 31
0.0
  0
LINE
  5
26D
  8
DETAIL
  6
CONTINUOUS
 62
     5
 10
108.122733
 20
182.67253299999999
 30
0.0
 11
108.171876
 21
182.66788099999991
 31
0.0
  0
LINE
  5
26E
  8
DETAIL
  6
CONTINUOUS
 62
     5
 10
108.0706879999999
 20
182.676119
 30
0.0
 11
108.122733
 21
182.67253299999999
 31
0.0
  0
LINE
  5
26F
  8
DETAIL
  6
CONTINUOUS
 62
     5
 10
108.01651099999999
 20
182.678574
 30
0.0
 11
108.0706879999999
 21
182.676119
 31
0.0
  0
LINE
  5
270
  8
DETAIL
  6
CONTINUOUS
 62
     5
 10
107.96101
 20
182.67987500000001
 30
0.0
 11
108.01651099999999
 21
182.678574
 31
0.0
  0
LINE
  5
271
  8
DETAIL
  6
CONTINUOUS
 62
     5
 10
114.98294799999989
 20
174.92196100000001
 30
0.0
 11
117.56483900000001
 21
174.92196100000001
 31
0.0
  0
LINE
  5
272
  8
DETAIL
  6
CONTINUOUS
 62
     5
 10
115.836057
 20
183.4981919999999
 30
0.0
 11
115.723859
 21
183.4741799999999
 31
0.0
  0
LINE
  5
273
  8
DETAIL
  6
CONTINUOUS
 62
     5
 10
115.86352599999999
 20
183.50391500000001
 30
0.0
 11
115.836057
 21
183.4981919999999
 31
0.0
  0
LINE
  5
274
  8
DETAIL
  6
CONTINUOUS
 62
     5
 10
115.8853179999999
 20
183.50833700000001
 30
0.0
 11
115.86352599999999
 21
183.50391500000001
 31
0.0
  0
LINE
  5
275
  8
DETAIL
  6
CONTINUOUS
 62
     5
 10
115.90118
 20
183.511416
 30
0.0
 11
115.8853179999999
 21
183.50833700000001
 31
0.0
  0
LINE
  5
276
  8
DETAIL
  6
CONTINUOUS
 62
     5
 10
115.910866
 20
183.51307099999991
 30
0.0
 11
115.90118
 21
183.511416
 31
0.0
  0
LINE
  5
277
  8
DETAIL
  6
CONTINUOUS
 62
     5
 10
115.914134
 20
183.51333
 30
0.0
 11
115.910866
 21
183.51307099999991
 31
0.0
  0
LINE
  5
278
  8
DETAIL
  6
CONTINUOUS
 62
     5
 10
115.9374219999999
 20
182.17909499999999
 30
0.0
 11
115.914134
 21
183.51333
 31
0.0
  0
LINE
  5
279
  8
DETAIL
  6
CONTINUOUS
 62
     5
 10
108.469362
 20
175.1722069999999
 30
0.0
 11
108.497046
 21
172.0
 31
0.0
  0
LINE
  5
27A
  8
DETAIL
  6
CONTINUOUS
 62
     5
 10
119.06307700000001
 20
178.17515900000001
 30
0.0
 11
119.06307700000001
 21
181.178111
 31
0.0
  0
ARC
  5
27B
  8
DETAIL
  6
CONTINUOUS
 62
     5
 10
118.0620929999999
 20
181.178111
 30
0.0
 40
1.0009840000000001
 50
0.0
 51
90.0
  0
ARC
  5
27C
  8
DETAIL
  6
CONTINUOUS
 62
     5
 10
122.0478879999999
 20
176.17319099999989
 30
0.0
 40
2.0019680000000002
 50
1.0
 51
90.0
  0
ARC
  5
27D
  8
DETAIL
  6
CONTINUOUS
 62
     5
 10
107.8159789999999
 20
192.68942699999999
 30
0.0
 40
0.5004920000000001
 50
50.96434099999999
 51
90.0
  0
LINE
  5
27E
  8
DETAIL
  6
CONTINUOUS
 62
     5
 10
108.270944
 20
192.80931599999991
 30
0.0
 11
108.27737999999999
 21
192.7608559999999
 31
0.0
  0
LINE
  5
27F
  8
DETAIL
  6
CONTINUOUS
 62
     5
 10
108.260981
 20
192.85649699999999
 30
0.0
 11
108.270944
 21
192.80931599999991
 31
0.0
  0
LINE
  5
280
  8
DETAIL
  6
CONTINUOUS
 62
     5
 10
108.247474
 20
192.90217200000001
 30
0.0
 11
108.260981
 21
192.85649699999999
 31
0.0
  0
LINE
  5
281
  8
DETAIL
  6
CONTINUOUS
 62
     5
 10
108.2304689999999
 20
192.94526099999999
 30
0.0
 11
108.247474
 21
192.90217200000001
 31
0.0
  0
LINE
  5
282
  8
DETAIL
  6
CONTINUOUS
 62
     5
 10
108.209807
 20
192.98519499999989
 30
0.0
 11
108.2304689999999
 21
192.94526099999999
 31
0.0
  0
LINE
  5
283
  8
DETAIL
  6
CONTINUOUS
 62
     5
 10
108.18609599999991
 20
193.020983
 30
0.0
 11
108.209807
 21
192.98519499999989
 31
0.0
  0
LINE
  5
284
  8
DETAIL
  6
CONTINUOUS
 62
     5
 10
108.1599409999999
 20
193.051795
 30
0.0
 11
108.18609599999991
 21
193.020983
 31
0.0
  0
LINE
  5
285
  8
DETAIL
  6
CONTINUOUS
 62
     5
 10
108.1311479999999
 20
193.078227
 30
0.0
 11
108.1599409999999
 21
193.051795
 31
0.0
  0
LINE
  5
286
  8
DETAIL
  6
CONTINUOUS
 62
     5
 10
108.31892000000001
 20
192.28025400000001
 30
0.0
 11
108.320881
 21
192.18612100000001
 31
0.0
  0
LINE
  5
287
  8
DETAIL
  6
CONTINUOUS
 62
     5
 10
108.315282
 20
192.370496
 30
0.0
 11
108.31892000000001
 21
192.28025400000001
 31
0.0
  0
LINE
  5
288
  8
DETAIL
  6
CONTINUOUS
 62
     5
 10
108.3098939999999
 20
192.45677499999991
 30
0.0
 11
108.315282
 21
192.370496
 31
0.0
  0
LINE
  5
289
  8
DETAIL
  6
CONTINUOUS
 62
     5
 10
108.3029929999999
 20
192.539321
 30
0.0
 11
108.3098939999999
 21
192.45677499999991
 31
0.0
  0
LINE
  5
28A
  8
DETAIL
  6
CONTINUOUS
 62
     5
 10
108.294832
 20
192.61835199999999
 30
0.0
 11
108.3029929999999
 21
192.539321
 31
0.0
  0
LINE
  5
28B
  8
DETAIL
  6
CONTINUOUS
 62
     5
 10
108.285329
 20
192.69379599999999
 30
0.0
 11
108.294832
 21
192.61835199999999
 31
0.0
  0
LINE
  5
28C
  8
DETAIL
  6
CONTINUOUS
 62
     5
 10
108.283097
 20
192.71074200000001
 30
0.0
 11
108.285329
 21
192.69379599999999
 31
0.0
  0
LINE
  5
28D
  8
DETAIL
  6
CONTINUOUS
 62
     5
 10
108.2810129999999
 20
192.727565
 30
0.0
 11
108.283097
 21
192.71074200000001
 31
0.0
  0
LINE
  5
28E
  8
DETAIL
  6
CONTINUOUS
 62
     5
 10
108.2791049999999
 20
192.744269
 30
0.0
 11
108.2810129999999
 21
192.727565
 31
0.0
  0
LINE
  5
28F
  8
DETAIL
  6
CONTINUOUS
 62
     5
 10
108.27737999999999
 20
192.7608559999999
 30
0.0
 11
108.2791049999999
 21
192.744269
 31
0.0
  0
LINE
  5
290
  8
DETAIL
  6
CONTINUOUS
 62
     5
 10
111.429078
 20
192.99143599999991
 30
0.0
 11
111.513785
 21
193.12117499999991
 31
0.0
  0
LINE
  5
291
  8
DETAIL
  6
CONTINUOUS
 62
     5
 10
111.236059
 20
192.69379599999999
 30
0.0
 11
111.429078
 21
192.99143599999991
 31
0.0
  0
LINE
  5
292
  8
DETAIL
  6
CONTINUOUS
 62
     5
 10
111.541977
 20
193.1639879999999
 30
0.0
 11
111.55731
 21
193.18693400000001
 31
0.0
  0
LINE
  5
293
  8
DETAIL
  6
CONTINUOUS
 62
     5
 10
111.513785
 20
193.12117499999991
 30
0.0
 11
111.541977
 21
193.1639879999999
 31
0.0
  0
LINE
  5
294
  8
DETAIL
  6
CONTINUOUS
 62
     5
 10
111.55731
 20
193.18693400000001
 30
0.0
 11
111.5596709999999
 21
193.189919
 31
0.0
  0
ARC
  5
295
  8
DETAIL
  6
DASHED
 62
     5
 10
-0.766236
 20
109.0000969999999
 30
0.0
 40
54.20570699999999
 50
198.27754899999999
 51
161.72245099999989
  0
CIRCLE
  5
296
  8
DETAIL
  6
DASHED
 62
     5
 10
-0.766236
 20
109.0000969999999
 30
0.0
 40
53.000047000000002
  0
CIRCLE
  5
297
  8
DETAIL
  6
DASHED
 62
     5
 10
-0.766236
 20
109.0000969999999
 30
0.0
 40
47.000042000000001
  0
LINE
  5
298
  8
DETAIL
  6
DASHED
 62
     5
 10
-45.766275999999998
 20
95.500085000000027
 30
0.0
 11
-45.766275999999998
 21
115.5629389999999
 31
0.0
  0
LINE
  5
299
  8
DETAIL
  6
DASHED
 62
     5
 10
-47.266278
 20
115.837504
 30
0.0
 11
-47.266278
 21
111.00009900000001
 31
0.0
  0
LINE
  5
29A
  8
DETAIL
  6
DASHED
 62
     5
 10
73.253848000000005
 20
0.0
 30
0.0
 11
75.749609000000007
 21
164.96989500000001
 31
0.0
  0
ARC
  5
29B
  8
DETAIL
  6
DASHED
 62
     5
 10
0.0
 20
109.0000969999999
 30
0.0
 40
47.000042000000001
 50
0.0
 51
16.057133
  0
LINE
  5
29C
  8
DETAIL
  6
DASHED
 62
     5
 10
-44.500039999999991
 20
112.0001
 30
0.0
 11
-44.500039999999991
 21
124.1245929999999
 31
0.0
  0
LINE
  5
29D
  8
DETAIL
  6
DASHED
 62
     5
 10
28.733789999999988
 20
111.00009900000001
 30
0.0
 11
-45.766275999999998
 21
111.00009900000001
 31
0.0
  0
LINE
  5
29E
  8
DETAIL
  6
DASHED
 62
     5
 10
25.733788000000001
 20
107.000096
 30
0.0
 11
-45.766275999999998
 21
107.000096
 31
0.0
  0
LINE
  5
29F
  8
DETAIL
  6
DASHED
 62
     5
 10
-0.0000022482653321
 20
53.852152948242733
 30
0.0
 11
-2.045732779595248
 21
53.888651115602961
 31
0.0
  0
LINE
  5
2A0
  8
DETAIL
  6
DASHED
 62
     5
 10
-2.045732779595248
 20
53.888651115602961
 30
0.0
 11
-4.0914633109226353
 21
53.990845984211539
 31
0.0
  0
LINE
  5
2A1
  8
DETAIL
  6
DASHED
 62
     5
 10
-4.0914633109226353
 20
53.990845984211539
 30
0.0
 11
-6.1371938422478589
 21
54.147788103860421
 31
0.0
  0
LINE
  5
2A2
  8
DETAIL
  6
DASHED
 62
     5
 10
-6.1371938422478589
 20
54.147788103860421
 30
0.0
 11
-8.1829243735712822
 21
54.348528024341533
 31
0.0
  0
LINE
  5
2A3
  8
DETAIL
  6
DASHED
 62
     5
 10
-8.1829243735712822
 20
54.348528024341533
 30
0.0
 11
-10.22865490489327
 21
54.582116295446738
 31
0.0
  0
LINE
  5
2A4
  8
DETAIL
  6
DASHED
 62
     5
 10
-10.22865490489327
 20
54.582116295446738
 30
0.0
 11
-12.2743854362142
 21
54.837603466968019
 31
0.0
  0
LINE
  5
2A5
  8
DETAIL
  6
DASHED
 62
     5
 10
-12.2743854362142
 20
54.837603466968019
 30
0.0
 11
-14.320115967534431
 21
55.104040088697268
 31
0.0
  0
LINE
  5
2A6
  8
DETAIL
  6
DASHED
 62
     5
 10
-47.184218999999999
 20
40.011923999999993
 30
0.0
 11
68.934237999999993
 21
40.011923999999993
 31
0.0
  0
LINE
  5
2A7
  8
DETAIL
  6
DASHED
 62
     5
 10
-47.196966000000003
 20
40.854272000000002
 30
0.0
 11
68.946978999999999
 21
40.854272000000002
 31
0.0
  0
LINE
  5
2A8
  8
DETAIL
  6
DASHED
 62
     5
 10
69.137596999999985
 20
53.454247999999993
 30
0.0
 11
-47.387583999999997
 21
53.454247999999993
 31
0.0
  0
ARC
  5
2A9
  8
DETAIL
  6
DASHED
 62
     5
 10
0.0
 20
109.0000969999999
 30
0.0
 40
47.000042000000001
 50
198.61146400000001
 51
0.0
  0
LINE
  5
2AA
  8
DETAIL
  6
DASHED
 62
     5
 10
-47.382283999999991
 20
55.104036999999998
 30
0.0
 11
-14.320119
 21
55.104036999999998
 31
0.0
  0
ARC
  5
2AB
  8
DETAIL
  6
DASHED
 62
     5
 10
-47.184218999999999
 20
45.011927999999997
 30
0.0
 40
5.0000039999999988
 50
180.86673799999991
 51
270.0
  0
ARC
  5
2AC
  8
DETAIL
  6
DASHED
 62
     5
 10
-47.196966000000003
 20
45.854275999999999
 30
0.0
 40
5.0000039999999988
 50
180.86673799999991
 51
270.0
  0
ARC
  5
2AD
  8
DETAIL
  6
DASHED
 62
     5
 10
-47.387583999999997
 20
58.454251999999997
 30
0.0
 40
5.0000039999999988
 50
180.86673799999991
 51
270.0
  0
ARC
  5
2AE
  8
DETAIL
  6
DASHED
 62
     5
 10
-47.382283999999991
 20
58.104039999999998
 30
0.0
 40
3.0000029999999991
 50
180.86673799999991
 51
270.0
  0
LINE
  5
2AF
  8
DETAIL
  6
DASHED
 62
     5
 10
-44.313474999999997
 20
77.000068999999982
 30
0.0
 11
-50.719239000000002
 21
88.378478999999984
 31
0.0
  0
LINE
  5
2B0
  8
DETAIL
  6
DASHED
 62
     5
 10
-50.847839999999991
 20
88.854349999999997
 30
0.0
 11
-50.84310399999999
 21
88.771214999999984
 31
0.0
  0
LINE
  5
2B1
  8
DETAIL
  6
DASHED
 62
     5
 10
-50.84310399999999
 20
88.771214999999984
 30
0.0
 11
-50.831603999999999
 21
88.689319999999995
 31
0.0
  0
LINE
  5
2B2
  8
DETAIL
  6
DASHED
 62
     5
 10
-50.831603999999999
 20
88.689319999999995
 30
0.0
 11
-50.813274999999997
 21
88.608378999999985
 31
0.0
  0
LINE
  5
2B3
  8
DETAIL
  6
DASHED
 62
     5
 10
-50.813274999999997
 20
88.608378999999985
 30
0.0
 11
-50.788339999999998
 21
88.529225999999966
 31
0.0
  0
LINE
  5
2B4
  8
DETAIL
  6
DASHED
 62
     5
 10
-50.788339999999998
 20
88.529225999999966
 30
0.0
 11
-50.757016
 21
88.452685000000017
 31
0.0
  0
LINE
  5
2B5
  8
DETAIL
  6
DASHED
 62
     5
 10
-50.757016
 20
88.452685000000017
 30
0.0
 11
-50.719239000000002
 21
88.378478999999984
 31
0.0
  0
LINE
  5
2B6
  8
DETAIL
  6
DASHED
 62
     5
 10
-47.72370699999999
 20
111.00009900000001
 30
0.0
 11
-47.266278
 21
111.00009900000001
 31
0.0
  0
LINE
  5
2B7
  8
DETAIL
  6
DASHED
 62
     5
 10
-47.72370699999999
 20
107.000096
 30
0.0
 11
-47.266278
 21
107.000096
 31
0.0
  0
LINE
  5
2B8
  8
DETAIL
  6
DASHED
 62
     5
 10
-47.266278
 20
111.00009900000001
 30
0.0
 11
-47.266278
 21
107.000096
 31
0.0
  0
LINE
  5
2B9
  8
DETAIL
  6
DASHED
 62
     5
 10
-47.266278
 20
107.000096
 30
0.0
 11
-47.266278
 21
102.16269699999999
 31
0.0
  0
LINE
  5
2BA
  8
DETAIL
  6
DASHED
 62
     5
 10
-47.000042000000001
 20
112.2500999999999
 30
0.0
 11
-44.500039999999991
 21
112.2500999999999
 31
0.0
  0
LINE
  5
2BB
  8
DETAIL
  6
DASHED
 62
     5
 10
-44.500039999999991
 20
114.250102
 30
0.0
 11
-46.705905999999992
 21
114.250102
 31
0.0
  0
LINE
  5
2BC
  8
DETAIL
  6
DASHED
 62
     5
 10
-47.000042000000001
 20
105.750095
 30
0.0
 11
-44.500039999999991
 21
105.750095
 31
0.0
  0
LINE
  5
2BD
  8
DETAIL
  6
DASHED
 62
     5
 10
-44.500039999999991
 20
104.7500939999999
 30
0.0
 11
-44.500039999999991
 21
113.250101
 31
0.0
  0
LINE
  5
2BE
  8
DETAIL
  6
DASHED
 62
     5
 10
-46.64765899999999
 20
94.000084000000001
 30
0.0
 11
-44.542157000000003
 21
94.000084000000001
 31
0.0
  0
LINE
  5
2BF
  8
DETAIL
  6
DASHED
 62
     5
 10
-44.500039999999991
 20
105.750095
 30
0.0
 11
-44.500039999999991
 21
112.0001
 31
0.0
  0
LINE
  5
2C0
  8
DETAIL
  6
DASHED
 62
     5
 10
-44.500039999999991
 20
93.875602000000015
 30
0.0
 11
-44.500039999999991
 21
105.750095
 31
0.0
  0
LINE
  5
2C1
  8
DETAIL
  6
DASHED
 62
     5
 10
-44.500039999999991
 20
104.7500939999999
 30
0.0
 11
-44.500039999999991
 21
113.250101
 31
0.0
  0
LINE
  5
2C2
  8
DETAIL
  6
DASHED
 62
     5
 10
-46.887542000000003
 20
105.750095
 30
0.0
 11
-44.500039999999991
 21
105.750095
 31
0.0
  0
LINE
  5
2C3
  8
DETAIL
  6
DASHED
 62
     5
 10
-46.887542000000003
 20
112.2500999999999
 30
0.0
 11
-44.500039999999991
 21
112.2500999999999
 31
0.0
  0
LINE
  5
2C4
  8
DETAIL
  6
DASHED
 62
     5
 10
14.320112999999999
 20
55.104036999999998
 30
0.0
 11
69.354944000000003
 21
55.104036999999998
 31
0.0
  0
LINE
  5
2C5
  8
DETAIL
  6
DASHED
 62
     5
 10
14.320111471106539
 20
55.104040088697268
 30
0.0
 11
12.27438093976415
 21
54.837603466968012
 31
0.0
  0
LINE
  5
2C6
  8
DETAIL
  6
DASHED
 62
     5
 10
12.27438093976415
 20
54.837603466968012
 30
0.0
 11
10.228650408422411
 21
54.582116295446738
 31
0.0
  0
LINE
  5
2C7
  8
DETAIL
  6
DASHED
 62
     5
 10
10.228650408422411
 20
54.582116295446738
 30
0.0
 11
8.1829198770816536
 21
54.34852802434154
 31
0.0
  0
LINE
  5
2C8
  8
DETAIL
  6
DASHED
 62
     5
 10
8.1829198770816536
 20
54.34852802434154
 30
0.0
 11
6.1371893457421791
 21
54.147788103860421
 31
0.0
  0
LINE
  5
2C9
  8
DETAIL
  6
DASHED
 62
     5
 10
6.1371893457421791
 20
54.147788103860421
 30
0.0
 11
4.0914588144043122
 21
53.990845984211532
 31
0.0
  0
LINE
  5
2CA
  8
DETAIL
  6
DASHED
 62
     5
 10
4.0914588144043122
 20
53.990845984211532
 30
0.0
 11
2.0457282830683678
 21
53.888651115602961
 31
0.0
  0
LINE
  5
2CB
  8
DETAIL
  6
DASHED
 62
     5
 10
2.0457282830683678
 20
53.888651115602961
 30
0.0
 11
-0.0000022482653321
 21
53.852152948242733
 31
0.0
  0
LINE
  5
2CC
  8
DETAIL
  6
DASHED
 62
     5
 10
46.191229999999997
 20
111.00009900000001
 30
0.0
 11
17.733781
 21
111.00009900000001
 31
0.0
  0
LINE
  5
2CD
  8
DETAIL
  6
DASHED
 62
     5
 10
46.191229999999997
 20
107.000096
 30
0.0
 11
18.233781
 21
107.000096
 31
0.0
  0
ARC
  5
2CE
  8
DETAIL
  6
DASHED
 62
     5
 10
68.946978999999999
 20
45.854275999999999
 30
0.0
 40
5.0000039999999988
 50
270.0
 51
359.133262
  0
ARC
  5
2CF
  8
DETAIL
  6
DASHED
 62
     5
 10
68.934237999999993
 20
45.011927999999997
 30
0.0
 40
5.0000039999999988
 50
270.0
 51
359.133262
  0
ARC
  5
2D0
  8
DETAIL
  6
DASHED
 62
     5
 10
69.137596999999985
 20
58.454251999999997
 30
0.0
 40
5.0000039999999988
 50
270.0
 51
359.133262
  0
ARC
  5
2D1
  8
DETAIL
  6
DASHED
 62
     5
 10
69.354944000000003
 20
58.104039999999998
 30
0.0
 40
3.0000029999999991
 50
270.0
 51
359.12426900000008
  0
ARC
  5
2D2
  8
DETAIL
  6
DASHED
 62
     5
 10
-0.766236
 20
109.0000969999999
 30
0.0
 40
47.000042000000001
 50
33.923112000000003
 51
161.3885359999999
  0
LINE
  5
2D3
  8
DETAIL
  6
DASHED
 62
     5
 10
73.749836999999999
 20
167.00014899999991
 30
0.0
 11
-51.50004599999999
 21
167.00014899999991
 31
0.0
  0
LINE
  5
2D4
  8
DETAIL
  6
DASHED
 62
     5
 10
-53.500048
 20
165.000148
 30
0.0
 11
-53.500048
 21
0.0
 31
0.0
  0
ARC
  5
2D5
  8
DETAIL
  6
DASHED
 62
     5
 10
0.0
 20
109.0000969999999
 30
0.0
 40
47.000042000000001
 50
112.5183139999999
 51
161.2283339999999
  0
LINE
  5
2D6
  8
DETAIL
  6
DASHED
 62
     5
 10
-47.266278
 20
115.5629389999999
 30
0.0
 11
-45.766275999999998
 21
115.5629389999999
 31
0.0
  0
ARC
  5
2D7
  8
DETAIL
  6
DASHED
 62
     5
 10
-51.50004599999999
 20
165.000148
 30
0.0
 40
2.0000019999999989
 50
90.0
 51
180.0
  0
ARC
  5
2D8
  8
DETAIL
  6
DASHED
 62
     5
 10
0.0
 20
109.0000969999999
 30
0.0
 40
47.000042000000001
 50
21.204765999999999
 51
67.481685999999996
  0
LINE
  5
2D9
  8
DETAIL
  6
DASHED
 62
     5
 10
73.303460000000001
 20
182.5001629999999
 30
0.0
 11
73.240589
 21
182.5001629999999
 31
0.0
  0
ARC
  5
2DA
  8
DETAIL
  6
DASHED
 62
     5
 10
73.749836999999999
 20
165.000148
 30
0.0
 40
2.0000019999999989
 50
359.133262
 51
90.0
  0
CIRCLE
  5
2DB
  8
DETAIL
  6
DASHED
 62
     5
 39
50.0
 10
0.0
 20
108.609632
 30
0.0
 40
49.0
  0
CIRCLE
  5
2DC
  8
DETAIL
  6
DASHED
 62
     5
 39
50.0
 10
0.0
 20
108.609632
 30
0.0
 40
52.5
  0
LINE
  5
2DD
  8
DETAIL
  6
CONTINUOUS
 62
     5
 10
160.15791300000001
 20
170.0
 30
0.0
 11
84.157912999999979
 21
170.0
 31
0.0
  0
LINE
  5
2DE
  8
DETAIL
  6
CONTINUOUS
 62
     5
 10
84.123002999999983
 20
172.0
 30
0.0
 11
87.125276999999983
 21
0.0
 31
0.0
  0
LINE
  5
2DF
  8
DETAIL
  6
CONTINUOUS
 62
     5
 10
160.12300300000001
 20
172.0
 30
0.0
 11
84.123002999999983
 21
172.0
 31
0.0
  0
LINE
  5
2E0
  8
DETAIL
  6
CONTINUOUS
 62
     5
 10
160.12300300000001
 20
172.0
 30
0.0
 11
160.15791300000001
 21
170.0
 31
0.0
  0
LINE
  5
2E1
  8
DETAIL
  6
CONTINUOUS
 62
     5
 10
-160.15791300000001
 20
170.0
 30
0.0
 11
-145.934045
 21
170.0
 31
0.0
  0
LINE
  5
2E2
  8
DETAIL
  6
CONTINUOUS
 62
     5
 10
-160.12300300000001
 20
172.0
 30
0.0
 11
-144.46559300000001
 21
172.0
 31
0.0
  0
LINE
  5
2E3
  8
DETAIL
  6
CONTINUOUS
 62
     5
 39
50.0
 10
-160.12300300000001
 20
172.0
 30
0.0
 11
-160.15791300000001
 21
170.0
 31
0.0
  0
LINE
  5
2E4
  8
DETAIL
  6
CONTINUOUS
 62
     5
 39
50.0
 10
93.0
 20
160.0
 30
0.0
 11
93.0
 21
170.0
 31
0.0
  0
LINE
  5
2E5
  8
DETAIL
  6
CONTINUOUS
 62
     5
 39
50.0
 10
117.0
 20
160.0
 30
0.0
 11
117.0
 21
170.0
 31
0.0
  0
LINE
  5
2E6
  8
DETAIL
  6
CONTINUOUS
 62
     5
 10
117.0
 20
160.0
 30
0.0
 11
93.0
 21
160.0
 31
0.0
  0
LINE
  5
2E7
  8
OUTLINE
  6
CONTINUOUS
 62
     3
 10
28.027059000000001
 20
175.69498400000001
 30
0.0
 11
29.775131999999999
 21
172.8640959999999
 31
0.0
  0
LINE
  5
2E8
  8
OUTLINE
  6
CONTINUOUS
 62
     3
 10
97.179823000000013
 20
182.17909499999999
 30
0.0
 11
90.034540000000007
 21
182.17909499999999
 31
0.0
  0
TEXT
  5
2E9
  8
ETC
  6
CONTINUOUS
 62
    61
 10
669.59423200000003
 20
601.87529800000004
 30
0.0
 40
40.0
  1
VD-13ZFC9-BL
 41
0.9
  0
TEXT
  5
2EA
  8
ETC
  6
CONTINUOUS
 62
    61
 10
669.59423200000003
 20
521.87529800000004
 30
0.0
 40
40.0
  1
VD-13ZFC9
 41
0.9
  0
TEXT
  5
2EB
  8
ETC
  6
CONTINUOUS
 62
    61
 10
669.59423200000003
 20
441.87529799999987
 30
0.0
 40
40.0
  1
VD-15ZFC9
 41
0.9
  0
TEXT
  5
2EC
  8
ETC
  6
CONTINUOUS
 62
    61
 10
669.59423200000003
 20
361.87529799999999
 30
0.0
 40
40.0
  1
VD-15ZFC9-BL
 41
0.9
  0
TEXT
  5
2ED
  8
ETC
  6
CONTINUOUS
 62
    61
 10
1169.594231999999
 20
601.87529800000004
 30
0.0
 40
40.0
  1
VD-15ZFLC9
 41
0.9
  0
TEXT
  5
2EE
  8
ETC
  6
CONTINUOUS
 62
    61
 10
1169.594231999999
 20
521.87529800000004
 30
0.0
 40
40.0
  1
VD-15ZFLC9-S
 41
0.9
  0
TEXT
  5
2EF
  8
ETC
  6
CONTINUOUS
 62
    61
 10
1169.594231999999
 20
441.87529799999987
 30
0.0
 40
40.0
  1
VD-15ZFPC9
 41
0.9
  0
TEXT
  5
2F0
  8
ETC
  6
CONTINUOUS
 62
    61
 10
1169.594231999999
 20
361.87529799999999
 30
0.0
 40
40.0
  1
VD-15ZFPC9-BL
 41
0.9
  0
ARC
  5
2F1
  8
DETAIL
  6
DASHED
 62
     5
 10
-186.98190999999991
 20
128.94637299999999
 30
0.0
 40
64.481286999999995
 50
269.98337099999992
 51
314.11139999999989
  0
LINE
  5
2F2
  8
DETAIL
  6
DASHED
 62
     5
 10
-187.00062299999991
 20
64.465086999999997
 30
0.0
 11
-187.00062299999991
 21
153.46508700000001
 31
0.0
  0
LINE
  5
2F3
  8
DETAIL
  6
CONTINUOUS
 62
     5
 10
-144.389523
 20
53.991733000000011
 30
0.0
 11
-144.389523
 21
166.00438700000001
 31
0.0
  0
LINE
  5
2F4
  8
DETAIL
  6
CONTINUOUS
 62
     5
 10
-207.00062299999991
 20
60.460740000000001
 30
0.0
 11
-207.00062299999991
 21
157.4694329999999
 31
0.0
  0
LINE
  5
2F5
  8
DETAIL
  6
CONTINUOUS
 62
     5
 10
-182.00062299999991
 20
59.746912999999992
 30
0.0
 11
-182.00062299999991
 21
158.18325999999999
 31
0.0
  0
LINE
  5
2F6
  8
DETAIL
  6
CONTINUOUS
 62
     5
 10
-182.00062299999991
 20
59.746912999999992
 30
0.0
 11
-206.50498999999991
 21
59.960760000000001
 31
0.0
  0
ARC
  5
2F7
  8
DETAIL
  6
CONTINUOUS
 62
     5
 10
-206.50062299999991
 20
60.460740000000001
 30
0.0
 40
0.5
 50
180.0
 51
269.5
  0
LINE
  5
2F8
  8
DETAIL
  6
CONTINUOUS
 62
     5
 10
-147.00093000000001
 20
56.016927000000003
 30
0.0
 11
-126.30273
 21
39.96508699999999
 31
0.0
  0
LINE
  5
2F9
  8
DETAIL
  6
CONTINUOUS
 62
     5
 10
-147.00093000000001
 20
56.016927000000003
 30
0.0
 11
-177.50062299999991
 21
56.465086999999997
 31
0.0
  0
LINE
  5
2FA
  8
DETAIL
  6
CONTINUOUS
 62
     5
 10
-182.00062299999991
 20
59.746912999999992
 30
0.0
 11
-177.50062299999991
 21
56.465086999999997
 31
0.0
  0
LINE
  5
2FB
  8
DETAIL
  6
DASHED
 62
     5
 10
-205.03184999999991
 20
145.5821
 30
0.0
 11
-203.617637
 21
146.9963129999999
 31
0.0
  0
LINE
  5
2FC
  8
DETAIL
  6
DASHED
 62
     5
 10
-142.099343
 20
82.649592999999996
 30
0.0
 11
-205.03184999999991
 21
145.5821
 31
0.0
  0
LINE
  5
2FD
  8
DETAIL
  6
CONTINUOUS
 62
     5
 10
-182.00062299999991
 20
158.18325999999999
 30
0.0
 11
-206.50498999999991
 21
157.969413
 31
0.0
  0
ARC
  5
2FE
  8
DETAIL
  6
CONTINUOUS
 62
     5
 10
-206.50062299999991
 20
157.4694329999999
 30
0.0
 40
0.5
 50
90.5
 51
180.0
  0
LINE
  5
2FF
  8
DETAIL
  6
DASHED
 62
     5
 10
-142.099343
 20
82.649592999999996
 30
0.0
 11
-140.6851299999999
 21
84.063806999999969
 31
0.0
  0
LINE
  5
300
  8
DETAIL
  6
DASHED
 62
     5
 10
-140.6851299999999
 20
84.063806999999969
 30
0.0
 11
-203.617637
 21
146.9963129999999
 31
0.0
  0
LINE
  5
301
  8
DETAIL
  6
CONTINUOUS
 62
     5
 10
-148.35462299999989
 20
161.02176
 30
0.0
 11
-175.00062299999991
 21
160.55665300000001
 31
0.0
  0
LINE
  5
302
  8
DETAIL
  6
DASHED
 62
     5
 10
-197.72251
 20
128.96508700000001
 30
0.0
 11
-176.9317969999999
 21
128.96508700000001
 31
0.0
  0
CIRCLE
  5
303
  8
DETAIL
  6
DASHED
 62
     5
 10
-187.00062299999991
 20
128.96508700000001
 30
0.0
 40
3.0
  0
ARC
  5
304
  8
DETAIL
  6
CONTINUOUS
 62
     5
 10
-175.50062299999999
 20
160.96508700000001
 30
0.0
 40
0.5
 50
0.0
 51
90.0
  0
LINE
  5
305
  8
DETAIL
  6
CONTINUOUS
 62
     5
 10
-175.00062299999991
 20
160.55665300000001
 30
0.0
 11
-175.00062299999991
 21
160.96508700000001
 31
0.0
  0
LINE
  5
306
  8
DETAIL
  6
CONTINUOUS
 62
     5
 10
-177.50062299999991
 20
161.46508700000001
 30
0.0
 11
-175.50062299999999
 21
161.46508700000001
 31
0.0
  0
LINE
  5
307
  8
DETAIL
  6
CONTINUOUS
 62
     5
 10
-177.50062299999991
 20
161.46508700000001
 30
0.0
 11
-175.50062299999999
 21
161.46508700000001
 31
0.0
  0
LINE
  5
308
  8
DETAIL
  6
CONTINUOUS
 62
     5
 10
-182.00062299999991
 20
158.18325999999999
 30
0.0
 11
-177.50062299999991
 21
161.46508700000001
 31
0.0
  0
LINE
  5
309
  8
DETAIL
  6
CONTINUOUS
 62
     5
 10
-146.389523
 20
163.02145999999991
 30
0.0
 11
-146.389523
 21
164.013013
 31
0.0
  0
ARC
  5
30A
  8
DETAIL
  6
CONTINUOUS
 62
     5
 10
-144.389523
 20
164.013013
 30
0.0
 40
2.0
 50
90.0
 51
180.0
  0
ARC
  5
30B
  8
DETAIL
  6
CONTINUOUS
 62
     5
 10
-148.38952299999991
 20
163.02145999999991
 30
0.0
 40
2.0
 50
271.0
 51
0.0
  0
LINE
  5
30C
  8
DETAIL
  6
CONTINUOUS
 62
     5
 10
167.00032999999991
 20
55.500112999999999
 30
0.0
 11
167.00032999999991
 21
161.500113
 31
0.0
  0
LINE
  5
30D
  8
DETAIL
  6
CONTINUOUS
 62
     5
 10
167.00032999999991
 20
57.500186999999997
 30
0.0
 11
167.00032999999991
 21
159.49999999999989
 31
0.0
  0
LINE
  5
30E
  8
DETAIL
  6
CONTINUOUS
 62
     5
 10
237.00032999999999
 20
157.00442000000001
 30
0.0
 11
237.00032999999999
 21
59.995579999999997
 31
0.0
  0
LINE
  5
30F
  8
DETAIL
  6
CONTINUOUS
 62
     5
 10
203.58156299999999
 20
55.995072999999991
 30
0.0
 11
203.58156299999999
 21
161.00491999999991
 31
0.0
  0
LINE
  5
310
  8
DETAIL
  6
CONTINUOUS
 62
     5
 10
207.00032999999991
 20
157.93760700000001
 30
0.0
 11
207.00032999999991
 21
59.062393000000007
 31
0.0
  0
LINE
  5
311
  8
DETAIL
  6
CONTINUOUS
 62
     5
 10
167.106617
 20
55.50104000000001
 30
0.0
 11
202.7633699999999
 21
55.812207000000001
 31
0.0
  0
LINE
  5
312
  8
DETAIL
  6
CONTINUOUS
 62
     5
 10
167.106617
 20
55.50104000000001
 30
0.0
 11
202.7633699999999
 21
55.812207000000001
 31
0.0
  0
LINE
  5
313
  8
DETAIL
  6
CONTINUOUS
 62
     5
 10
128.00975700000001
 20
51.676712999999999
 30
0.0
 11
167.106617
 21
55.50104000000001
 31
0.0
  0
LINE
  5
314
  8
DETAIL
  6
CONTINUOUS
 62
     5
 10
128.00975700000001
 20
51.676712999999999
 30
0.0
 11
167.106617
 21
55.50104000000001
 31
0.0
  0
ARC
  5
315
  8
DETAIL
  6
CONTINUOUS
 62
     5
 10
128.10710299999991
 20
50.681460000000001
 30
0.0
 40
1.0
 50
95.586708999999999
 51
181.0
  0
ARC
  5
316
  8
DETAIL
  6
CONTINUOUS
 62
     5
 10
128.10710299999991
 20
50.681460000000001
 30
0.0
 40
1.0
 50
95.586708999999999
 51
181.0
  0
ARC
  5
317
  8
DETAIL
  6
CONTINUOUS
 62
     5
 10
128.10710299999991
 20
50.681460000000001
 30
0.0
 40
1.0
 50
95.586708999999999
 51
181.0
  0
ARC
  5
318
  8
DETAIL
  6
CONTINUOUS
 62
     5
 10
128.10710299999991
 20
50.681460000000001
 30
0.0
 40
1.0
 50
95.586708999999999
 51
181.0
  0
LINE
  5
319
  8
DETAIL
  6
CONTINUOUS
 62
     5
 10
167.00032999999991
 20
57.5
 30
0.0
 11
167.00032999999991
 21
57.513086999999999
 31
0.0
  0
LINE
  5
31A
  8
DETAIL
  6
CONTINUOUS
 62
     5
 10
167.00032999999991
 20
57.5
 30
0.0
 11
167.00032999999991
 21
57.5
 31
0.0
  0
LINE
  5
31B
  8
DETAIL
  6
CONTINUOUS
 62
     5
 10
167.00032999999991
 20
58.013086999999992
 30
0.0
 11
167.00032999999991
 21
58.017453000000003
 31
0.0
  0
LINE
  5
31C
  8
DETAIL
  6
CONTINUOUS
 62
     5
 10
167.00032999999991
 20
58.013086999999992
 30
0.0
 11
167.00032999999991
 21
58.017453000000003
 31
0.0
  0
LINE
  5
31D
  8
DETAIL
  6
CONTINUOUS
 62
     5
 10
167.00032999999991
 20
57.5
 30
0.0
 11
167.00032999999991
 21
57.5
 31
0.0
  0
LINE
  5
31E
  8
DETAIL
  6
CONTINUOUS
 62
     5
 10
167.00032999999991
 20
57.5
 30
0.0
 11
167.00032999999991
 21
57.513086999999999
 31
0.0
  0
LINE
  5
31F
  8
DETAIL
  6
CONTINUOUS
 62
     5
 10
207.81851700000001
 20
59.245260000000002
 30
0.0
 11
236.50469000000001
 21
59.495600000000003
 31
0.0
  0
LINE
  5
320
  8
DETAIL
  6
CONTINUOUS
 62
     5
 10
207.81851700000001
 20
59.245260000000002
 30
0.0
 11
236.50469000000001
 21
59.495600000000003
 31
0.0
  0
LINE
  5
321
  8
DETAIL
  6
CONTINUOUS
 62
     5
 10
206.42175700000001
 20
58.659547000000003
 30
0.0
 11
204.1601299999999
 21
56.397919999999992
 31
0.0
  0
LINE
  5
322
  8
DETAIL
  6
CONTINUOUS
 62
     5
 10
206.42175700000001
 20
58.659547000000003
 30
0.0
 11
204.1601299999999
 21
56.397919999999992
 31
0.0
  0
ARC
  5
323
  8
DETAIL
  6
CONTINUOUS
 62
     5
 10
202.74591699999991
 20
57.812133000000003
 30
0.0
 40
2.0
 50
270.5
 51
315.0
  0
ARC
  5
324
  8
DETAIL
  6
CONTINUOUS
 62
     5
 10
202.74591699999991
 20
57.812133000000003
 30
0.0
 40
2.0
 50
270.5
 51
315.0
  0
ARC
  5
325
  8
DETAIL
  6
CONTINUOUS
 62
     5
 10
207.83597
 20
57.245333000000002
 30
0.0
 40
2.0
 50
90.5
 51
135.0
  0
ARC
  5
326
  8
DETAIL
  6
CONTINUOUS
 62
     5
 10
207.83597
 20
57.245333000000002
 30
0.0
 40
2.0
 50
90.5
 51
135.0
  0
ARC
  5
327
  8
DETAIL
  6
CONTINUOUS
 62
     5
 10
236.50032999999999
 20
59.995579999999997
 30
0.0
 40
0.5
 50
270.5
 51
0.0
  0
ARC
  5
328
  8
DETAIL
  6
CONTINUOUS
 62
     5
 10
236.50032999999999
 20
59.995579999999997
 30
0.0
 40
0.5
 50
270.5
 51
0.0
  0
LINE
  5
329
  8
DETAIL
  6
CONTINUOUS
 62
     5
 10
167.02650299999991
 20
161.49966000000001
 30
0.0
 11
202.7633699999999
 21
161.1877869999999
 31
0.0
  0
LINE
  5
32A
  8
DETAIL
  6
CONTINUOUS
 62
     5
 10
167.02650299999991
 20
161.49966000000001
 30
0.0
 11
202.7633699999999
 21
161.1877869999999
 31
0.0
  0
LINE
  5
32B
  8
DETAIL
  6
CONTINUOUS
 62
     5
 10
167.02650299999991
 20
161.49966000000001
 30
0.0
 11
126.12540300000001
 21
162.21359299999989
 31
0.0
  0
LINE
  5
32C
  8
DETAIL
  6
CONTINUOUS
 62
     5
 10
167.02650299999991
 20
161.49966000000001
 30
0.0
 11
126.12540300000001
 21
162.21359299999989
 31
0.0
  0
ARC
  5
32D
  8
DETAIL
  6
CONTINUOUS
 62
     5
 10
126.14285
 20
163.21343999999991
 30
0.0
 40
1.0
 50
181.0
 51
269.0
  0
ARC
  5
32E
  8
DETAIL
  6
CONTINUOUS
 62
     5
 10
126.14285
 20
163.21343999999991
 30
0.0
 40
1.0
 50
181.0
 51
269.0
  0
LINE
  5
32F
  8
DETAIL
  6
CONTINUOUS
 62
     5
 10
207.81851700000001
 20
157.75474
 30
0.0
 11
236.50469000000001
 21
157.5044
 31
0.0
  0
LINE
  5
330
  8
DETAIL
  6
CONTINUOUS
 62
     5
 10
207.81851700000001
 20
157.75474
 30
0.0
 11
236.50469000000001
 21
157.5044
 31
0.0
  0
LINE
  5
331
  8
DETAIL
  6
DASHED
 62
     5
 10
237.00032999999999
 20
86.686580000000006
 30
0.0
 11
229.222297
 21
80.542467000000002
 31
0.0
  0
LINE
  5
332
  8
DETAIL
  6
DASHED
 62
     5
 10
238.1204899999999
 20
141.9420869999999
 30
0.0
 11
229.54737
 21
150.05145999999991
 31
0.0
  0
LINE
  5
333
  8
DETAIL
  6
DASHED
 62
     5
 10
234.36102999999989
 20
145.5171269999999
 30
0.0
 11
237.00032999999999
 21
143.02789300000001
 31
0.0
  0
LINE
  5
334
  8
DETAIL
  6
DASHED
 62
     5
 10
237.00032999999999
 20
86.664280000000005
 30
0.0
 11
234.36102999999989
 21
84.640420000000006
 31
0.0
  0
LINE
  5
335
  8
DETAIL
  6
DASHED
 62
     5
 10
203.58156299999999
 20
85.120973000000006
 30
0.0
 11
203.58156299999999
 21
108.4999999999999
 31
0.0
  0
LINE
  5
336
  8
DETAIL
  6
DASHED
 62
     5
 10
203.58156299999999
 20
85.120973000000006
 30
0.0
 11
203.58156299999999
 21
108.4999999999999
 31
0.0
  0
LINE
  5
337
  8
DETAIL
  6
DASHED
 62
     5
 10
229.222297
 20
80.542467000000002
 30
0.0
 11
205.20993000000001
 21
81.925213000000014
 31
0.0
  0
LINE
  5
338
  8
DETAIL
  6
CONTINUOUS
 62
     5
 10
206.42175700000001
 20
158.34045299999991
 30
0.0
 11
204.1601299999999
 21
160.60208
 31
0.0
  0
ARC
  5
339
  8
DETAIL
  6
CONTINUOUS
 62
     5
 10
202.74591699999991
 20
159.18786700000001
 30
0.0
 40
2.0
 50
45.0
 51
89.500000000000014
  0
ARC
  5
33A
  8
DETAIL
  6
CONTINUOUS
 62
     5
 10
202.74591699999991
 20
159.18786700000001
 30
0.0
 40
2.0
 50
45.0
 51
89.500000000000014
  0
LINE
  5
33B
  8
DETAIL
  6
DASHED
 62
     5
 10
205.71342299999989
 20
152.47326699999991
 30
0.0
 11
229.54737
 21
150.05145999999991
 31
0.0
  0
ARC
  5
33C
  8
DETAIL
  6
CONTINUOUS
 62
     5
 10
207.83597
 20
159.75466700000001
 30
0.0
 40
2.0
 50
225.0
 51
269.5
  0
ARC
  5
33D
  8
DETAIL
  6
CONTINUOUS
 62
     5
 10
207.83597
 20
159.75466700000001
 30
0.0
 40
2.0
 50
225.0
 51
269.5
  0
LINE
  5
33E
  8
DETAIL
  6
DASHED
 62
     5
 10
248.44815700000001
 20
122.90797999999999
 30
0.0
 11
248.94690999999989
 21
120.620547
 31
0.0
  0
LINE
  5
33F
  8
DETAIL
  6
DASHED
 62
     5
 10
246.12164299999989
 20
98.432580000000002
 30
0.0
 11
245.0767899999999
 21
96.431479999999993
 31
0.0
  0
LINE
  5
340
  8
DETAIL
  6
DASHED
 62
     5
 10
245.0767899999999
 20
96.431479999999993
 30
0.0
 11
243.9026099999999
 21
94.495452999999998
 31
0.0
  0
LINE
  5
341
  8
DETAIL
  6
DASHED
 62
     5
 10
243.9026099999999
 20
94.495452999999998
 30
0.0
 11
242.60209
 21
92.630707000000001
 31
0.0
  0
LINE
  5
342
  8
DETAIL
  6
DASHED
 62
     5
 10
242.60209
 20
92.630707000000001
 30
0.0
 11
241.17976300000001
 21
90.842579999999998
 31
0.0
  0
LINE
  5
343
  8
DETAIL
  6
DASHED
 62
     5
 10
241.17976300000001
 20
90.842579999999998
 30
0.0
 11
239.63941
 21
89.136892999999986
 31
0.0
  0
LINE
  5
344
  8
DETAIL
  6
DASHED
 62
     5
 10
239.63941
 20
89.136892999999986
 30
0.0
 11
237.98625699999991
 21
87.518446999999966
 31
0.0
  0
LINE
  5
345
  8
DETAIL
  6
DASHED
 62
     5
 10
237.98625699999991
 20
87.518446999999966
 30
0.0
 11
237.00032999999999
 21
86.664280000000005
 31
0.0
  0
LINE
  5
346
  8
DETAIL
  6
DASHED
 62
     5
 10
249.3039829999999
 20
109.19796700000001
 30
0.0
 11
248.94690999999989
 21
106.96512
 31
0.0
  0
LINE
  5
347
  8
DETAIL
  6
DASHED
 62
     5
 10
248.94690999999989
 20
106.96512
 30
0.0
 11
248.44815700000001
 21
104.76563299999989
 31
0.0
  0
LINE
  5
348
  8
DETAIL
  6
DASHED
 62
     5
 10
248.44815700000001
 20
104.76563299999989
 30
0.0
 11
247.80987699999989
 21
102.60598
 31
0.0
  0
LINE
  5
349
  8
DETAIL
  6
DASHED
 62
     5
 10
247.80987699999989
 20
102.60598
 30
0.0
 11
247.5928899999999
 21
101.97134
 31
0.0
  0
LINE
  5
34A
  8
DETAIL
  6
DASHED
 62
     5
 10
247.73181
 20
102.36526000000001
 30
0.0
 11
247.94879700000001
 21
102.99990699999989
 31
0.0
  0
LINE
  5
34B
  8
DETAIL
  6
DASHED
 62
     5
 10
247.5928899999999
 20
101.97134
 30
0.0
 11
247.0333829999999
 21
100.4929069999999
 31
0.0
  0
LINE
  5
34C
  8
DETAIL
  6
DASHED
 62
     5
 10
247.0333829999999
 20
100.4929069999999
 30
0.0
 11
246.12164299999989
 21
98.432580000000002
 31
0.0
  0
LINE
  5
34D
  8
DETAIL
  6
DASHED
 62
     5
 10
249.59043700000001
 20
113.73609999999999
 30
0.0
 11
249.51893000000001
 21
111.45722000000001
 31
0.0
  0
LINE
  5
34E
  8
DETAIL
  6
DASHED
 62
     5
 10
249.51893000000001
 20
111.45722000000001
 30
0.0
 11
249.3039829999999
 21
109.19796700000001
 31
0.0
  0
LINE
  5
34F
  8
DETAIL
  6
DASHED
 62
     5
 10
248.94690999999989
 20
120.620547
 30
0.0
 11
249.3039829999999
 21
118.3247329999999
 31
0.0
  0
LINE
  5
350
  8
DETAIL
  6
DASHED
 62
     5
 10
249.3039829999999
 20
118.3247329999999
 30
0.0
 11
249.51893000000001
 21
116.027587
 31
0.0
  0
LINE
  5
351
  8
DETAIL
  6
DASHED
 62
     5
 10
249.51893000000001
 20
116.027587
 30
0.0
 11
249.59043700000001
 21
113.73609999999999
 31
0.0
  0
LINE
  5
352
  8
DETAIL
  6
DASHED
 62
     5
 10
247.0333829999999
 20
127.430167
 30
0.0
 11
247.80987699999989
 21
125.1801729999999
 31
0.0
  0
LINE
  5
353
  8
DETAIL
  6
DASHED
 62
     5
 10
247.80987699999989
 20
125.1801729999999
 30
0.0
 11
248.44815700000001
 21
122.90797999999999
 31
0.0
  0
LINE
  5
354
  8
DETAIL
  6
DASHED
 62
     5
 10
243.9026099999999
 20
133.97965999999991
 30
0.0
 11
245.0767899999999
 21
131.83659299999991
 31
0.0
  0
LINE
  5
355
  8
DETAIL
  6
DASHED
 62
     5
 10
245.0767899999999
 20
131.83659299999991
 30
0.0
 11
246.12164299999989
 21
129.65126000000001
 31
0.0
  0
LINE
  5
356
  8
DETAIL
  6
DASHED
 62
     5
 10
246.12164299999989
 20
129.65126000000001
 30
0.0
 11
247.0333829999999
 21
127.430167
 31
0.0
  0
LINE
  5
357
  8
DETAIL
  6
DASHED
 62
     5
 10
241.17976300000001
 20
138.11264700000001
 30
0.0
 11
242.60209
 21
136.07372699999991
 31
0.0
  0
LINE
  5
358
  8
DETAIL
  6
DASHED
 62
     5
 10
242.60209
 20
136.07372699999991
 30
0.0
 11
243.9026099999999
 21
133.97965999999991
 31
0.0
  0
LINE
  5
359
  8
DETAIL
  6
DASHED
 62
     5
 10
237.98625699999991
 20
141.99987999999991
 30
0.0
 11
239.63941
 21
140.08994000000001
 31
0.0
  0
LINE
  5
35A
  8
DETAIL
  6
DASHED
 62
     5
 10
239.63941
 20
140.08994000000001
 30
0.0
 11
241.17976300000001
 21
138.11264700000001
 31
0.0
  0
LINE
  5
35B
  8
DETAIL
  6
DASHED
 62
     5
 10
237.00032999999999
 20
143.02789300000001
 30
0.0
 11
237.98625699999991
 21
141.99987999999991
 31
0.0
  0
ARC
  5
35C
  8
DETAIL
  6
CONTINUOUS
 62
     5
 10
236.50032999999999
 20
157.00442000000001
 30
0.0
 40
0.5
 50
0.0
 51
89.500000000000014
  0
ARC
  5
35D
  8
DETAIL
  6
CONTINUOUS
 62
     5
 10
236.50032999999999
 20
157.00442000000001
 30
0.0
 40
0.5
 50
0.0
 51
89.500000000000014
  0
LINE
  5
35E
  8
SIZE
  6
CONTINUOUS
 62
    30
 10
237.00032999999999
 20
174.90867800000001
 30
0.0
 11
237.00032999999999
 21
688.80638899999985
 31
0.0
  0
LINE
  5
35F
  8
SIZE
  6
CONTINUOUS
 62
    30
 10
249.55468300000001
 20
134.881843
 30
0.0
 11
249.55468300000001
 21
688.80638899999985
 31
0.0
  0
LINE
  5
360
  8
SIZE
  6
CONTINUOUS
 62
    30
 10
225.00032999999991
 20
668.80638899999985
 30
0.0
 11
213.00032999999991
 21
668.80638899999985
 31
0.0
  0
LINE
  5
361
  8
SIZE
  6
CONTINUOUS
 62
    30
 10
261.5546829999999
 20
668.80638899999985
 30
0.0
 11
522.68611199999987
 21
668.80638899999985
 31
0.0
  0
LINE
  5
362
  8
SIZE
  6
CONTINUOUS
 62
    30
 10
237.00032999999999
 20
668.80638899999985
 30
0.0
 11
249.55468300000001
 21
668.80638899999985
 31
0.0
  0
CIRCLE
  5
363
  8
SIZE
  6
CONTINUOUS
 62
    30
 10
237.00032999999999
 20
668.80638899999985
 30
0.0
 40
6.0
  0
LINE
  5
364
  8
SIZE
  6
CONTINUOUS
 62
    30
 10
237.00032999999999
 20
668.80638899999985
 30
0.0
 11
225.00032999999991
 21
668.80638899999985
 31
0.0
  0
CIRCLE
  5
365
  8
SIZE
  6
CONTINUOUS
 62
    30
 10
249.55468300000001
 20
668.80638899999985
 30
0.0
 40
6.0
  0
LINE
  5
366
  8
SIZE
  6
CONTINUOUS
 62
    30
 10
249.55468300000001
 20
668.80638899999985
 30
0.0
 11
261.5546829999999
 21
668.80638899999985
 31
0.0
  0
TEXT
  5
367
  8
SIZE
  6
CONTINUOUS
 62
    30
 10
289.22896942857142
 20
693.80638899999985
 30
0.0
 40
64.0
  1
üi13üj
 41
0.9
 72
     1
 11
398.12039800000002
 21
693.80638899999985
 31
0.0
  0
POINT
  5
368
  8
DEFPOINTS
  6
CONTINUOUS
 62
    30
 10
237.00032999999999
 20
154.90867800000001
 30
0.0
  0
POINT
  5
369
  8
DEFPOINTS
  6
CONTINUOUS
 62
    30
 10
249.55468300000001
 20
114.8818429999999
 30
0.0
  0
POINT
  5
36A
  8
DEFPOINTS
  6
CONTINUOUS
 62
    30
 10
249.55468300000001
 20
668.80638899999985
 30
0.0
  0
TEXT
  5
36B
  8
NOTE
  6
CONTINUOUS
 62
     4
 10
-912.33248600000002
 20
228.43437499999999
 30
0.0
 40
64.0
  1
AH 4-âË15ü~22
 41
0.9
  0
LINE
  5
36C
  8
NOTE
  6
CONTINUOUS
 62
     4
 39
50.0
 10
-933.11624700000004
 20
211.02864400000001
 30
0.0
 11
-275.71792099999988
 21
211.02864400000001
 31
0.0
  0
LINE
  5
36D
  8
NOTE
  6
CONTINUOUS
 62
     4
 39
50.0
 10
-275.71792099999988
 20
211.02864400000001
 30
0.0
 11
-160.12300300000001
 21
172.0
 31
0.0
  0
LINE
  5
36E
  8
NOTE
  6
CONTINUOUS
 62
     4
 39
50.0
 10
-160.12300300000001
 20
172.0
 30
0.0
 11
-185.87322499999991
 21
189.99570700000001
 31
0.0
  0
LINE
  5
36F
  8
NOTE
  6
CONTINUOUS
 62
     4
 39
50.0
 10
-160.12300300000001
 20
172.0
 30
0.0
 11
-191.51152400000001
 21
173.296211
 31
0.0
  0
TEXT
  5
371
  8
ETC
  6
CONTINUOUS
 62
    61
 10
1173.1405937716131
 20
291.7655877207053
 30
0.0
 40
40.0
  1
VD-15ZFVC2
 41
0.9
  0
ENDSEC
  0
EOF
