  0
SECTION
  2
HEADER
  9
$ACADVER
  1
AC1009
  9
$INSBASE
 10
0.0
 20
0.0
 30
0.0
  9
$EXTMIN
 10
-941.86356499999999
 20
-715.13707099999999
 30
0.0
  9
$EXTMAX
 10
1429.198447822255
 20
1146.62680645929
 30
0.0
  9
$LIMMIN
 10
-2970.0
 20
-2100.0
  9
$LIMMAX
 10
2970.0
 20
2100.0
  9
$ORTHOMODE
 70
     1
  9
$REGENMODE
 70
     0
  9
$FILLMODE
 70
     1
  9
$QTEXTMODE
 70
     0
  9
$MIRRTEXT
 70
     0
  9
$DRAGMODE
 70
     2
  9
$LTSCALE
 40
20.0
  9
$OSMODE
 70
    39
  9
$ATTMODE
 70
     1
  9
$TEXTSIZE
 40
64.0
  9
$TRACEWID
 40
0.05
  9
$TEXTSTYLE
  7
STANDARD
  9
$CLAYER
  8
SIZE
  9
$CELTYPE
  6
CONTINUOUS
  9
$CECOLOR
 62
    30
  9
$DIMSCALE
 40
1.0
  9
$DIMASZ
 40
12.0
  9
$DIMEXO
 40
20.0
  9
$DIMDLI
 40
200.0
  9
$DIMRND
 40
0.0
  9
$DIMDLE
 40
0.0
  9
$DIMEXE
 40
30.0
  9
$DIMTP
 40
0.0
  9
$DIMTM
 40
0.0
  9
$DIMTXT
 40
64.0
  9
$DIMCEN
 40
0.09
  9
$DIMTSZ
 40
0.0
  9
$DIMTOL
 70
     0
  9
$DIMLIM
 70
     0
  9
$DIMTIH
 70
     0
  9
$DIMTOH
 70
     0
  9
$DIMSE1
 70
     0
  9
$DIMSE2
 70
     0
  9
$DIMTAD
 70
     1
  9
$DIMZIN
 70
     8
  9
$DIMBLK
  1
ORIGIN
  9
$DIMASO
 70
     1
  9
$DIMSHO
 70
     0
  9
$DIMPOST
  1

  9
$DIMAPOST
  1

  9
$DIMALT
 70
     0
  9
$DIMALTD
 70
     2
  9
$DIMALTF
 40
25.399999999999999
  9
$DIMLFAC
 40
1.0
  9
$DIMTOFL
 70
     1
  9
$DIMTVP
 40
0.0
  9
$DIMTIX
 70
     0
  9
$DIMSOXD
 70
     0
  9
$DIMSAH
 70
     0
  9
$DIMBLK1
  1

  9
$DIMBLK2
  1

  9
$DIMSTYLE
  2
STANDARD
  9
$DIMCLRD
 70
     0
  9
$DIMCLRE
 70
     0
  9
$DIMCLRT
 70
     0
  9
$DIMTFAC
 40
1.0
  9
$DIMGAP
 40
20.0
  9
$LUNITS
 70
     2
  9
$LUPREC
 70
     4
  9
$SKETCHINC
 40
0.1
  9
$FILLETRAD
 40
5.0
  9
$AUNITS
 70
     1
  9
$AUPREC
 70
     3
  9
$MENU
  1
ACAD
  9
$ELEVATION
 40
0.0
  9
$PELEVATION
 40
0.0
  9
$THICKNESS
 40
0.0
  9
$LIMCHECK
 70
     0
  9
$BLIPMODE
 70
     0
  9
$CHAMFERA
 40
0.0
  9
$CHAMFERB
 40
0.0
  9
$SKPOLY
 70
     0
  9
$TDCREATE
 40
2451368.460914352
  9
$TDUPDATE
 40
2454149.8704987611
  9
$TDINDWG
 40
0.0240592361
  9
$TDUSRTIMER
 40
0.0240592361
  9
$USRTIMER
 70
     1
  9
$ANGBASE
 50
0.0
  9
$ANGDIR
 70
     0
  9
$PDMODE
 70
     3
  9
$PDSIZE
 40
-2.0
  9
$PLINEWID
 40
0.0
  9
$COORDS
 70
     1
  9
$SPLFRAME
 70
     0
  9
$SPLINETYPE
 70
     6
  9
$SPLINESEGS
 70
     8
  9
$ATTDIA
 70
     0
  9
$ATTREQ
 70
     1
  9
$HANDLING
 70
 22529
  9
$HANDSEED
  5
783
  9
$SURFTAB1
 70
     6
  9
$SURFTAB2
 70
     6
  9
$SURFTYPE
 70
     6
  9
$SURFU
 70
     6
  9
$SURFV
 70
     6
  9
$UCSNAME
  2

  9
$UCSORG
 10
0.0
 20
0.0
 30
0.0
  9
$UCSXDIR
 10
1.0
 20
0.0
 30
0.0
  9
$UCSYDIR
 10
0.0
 20
1.0
 30
0.0
  9
$PUCSNAME
  2

  9
$PUCSORG
 10
0.0
 20
0.0
 30
0.0
  9
$PUCSXDIR
 10
1.0
 20
0.0
 30
0.0
  9
$PUCSYDIR
 10
0.0
 20
1.0
 30
0.0
  9
$USERI1
 70
     0
  9
$USERI2
 70
     0
  9
$USERI3
 70
     0
  9
$USERI4
 70
     0
  9
$USERI5
 70
     0
  9
$USERR1
 40
20.0
  9
$USERR2
 40
0.0
  9
$USERR3
 40
0.0
  9
$USERR4
 40
0.0
  9
$USERR5
 40
0.0
  9
$WORLDVIEW
 70
     1
  9
$SHADEDGE
 70
     3
  9
$SHADEDIF
 70
    70
  9
$TILEMODE
 70
     1
  9
$MAXACTVP
 70
    48
  9
$PLIMCHECK
 70
     0
  9
$PEXTMIN
 10
1.0000000000000000E+020
 20
1.0000000000000000E+020
 30
1.0000000000000000E+020
  9
$PEXTMAX
 10
-1.0000000000000000E+020
 20
-1.0000000000000000E+020
 30
-1.0000000000000000E+020
  9
$PLIMMIN
 10
0.0
 20
0.0
  9
$PLIMMAX
 10
12.0
 20
9.0
  9
$UNITMODE
 70
     0
  9
$VISRETAIN
 70
     1
  9
$PLINEGEN
 70
     0
  9
$PSLTSCALE
 70
     1
  0
ENDSEC
  0
SECTION
  2
TABLES
  0
TABLE
  2
VPORT
 70
     5
  0
VPORT
  2
*ACTIVE
 70
     0
 10
0.0
 20
0.0
 11
1.0
 21
1.0
 12
235.27327991523239
 22
215.75578609554429
 13
0.0
 23
0.0
 14
50.0
 24
50.0
 15
400.0
 25
400.0
 16
0.0
 26
0.0
 36
1.0
 17
0.0
 27
0.0
 37
0.0
 40
1893.7166001720529
 41
1.710526315789473
 42
50.0
 43
0.0
 44
0.0
 50
0.0
 51
0.0
 71
     0
 72
   500
 73
     1
 74
     0
 75
     0
 76
     0
 77
     0
 78
     1
  0
ENDTAB
  0
TABLE
  2
LTYPE
 70
     8
  0
LTYPE
  2
CONTINUOUS
 70
     0
  3
Ä└É³
 72
    65
 73
     0
 40
0.0
  0
LTYPE
  2
DASHDOT
 70
     0
  3
____ _ ____ _ ____ _ ____ _ ____ _ ____ _ ____
 72
    65
 73
     4
 40
5.5
 49
4.0
 49
-0.6
 49
0.3
 49
-0.6
  0
LTYPE
  2
CONTINOUS
 70
     0
  3
Solid line
 72
    65
 73
     0
 40
0.0
  0
LTYPE
  2
DASHED
 70
     0
  3
_ _ _ _ _ _ _ _ _ _ _ _ _ _ _ _ _ _ _ _ _ _ _
 72
    65
 73
     2
 40
2.0
 49
1.1999999999999991
 49
-0.8
  0
LTYPE
  2
DOT
 70
     0
  3
...............................................
 72
    65
 73
     2
 40
0.8
 49
0.5
 49
-0.3
  0
LTYPE
  2
DASHDOT1
 70
     0
  3
____ _ ____ _ ____ _ ____ _ ____ _ ____ _ ____
 72
    65
 73
     4
 40
2.0
 49
1.5
 49
-0.2
 49
0.1
 49
-0.2
  0
LTYPE
  2
DIVIDE
 70
     0
  3
_____ _ _ _____ _ _ _____ _ _ _____ _ _ ____
 72
    65
 73
     6
 40
6.4000000000000004
 49
4.0
 49
-0.6
 49
0.3
 49
-0.6
 49
0.3
 49
-0.6
  0
LTYPE
  2
DIVIDE1
 70
     0
  3
_____ _ _ _____ _ _ _____ _ _ _____ _ _ ____
 72
    65
 73
     6
 40
3.2000000000000002
 49
2.0
 49
-0.3
 49
0.15
 49
-0.3
 49
0.15
 49
-0.3
  0
ENDTAB
  0
TABLE
  2
LAYER
 70
    12
  0
LAYER
  2
0
 70
     0
 62
     7
  6
CONTINUOUS
  0
LAYER
  2
SIZE
 70
     0
 62
    30
  6
CONTINUOUS
  0
LAYER
  2
OUTLINE
 70
     0
 62
     3
  6
CONTINUOUS
  0
LAYER
  2
DETAIL
 70
     0
 62
     5
  6
CONTINUOUS
  0
LAYER
  2
BASIS
 70
     0
 62
     6
  6
DASHDOT
  0
LAYER
  2
NOTE
 70
     0
 62
     4
  6
CONTINUOUS
  0
LAYER
  2
DEFPOINTS
 70
     0
 62
     7
  6
CONTINUOUS
  0
LAYER
  2
FIX
 70
     0
 62
    11
  6
CONTINUOUS
  0
LAYER
  2
ARRANGE
 70
     0
 62
     1
  6
CONTINUOUS
  0
LAYER
  2
ETC
 70
     0
 62
    61
  6
CONTINUOUS
  0
LAYER
  2
SERVICESPACE
 70
     0
 62
     2
  6
DASHDOT
  0
LAYER
  2
SYMBOLLINE
 70
     0
 62
    15
  6
CONTINUOUS
  0
ENDTAB
  0
TABLE
  2
STYLE
 70
     1
  0
STYLE
  2
STANDARD
 70
     0
 40
0.0
 41
0.9
 50
0.0
 71
     0
 42
64.0
  3
SIMPLEX
  4
BIGFONT
  0
ENDTAB
  0
TABLE
  2
VIEW
 70
     1
  0
VIEW
  2
ALL
 70
     0
 40
4282.6198079999967
 10
0.0
 20
41.309903999999989
 41
5940.0
 11
0.0
 21
0.0
 31
1.0
 12
0.0
 22
0.0
 32
0.0
 42
50.0
 43
0.0
 44
0.0
 50
0.0
 71
     0
  0
ENDTAB
  0
TABLE
  2
UCS
 70
     0
  0
ENDTAB
  0
TABLE
  2
APPID
 70
     1
  0
APPID
  2
ACAD
 70
     0
  0
ENDTAB
  0
TABLE
  2
DIMSTYLE
 70
     1
  0
DIMSTYLE
  2
STANDARD
 70
     0
  3

  4

  5

  6

  7

 40
1.0
 41
0.18
 42
0.0625
 43
0.38
 44
0.18
 45
0.0
 46
0.0
 47
0.0
 48
0.0
140
0.18
141
0.09
142
0.0
143
25.399999999999999
144
1.0
145
0.0
146
1.0
147
0.09
 71
     0
 72
     0
 73
     1
 74
     1
 75
     0
 76
     0
 77
     0
 78
     0
170
     0
171
     2
172
     0
173
     0
174
     0
175
     0
176
     0
177
     0
178
     0
  0
ENDTAB
  0
ENDSEC
  0
SECTION
  2
BLOCKS
  0
BLOCK
  8
0
  2
$MODEL_SPACE
 70
     0
 10
0.0
 20
0.0
 30
0.0
  3
$MODEL_SPACE
  1

  0
ENDBLK
  5
53E
  8
0
  0
BLOCK
 67
     1
  8
0
  2
$PAPER_SPACE
 70
     0
 10
0.0
 20
0.0
 30
0.0
  3
$PAPER_SPACE
  1

  0
ENDBLK
  5
53A
 67
     1
  8
0
  0
BLOCK
  8
0
 62
    30
  2
_SMALL
 70
     0
 10
0.0
 20
0.0
 30
0.0
  3
_SMALL
  1

  0
CIRCLE
  5
55F
  8
0
  6
BYBLOCK
 62
     0
 10
0.0
 20
0.0
 30
0.0
 40
0.25
  0
ENDBLK
  5
560
  8
0
 62
    30
  0
BLOCK
  8
0
 62
    30
  2
_OPEN30
 70
     0
 10
0.0
 20
0.0
 30
0.0
  3
_OPEN30
  1

  0
LINE
  5
563
  8
0
  6
BYBLOCK
 62
     0
 10
-1.0
 20
0.26794919
 30
0.0
 11
0.0
 21
0.0
 31
0.0
  0
LINE
  5
564
  8
0
  6
BYBLOCK
 62
     0
 10
0.0
 20
0.0
 30
0.0
 11
-1.0
 21
-0.26794919
 31
0.0
  0
LINE
  5
565
  8
0
  6
BYBLOCK
 62
     0
 10
0.0
 20
0.0
 30
0.0
 11
-1.0
 21
0.0
 31
0.0
  0
ENDBLK
  5
566
  8
0
 62
    30
  0
BLOCK
  8
0
 62
    30
  2
*D4
 70
     1
 10
0.0
 20
0.0
 30
0.0
  3
*D4
  1

  0
LINE
  5
569
  8
SIZE
  6
CONTINUOUS
 62
     0
 10
-29.0
 20
214.4544139999999
 30
0.0
 11
-28.999999999999961
 21
520.22252834582821
 31
0.0
  0
LINE
  5
56A
  8
SIZE
  6
CONTINUOUS
 62
     0
 10
53.0
 20
214.4544139999999
 30
0.0
 11
53.000000000000043
 21
520.22252834582821
 31
0.0
  0
LINE
  5
56B
  8
SIZE
  6
CONTINUOUS
 62
     0
 10
-28.999999999999961
 20
490.22252834582832
 30
0.0
 11
53.000000000000043
 21
490.22252834582832
 31
0.0
  0
LINE
  5
56C
  8
SIZE
  6
CONTINUOUS
 62
     0
 10
53.000000000000043
 20
490.22252834582832
 30
0.0
 11
365.80060112465162
 21
490.22252834582832
 31
0.0
  0
INSERT
  5
56D
  8
SIZE
  6
CONTINUOUS
 62
     0
  2
_SMALL
 10
-28.999999999999961
 20
490.22252834582832
 30
0.0
 41
40.0
 42
40.0
 43
40.0
 50
180.0
  0
INSERT
  5
56E
  8
SIZE
  6
CONTINUOUS
 62
     0
  2
_SMALL
 10
53.000000000000043
 20
490.22252834582832
 30
0.0
 41
40.0
 42
40.0
 43
40.0
  0
INSERT
  5
570
  8
SIZE
  6
CONTINUOUS
 62
    30
  2
*U5
 10
0.0
 20
0.0
 30
0.0
  0
POINT
  5
571
  8
DEFPOINTS
  6
CONTINUOUS
 62
     0
 10
-29.0
 20
194.4544139999999
 30
0.0
  0
POINT
  5
572
  8
DEFPOINTS
  6
CONTINUOUS
 62
     0
 10
53.0
 20
194.4544139999999
 30
0.0
  0
POINT
  5
573
  8
DEFPOINTS
  6
CONTINUOUS
 62
     0
 10
53.000000000000043
 20
490.22252834582832
 30
0.0
  0
ENDBLK
  5
574
  8
0
 62
    30
  0
BLOCK
  8
0
 62
    30
  2
*U5
 70
     1
 10
0.0
 20
0.0
 30
0.0
  3
*U5
  1

  0
TEXT
  5
576
  8
SIZE
  6
CONTINUOUS
 62
     0
 10
200.429172553223
 20
510.22252834582832
 30
0.0
 40
64.0
  1
\U+2205
 41
0.9
  0
TEXT
  5
577
  8
SIZE
  6
CONTINUOUS
 62
     0
 10
252.5434582675087
 20
510.22252834582832
 30
0.0
 40
64.0
  1
82
 41
0.9
  0
ENDBLK
  5
578
  8
0
 62
    30
  0
BLOCK
  8
0
 62
    30
  2
_ORIGIN
 70
     0
 10
0.0
 20
0.0
 30
0.0
  3
_ORIGIN
  1

  0
CIRCLE
  5
57B
  8
0
  6
BYBLOCK
 62
     0
 10
0.0
 20
0.0
 30
0.0
 40
0.5
  0
LINE
  5
57C
  8
0
  6
BYBLOCK
 62
     0
 10
0.0
 20
0.0
 30
0.0
 11
-1.0
 21
0.0
 31
0.0
  0
ENDBLK
  5
57D
  8
0
 62
    30
  0
BLOCK
  8
0
 62
    30
  2
_NONE
 70
     0
 10
0.0
 20
0.0
 30
0.0
  3
_NONE
  1

  0
ENDBLK
  5
580
  8
0
 62
    30
  0
BLOCK
  8
0
 62
    30
  2
*D8
 70
     1
 10
0.0
 20
0.0
 30
0.0
  3
*D8
  1

  0
LINE
  5
583
  8
SIZE
  6
CONTINUOUS
 62
     0
 10
-29.0
 20
214.4544139999999
 30
0.0
 11
-28.999999999999961
 21
509.00217710015289
 31
0.0
  0
LINE
  5
584
  8
SIZE
  6
CONTINUOUS
 62
     0
 10
53.0
 20
214.4544139999999
 30
0.0
 11
53.000000000000043
 21
509.00217710015289
 31
0.0
  0
LINE
  5
585
  8
SIZE
  6
CONTINUOUS
 62
     0
 10
-16.999999999999989
 20
479.00217710015278
 30
0.0
 11
41.000000000000007
 21
479.00217710015278
 31
0.0
  0
INSERT
  5
586
  8
SIZE
  6
CONTINUOUS
 62
     0
  2
_ORIGIN
 10
-28.999999999999961
 20
479.00217710015278
 30
0.0
 41
12.0
 42
12.0
 43
12.0
 50
180.0
  0
INSERT
  5
587
  8
SIZE
  6
CONTINUOUS
 62
     0
  2
_ORIGIN
 10
53.000000000000021
 20
479.00217710015278
 30
0.0
 41
12.0
 42
12.0
 43
12.0
  0
INSERT
  5
589
  8
SIZE
  6
CONTINUOUS
 62
    30
  2
*U9
 10
0.0
 20
0.0
 30
0.0
  0
POINT
  5
58A
  8
DEFPOINTS
  6
CONTINUOUS
 62
     0
 10
-29.0
 20
194.4544139999999
 30
0.0
  0
POINT
  5
58B
  8
DEFPOINTS
  6
CONTINUOUS
 62
     0
 10
53.0
 20
194.4544139999999
 30
0.0
  0
POINT
  5
58C
  8
DEFPOINTS
  6
CONTINUOUS
 62
     0
 10
53.000000000000021
 20
479.00217710015278
 30
0.0
  0
ENDBLK
  5
58D
  8
0
 62
    30
  0
BLOCK
  8
0
 62
    30
  2
*U9
 70
     1
 10
0.0
 20
0.0
 30
0.0
  3
*U9
  1

  0
TEXT
  5
58F
  8
SIZE
  6
CONTINUOUS
 62
     0
 10
-60.685714285714248
 20
499.00217710015278
 30
0.0
 40
64.0
  1
\U+2205
 41
0.9
  0
TEXT
  5
590
  8
SIZE
  6
CONTINUOUS
 62
     0
 10
-8.5714285714285552
 20
499.00217710015278
 30
0.0
 40
64.0
  1
82
 41
0.9
  0
ENDBLK
  5
591
  8
0
 62
    30
  0
BLOCK
  8
0
 62
    30
  2
*U10
 70
     1
 10
0.0
 20
0.0
 30
0.0
  3
*U10
  1

  0
TEXT
  5
594
  8
SIZE
  6
CONTINUOUS
 62
    30
 10
-60.685714285714248
 20
499.00217710015278
 30
0.0
 40
64.0
  1
\U+2205
 41
0.9
  0
TEXT
  5
595
  8
SIZE
  6
CONTINUOUS
 62
    30
 10
-8.5714285714285552
 20
499.00217710015278
 30
0.0
 40
64.0
  1
82
 41
0.9
  0
ENDBLK
  5
596
  8
0
 62
    30
  0
ENDSEC
  0
SECTION
  2
ENTITIES
  0
LINE
  5
597
  8
BASIS
  6
DASHDOT
 62
     6
 10
12.0
 20
213.7921979999999
 30
0.0
 11
12.0
 21
149.9034879999999
 31
0.0
  0
LINE
  5
598
  8
DETAIL
  6
CONTINUOUS
 62
     5
 10
42.63747
 20
199.4544139999999
 30
0.0
 11
41.468961999999991
 21
201.47831599999989
 31
0.0
  0
LINE
  5
599
  8
DETAIL
  6
CONTINUOUS
 62
     5
 10
48.0
 20
199.4544139999999
 30
0.0
 11
12.0
 21
199.4544139999999
 31
0.0
  0
LINE
  5
59A
  8
DETAIL
  6
CONTINUOUS
 62
     5
 10
12.0
 20
201.47832999999989
 30
0.0
 11
41.468952999999992
 21
201.47832999999989
 31
0.0
  0
LINE
  5
59B
  8
DETAIL
  6
CONTINUOUS
 62
     5
 10
18.672234
 20
202.48349999999991
 30
0.0
 11
18.820820999999992
 21
201.47832999999989
 31
0.0
  0
LINE
  5
59C
  8
DETAIL
  6
CONTINUOUS
 62
     5
 10
16.852011999999991
 20
204.054428
 30
0.0
 11
12.0
 21
204.054428
 31
0.0
  0
ARC
  5
59D
  8
DETAIL
  6
CONTINUOUS
 62
     5
 10
16.852011999999991
 20
202.21441399999989
 30
0.0
 40
1.8400009999999991
 50
8.4091109999999976
 51
90.0
  0
ARC
  5
59E
  8
DETAIL
  6
CONTINUOUS
 62
     5
 10
7.147987999999998
 20
202.21441399999989
 30
0.0
 40
1.8400009999999991
 50
90.0
 51
171.59088899999981
  0
LINE
  5
59F
  8
DETAIL
  6
CONTINUOUS
 62
     5
 10
7.147987999999998
 20
204.054428
 30
0.0
 11
12.0
 21
204.054428
 31
0.0
  0
LINE
  5
5A0
  8
DETAIL
  6
CONTINUOUS
 62
     5
 10
5.3277659999999987
 20
202.48349999999991
 30
0.0
 11
5.1791790000000004
 21
201.47832999999989
 31
0.0
  0
LINE
  5
5A1
  8
DETAIL
  6
CONTINUOUS
 62
     5
 10
12.0
 20
201.47832999999989
 30
0.0
 11
-10.08
 21
201.47832999999989
 31
0.0
  0
LINE
  5
5A2
  8
DETAIL
  6
CONTINUOUS
 62
     5
 10
-10.08
 20
199.4544139999999
 30
0.0
 11
12.0
 21
199.4544139999999
 31
0.0
  0
LINE
  5
5A3
  8
DETAIL
  6
CONTINUOUS
 62
     5
 10
-24.0
 20
199.4544139999999
 30
0.0
 11
12.0
 21
199.4544139999999
 31
0.0
  0
LINE
  5
5A4
  8
DETAIL
  6
CONTINUOUS
 62
     5
 10
12.0
 20
201.47832999999989
 30
0.0
 11
-17.468952999999999
 21
201.47832999999989
 31
0.0
  0
LINE
  5
5A5
  8
DETAIL
  6
CONTINUOUS
 62
     5
 10
-18.63747
 20
199.4544139999999
 30
0.0
 11
-17.468962000000001
 21
201.47831599999989
 31
0.0
  0
CIRCLE
  5
5A6
  8
FIX
  6
CONTINUOUS
 62
    11
 10
141.5
 20
0.054428
 30
0.0
 40
2.5
  0
CIRCLE
  5
5A7
  8
FIX
  6
CONTINUOUS
 62
    11
 10
-85.0
 20
0.0
 30
0.0
 40
2.5
  0
CIRCLE
  5
5A8
  8
FIX
  6
CONTINUOUS
 62
    11
 10
-85.0
 20
0.054428
 30
0.0
 40
2.5
  0
CIRCLE
  5
5A9
  8
FIX
  6
CONTINUOUS
 62
    11
 10
-141.5
 20
0.054428
 30
0.0
 40
2.5
  0
LINE
  5
5AA
  8
DETAIL
  6
CONTINUOUS
 62
     5
 10
-159.49999999999969
 20
174.0544279999998
 30
0.0
 11
-159.49999999999969
 21
170.5544279999998
 31
0.0
  0
LINE
  5
5AB
  8
DETAIL
  6
CONTINUOUS
 62
     5
 10
87.5
 20
170.5544279999998
 30
0.0
 11
122.5
 21
170.5544279999998
 31
0.0
  0
LINE
  5
5AC
  8
DETAIL
  6
CONTINUOUS
 62
     5
 10
87.5
 20
174.0544279999998
 30
0.0
 11
122.5
 21
174.0544279999998
 31
0.0
  0
LINE
  5
5AD
  8
DETAIL
  6
CONTINUOUS
 62
     5
 10
-128.4999999999998
 20
170.5544279999998
 30
0.0
 11
-159.49999999999969
 21
170.5544279999998
 31
0.0
  0
CIRCLE
  5
5AE
  8
FIX
  6
CONTINUOUS
 62
    11
 10
-142.5
 20
174.0544279999998
 30
0.0
 40
7.5
  0
TEXT
  5
5AF
  8
NOTE
  6
CONTINUOUS
 62
     4
 10
-482.24173099999967
 20
-107.522277
 30
0.0
 40
64.0
  1
EL
 41
0.9
  0
LINE
  5
5B0
  8
NOTE
  6
CONTINUOUS
 62
     4
 10
-373.58349700000002
 20
-131.7740399999999
 30
0.0
 11
-492.38890999999973
 21
-131.7740399999999
 31
0.0
  0
LINE
  5
5B1
  8
SIZE
  6
CONTINUOUS
 62
    30
 10
16.0
 20
356.543948
 30
0.0
 11
299.79860099999991
 21
356.543948
 31
0.0
  0
LINE
  5
5B2
  8
SIZE
  6
CONTINUOUS
 62
    30
 10
-102.0
 20
-258.53873599999991
 30
0.0
 11
-358.893441
 21
-258.53873599999991
 31
0.0
  0
LINE
  5
5B3
  8
NOTE
  6
CONTINUOUS
 62
     4
 10
141.5
 20
0.054428
 30
0.0
 11
280.69977299999982
 21
-325.68324200000001
 31
0.0
  0
POINT
  5
5B4
  8
ARRANGE
  6
CONTINUOUS
 62
     1
 10
0.0
 20
0.0
 30
0.0
  0
CIRCLE
  5
5B5
  8
ARRANGE
  6
CONTINUOUS
 62
     1
 10
0.0
 20
0.0
 30
0.0
 40
40.0
  0
LINE
  5
5B6
  8
SIZE
  6
CONTINUOUS
 62
    30
 10
705.78780800000004
 20
-19.945571999999999
 30
0.0
 11
705.78780800000004
 21
-155.417025
 31
0.0
  0
CIRCLE
  5
5B7
  8
FIX
  6
CONTINUOUS
 62
    11
 10
142.5
 20
174.0544279999998
 30
0.0
 40
7.5
  0
LINE
  5
5B8
  8
DETAIL
  6
CONTINUOUS
 62
     5
 10
128.4999999999998
 20
170.5544279999998
 30
0.0
 11
159.49999999999969
 21
170.5544279999998
 31
0.0
  0
LINE
  5
5B9
  8
DETAIL
  6
CONTINUOUS
 62
     5
 10
159.49999999999969
 20
174.0544279999998
 30
0.0
 11
159.49999999999969
 21
170.5544279999998
 31
0.0
  0
LINE
  5
5BA
  8
DETAIL
  6
CONTINUOUS
 62
     5
 10
135.1349129999997
 20
-19.945571999999999
 30
0.0
 11
-135.1349129999997
 21
-19.945571999999999
 31
0.0
  0
LINE
  5
5BB
  8
DETAIL
  6
CONTINUOUS
 62
     5
 10
-165.0
 20
-8.4994510000000005
 30
0.0
 11
-165.0
 21
0.054428
 31
0.0
  0
LINE
  5
5C3
  8
DETAIL
  6
CONTINUOUS
 62
     5
 10
165.0
 20
-8.4994510000000005
 30
0.0
 11
165.0
 21
0.054428
 31
0.0
  0
LINE
  5
5CB
  8
DETAIL
  6
CONTINUOUS
 62
     5
 10
165.0
 20
-5.9455720000000003
 30
0.0
 11
126.5
 21
-5.9455720000000003
 31
0.0
  0
LINE
  5
5CC
  8
DETAIL
  6
CONTINUOUS
 62
     5
 10
-126.5
 20
-19.945571999999999
 30
0.0
 11
-126.5
 21
0.054428
 31
0.0
  0
LINE
  5
5CD
  8
DETAIL
  6
CONTINUOUS
 62
     5
 10
126.5
 20
-19.945571999999999
 30
0.0
 11
126.5
 21
0.054428
 31
0.0
  0
LINE
  5
5CE
  8
DETAIL
  6
CONTINUOUS
 62
     5
 10
-121.5
 20
-19.945571999999999
 30
0.0
 11
-121.5
 21
0.054428
 31
0.0
  0
LINE
  5
5CF
  8
DETAIL
  6
CONTINUOUS
 62
     5
 10
-126.5
 20
-5.9455720000000003
 30
0.0
 11
-165.0
 21
-5.9455720000000003
 31
0.0
  0
LINE
  5
5D0
  8
DETAIL
  6
CONTINUOUS
 62
     5
 10
121.5
 20
-5.9455720000000003
 30
0.0
 11
-121.5
 21
-5.9455720000000003
 31
0.0
  0
LINE
  5
5D1
  8
DETAIL
  6
CONTINUOUS
 62
     5
 10
-159.49999999999969
 20
174.0544279999998
 30
0.0
 11
-125.5
 21
174.0544279999998
 31
0.0
  0
CIRCLE
  5
5D2
  8
FIX
  6
CONTINUOUS
 62
    11
 10
85.0
 20
0.054428
 30
0.0
 40
2.5
  0
LINE
  5
5D3
  8
DETAIL
  6
CONTINUOUS
 62
     5
 10
87.5
 20
174.0544279999998
 30
0.0
 11
87.5
 21
22.554428000000001
 31
0.0
  0
LINE
  5
5D4
  8
DETAIL
  6
CONTINUOUS
 62
     5
 10
122.5
 20
174.0544279999998
 30
0.0
 11
122.5
 21
166.054428
 31
0.0
  0
LINE
  5
5D5
  8
DETAIL
  6
CONTINUOUS
 62
     5
 10
125.5
 20
174.0544279999998
 30
0.0
 11
125.5
 21
0.054428
 31
0.0
  0
LINE
  5
5D6
  8
DETAIL
  6
CONTINUOUS
 62
     5
 10
121.5
 20
-19.945571999999999
 30
0.0
 11
121.5
 21
0.054428
 31
0.0
  0
LINE
  5
5D7
  8
DETAIL
  6
CONTINUOUS
 62
     5
 10
-125.5
 20
166.054428
 30
0.0
 11
-125.5
 21
174.0544279999998
 31
0.0
  0
CIRCLE
  5
5D8
  8
FIX
  6
CONTINUOUS
 62
    11
 10
-105.0
 20
174.0544279999998
 30
0.0
 40
7.5
  0
LINE
  5
5D9
  8
DETAIL
  6
CONTINUOUS
 62
     5
 10
125.5
 20
174.0544279999998
 30
0.0
 11
159.49999999999969
 21
174.0544279999998
 31
0.0
  0
LINE
  5
5DA
  8
DETAIL
  6
CONTINUOUS
 62
     5
 10
125.5
 20
166.054428
 30
0.0
 11
122.5
 21
166.054428
 31
0.0
  0
LINE
  5
5DB
  8
NOTE
  6
CONTINUOUS
 62
     4
 10
280.69977299999982
 20
-325.68324200000001
 30
0.0
 11
714.722488
 21
-325.68324200000001
 31
0.0
  0
LINE
  5
5DC
  8
NOTE
  6
CONTINUOUS
 62
     4
 10
425.79101599999979
 20
393.94946299999998
 30
0.0
 11
1388.5119999999999
 21
393.94946299999998
 31
0.0
  0
LINE
  5
5DD
  8
DETAIL
  6
CONTINUOUS
 62
     5
 10
122.5
 20
119.554428
 30
0.0
 11
128.4999999999998
 21
119.554428
 31
0.0
  0
LINE
  5
5DE
  8
DETAIL
  6
CONTINUOUS
 62
     5
 10
-125.5
 20
166.054428
 30
0.0
 11
87.5
 21
166.054428
 31
0.0
  0
LINE
  5
5DF
  8
DETAIL
  6
CONTINUOUS
 62
     5
 10
-125.5
 20
159.054428
 30
0.0
 11
87.5
 21
159.054428
 31
0.0
  0
LINE
  5
5E0
  8
DETAIL
  6
CONTINUOUS
 62
     5
 10
-29.0
 20
176.05442799999969
 30
0.0
 11
53.0
 21
176.05442799999969
 31
0.0
  0
TEXT
  5
5E1
  8
NOTE
  6
CONTINUOUS
 62
     4
 10
434.95301899999998
 20
431.00562199999979
 30
0.0
 40
64.0
  1
AH 4-âË15ü~22
 41
0.9
  0
LINE
  5
5E2
  8
DETAIL
  6
CONTINUOUS
 62
     5
 10
165.0
 20
0.054428
 30
0.0
 11
-165.0
 21
0.054428
 31
0.0
  0
LINE
  5
5E3
  8
BASIS
  6
DASHDOT
 62
     6
 10
0.0
 20
221.77614199999991
 30
0.0
 11
0.0
 21
-58.376257999999993
 31
0.0
  0
LINE
  5
5E4
  8
DETAIL
  6
CONTINUOUS
 62
     5
 10
-125.5
 20
178.0544279999998
 30
0.0
 11
-125.5
 21
174.0544279999998
 31
0.0
  0
TEXT
  5
5E5
  8
NOTE
  6
CONTINUOUS
 62
     4
 10
-397.24838899999992
 20
73.648282999999978
 30
0.0
 40
64.0
  1
EA
 41
0.9
  0
LINE
  5
5E6
  8
DETAIL
  6
CONTINUOUS
 62
     5
 10
-128.4999999999998
 20
1.054427999999999
 30
0.0
 11
-128.4999999999998
 21
170.5544279999998
 31
0.0
  0
LINE
  5
5E7
  8
DETAIL
  6
CONTINUOUS
 62
     5
 10
-125.5
 20
178.0544279999998
 30
0.0
 11
-128.4999999999998
 21
178.0544279999998
 31
0.0
  0
LINE
  5
5E8
  8
BASIS
  6
DASHDOT
 62
     6
 10
-283.68260699999968
 20
111.054428
 30
0.0
 11
-103.86499599999991
 21
111.054428
 31
0.0
  0
LINE
  5
5E9
  8
SIZE
  6
CONTINUOUS
 62
    30
 10
-668.76072099999999
 20
1.054427999999999
 30
0.0
 11
-668.76072099999999
 21
-136.7053929999999
 31
0.0
  0
LINE
  5
5EA
  8
DETAIL
  6
CONTINUOUS
 62
     5
 10
-48.0
 20
170.054428
 30
0.0
 11
72.0
 21
170.054428
 31
0.0
  0
LINE
  5
5EB
  8
DETAIL
  6
CONTINUOUS
 62
     5
 10
72.0
 20
170.054428
 30
0.0
 11
72.0
 21
166.054428
 31
0.0
  0
LINE
  5
5EC
  8
DETAIL
  6
CONTINUOUS
 62
     5
 10
-48.0
 20
170.054428
 30
0.0
 11
-48.0
 21
166.054428
 31
0.0
  0
LINE
  5
5ED
  8
DETAIL
  6
CONTINUOUS
 62
     5
 10
87.5
 20
22.554428000000001
 30
0.0
 11
122.5
 21
22.554428000000001
 31
0.0
  0
LINE
  5
5EE
  8
DETAIL
  6
CONTINUOUS
 62
     5
 10
-128.4999999999998
 20
174.0544279999998
 30
0.0
 11
-128.4999999999998
 21
178.0544279999998
 31
0.0
  0
LINE
  5
5EF
  8
DETAIL
  6
CONTINUOUS
 62
     5
 10
-125.5
 20
170.5544279999998
 30
0.0
 11
-125.5
 21
0.054428
 31
0.0
  0
LINE
  5
5F0
  8
OUTLINE
  6
CONTINUOUS
 62
     3
 10
165.0
 20
0.054428
 30
0.0
 11
-165.0
 21
0.054428
 31
0.0
  0
LINE
  5
5F1
  8
OUTLINE
  6
CONTINUOUS
 62
     3
 10
125.5
 20
166.054428
 30
0.0
 11
125.5
 21
0.054428
 31
0.0
  0
LINE
  5
5F2
  8
OUTLINE
  6
CONTINUOUS
 62
     3
 10
-125.5
 20
166.054428
 30
0.0
 11
125.5
 21
166.054428
 31
0.0
  0
LINE
  5
5F3
  8
OUTLINE
  6
CONTINUOUS
 62
     3
 10
-125.5
 20
166.054428
 30
0.0
 11
-125.5
 21
0.054428
 31
0.0
  0
LINE
  5
5F4
  8
DETAIL
  6
CONTINUOUS
 62
     5
 10
-87.5
 20
174.0544279999998
 30
0.0
 11
-87.5
 21
166.054428
 31
0.0
  0
LINE
  5
5F5
  8
DETAIL
  6
CONTINUOUS
 62
     5
 10
-122.5
 20
174.0544279999998
 30
0.0
 11
-122.5
 21
166.054428
 31
0.0
  0
CIRCLE
  5
5F6
  8
FIX
  6
CONTINUOUS
 62
    11
 10
105.0
 20
174.0544279999998
 30
0.0
 40
7.5
  0
LINE
  5
5F7
  8
DETAIL
  6
CONTINUOUS
 62
     5
 10
-87.5
 20
174.0544279999998
 30
0.0
 11
-122.5
 21
174.0544279999998
 31
0.0
  0
LINE
  5
5F8
  8
DETAIL
  6
CONTINUOUS
 62
     5
 10
122.5
 20
119.554428
 30
0.0
 11
122.5
 21
22.554428000000001
 31
0.0
  0
LINE
  5
5F9
  8
SIZE
  6
CONTINUOUS
 62
    30
 10
557.384503
 20
170.054428
 30
0.0
 11
557.384503
 21
321.337784
 31
0.0
  0
LINE
  5
5FA
  8
SIZE
  6
CONTINUOUS
 62
    30
 10
421.45282900000001
 20
174.0544279999998
 30
0.0
 11
421.45282900000001
 21
324.65579799999989
 31
0.0
  0
LINE
  5
5FB
  8
DETAIL
  6
CONTINUOUS
 62
     5
 10
122.5
 20
166.054428
 30
0.0
 11
125.5
 21
166.054428
 31
0.0
  0
LINE
  5
5FC
  8
DETAIL
  6
CONTINUOUS
 62
     5
 10
128.4999999999998
 20
170.5544279999998
 30
0.0
 11
128.4999999999998
 21
119.554428
 31
0.0
  0
TEXT
  5
5FD
  8
NOTE
  6
CONTINUOUS
 62
     4
 10
317.04850800000008
 20
-292.23145199999999
 30
0.0
 40
64.0
  1
8-âË5ü~8
 41
0.9
  0
LINE
  5
5FE
  8
DETAIL
  6
CONTINUOUS
 62
     5
 10
-128.4999999999998
 20
22.554428000000001
 30
0.0
 11
-125.5
 21
22.554428000000001
 31
0.0
  0
LINE
  5
5FF
  8
DETAIL
  6
CONTINOUS
 62
     5
 10
-216.5
 20
62.304428000000001
 30
0.0
 11
-216.5
 21
159.804428
 31
0.0
  0
LINE
  5
600
  8
DETAIL
  6
CONTINOUS
 62
     5
 10
-196.5
 20
62.304428000000001
 30
0.0
 11
-196.5
 21
159.804428
 31
0.0
  0
LINE
  5
601
  8
DETAIL
  6
CONTINUOUS
 62
     5
 10
-216.5
 20
62.304428000000001
 30
0.0
 11
-196.5
 21
62.304428000000001
 31
0.0
  0
LINE
  5
602
  8
DETAIL
  6
CONTINUOUS
 62
     5
 10
-216.5
 20
159.804428
 30
0.0
 11
-196.5
 21
159.804428
 31
0.0
  0
LINE
  5
603
  8
DETAIL
  6
CONTINOUS
 62
     5
 10
-166.5
 20
56.054428000000001
 30
0.0
 11
-166.5
 21
166.054428
 31
0.0
  0
LINE
  5
604
  8
DETAIL
  6
CONTINUOUS
 62
     5
 10
-196.5
 20
62.304428000000001
 30
0.0
 11
-166.5
 21
56.054428000000001
 31
0.0
  0
LINE
  5
605
  8
DETAIL
  6
CONTINUOUS
 62
     5
 10
-196.5
 20
159.804428
 30
0.0
 11
-166.5
 21
166.054428
 31
0.0
  0
LINE
  5
606
  8
SIZE
  6
CONTINUOUS
 62
    30
 10
-216.5
 20
721.17669999999998
 30
0.0
 11
-346.674935
 21
721.17669999999998
 31
0.0
  0
LINE
  5
607
  8
SIZE
  6
CONTINUOUS
 62
    30
 10
-210.49999999999989
 20
857.12273000000005
 30
0.0
 11
-357.84027200000008
 21
857.12273000000005
 31
0.0
  0
LINE
  5
608
  8
SIZE
  6
CONTINUOUS
 62
    30
 10
-668.76072099999999
 20
166.054428
 30
0.0
 11
-668.76072099999999
 21
384.41866199999993
 31
0.0
  0
LINE
  5
609
  8
SIZE
  6
CONTINUOUS
 62
    30
 10
-543.77799400000004
 20
159.804428
 30
0.0
 11
-543.77799400000004
 21
433.0130689999998
 31
0.0
  0
LINE
  5
60A
  8
NOTE
  6
CONTINUOUS
 62
     4
 10
142.5
 20
174.0544279999998
 30
0.0
 11
425.79101599999979
 21
393.94946299999998
 31
0.0
  0
LINE
  5
60B
  8
DETAIL
  6
CONTINUOUS
 62
     5
 10
-166.5
 20
56.054428000000001
 30
0.0
 11
-128.4999999999998
 21
56.054428000000001
 31
0.0
  0
LINE
  5
60C
  8
DETAIL
  6
CONTINUOUS
 62
     5
 10
-153.5
 20
1.054427999999999
 30
0.0
 11
-128.4999999999998
 21
1.054427999999999
 31
0.0
  0
LINE
  5
60D
  8
DETAIL
  6
CONTINUOUS
 62
     5
 10
-166.5
 20
166.054428
 30
0.0
 11
-128.4999999999998
 21
166.054428
 31
0.0
  0
LINE
  5
60E
  8
DETAIL
  6
CONTINUOUS
 62
     5
 10
-153.5
 20
0.054428
 30
0.0
 11
-153.5
 21
1.054427999999999
 31
0.0
  0
LINE
  5
60F
  8
NOTE
  6
CONTINUOUS
 62
     4
 10
-105.0
 20
166.054428
 30
0.0
 11
-373.58349700000002
 21
-131.7740399999999
 31
0.0
  0
LINE
  5
610
  8
SIZE
  6
CONTINUOUS
 62
    30
 10
-216.5
 20
356.543948
 30
0.0
 11
-463.38711399999988
 21
356.543948
 31
0.0
  0
TEXT
  5
611
  8
NOTE
  6
CONTINUOUS
 62
     4
 10
1064.002469999999
 20
426.35044299999998
 30
0.0
 40
64.0
  1
(2ô_Æ¦éÞ)
 41
0.9
  0
LINE
  5
612
  8
SIZE
  6
BYBLOCK
 62
    30
 10
165.0
 20
20.054428000000001
 30
0.0
 11
165.0
 21
1016.8189999999991
 31
0.0
  0
LINE
  5
613
  8
SIZE
  6
BYBLOCK
 62
    30
 10
-216.5
 20
179.804428
 30
0.0
 11
-216.5
 21
1016.8189999999991
 31
0.0
  0
LINE
  5
614
  8
SIZE
  6
BYBLOCK
 62
    30
 10
163.0
 20
986.81857800000012
 30
0.0
 11
-214.5
 21
986.81857800000012
 31
0.0
  0
TEXT
  5
615
  8
SIZE
  6
BYBLOCK
 62
    30
 10
-135.46428599999999
 20
1018.819
 30
0.0
 40
64.0
  1
381.5
 41
0.9
  0
LINE
  5
616
  8
SIZE
  6
BYBLOCK
 62
    30
 10
0.0
 20
241.77614199999999
 30
0.0
 11
0.0
 21
386.543948
 31
0.0
  0
LINE
  5
617
  8
SIZE
  6
BYBLOCK
 62
    30
 10
-216.5
 20
179.804428
 30
0.0
 11
-216.5
 21
386.543948
 31
0.0
  0
LINE
  5
618
  8
SIZE
  6
BYBLOCK
 62
    30
 10
-218.5
 20
356.543948
 30
0.0
 11
-220.5
 21
356.543948
 31
0.0
  0
LINE
  5
619
  8
SIZE
  6
BYBLOCK
 62
    30
 10
2.0
 20
356.543948
 30
0.0
 11
4.0
 21
356.543948
 31
0.0
  0
LINE
  5
61A
  8
SIZE
  6
BYBLOCK
 62
    30
 10
-216.5
 20
356.543948
 30
0.0
 11
0.0
 21
356.543948
 31
0.0
  0
TEXT
  5
61B
  8
SIZE
  6
BYBLOCK
 62
    30
 10
-460.85033900000002
 20
388.543948
 30
0.0
 40
64.0
  1
216.5
 41
0.9
  0
LINE
  5
61C
  8
SIZE
  6
BYBLOCK
 62
    30
 10
0.0
 20
-78.376257999999964
 30
0.0
 11
0.0
 21
-288.53873599999991
 31
0.0
  0
LINE
  5
61D
  8
SIZE
  6
BYBLOCK
 62
    30
 10
-105.0
 20
126.0544279999999
 30
0.0
 11
-105.0
 21
-288.53873599999991
 31
0.0
  0
LINE
  5
61E
  8
SIZE
  6
BYBLOCK
 62
    30
 10
-107.0
 20
-258.53873599999991
 30
0.0
 11
-109.0
 21
-258.53873599999991
 31
0.0
  0
LINE
  5
61F
  8
SIZE
  6
BYBLOCK
 62
    30
 10
2.0
 20
-258.53873599999991
 30
0.0
 11
4.0
 21
-258.53873599999991
 31
0.0
  0
LINE
  5
620
  8
SIZE
  6
BYBLOCK
 62
    30
 10
-105.0
 20
-258.53873599999991
 30
0.0
 11
0.0
 21
-258.53873599999991
 31
0.0
  0
TEXT
  5
621
  8
SIZE
  6
BYBLOCK
 62
    30
 10
-314.62408499999992
 20
-226.538736
 30
0.0
 40
64.0
  1
105
 41
0.9
  0
LINE
  5
622
  8
SIZE
  6
BYBLOCK
 62
    30
 10
-173.5
 20
1.054427999999999
 30
0.0
 11
-698.76072099999999
 21
1.054427999999999
 31
0.0
  0
LINE
  5
623
  8
SIZE
  6
BYBLOCK
 62
    30
 10
-148.5
 20
56.054428000000001
 30
0.0
 11
-698.76072099999999
 21
56.054428000000001
 31
0.0
  0
LINE
  5
624
  8
SIZE
  6
BYBLOCK
 62
    30
 10
-668.76072099999999
 20
58.054428000000001
 30
0.0
 11
-668.76072099999999
 21
60.054428000000001
 31
0.0
  0
LINE
  5
625
  8
SIZE
  6
BYBLOCK
 62
    30
 10
-668.76072099999999
 20
-0.9455719999999999
 30
0.0
 11
-668.76072099999999
 21
-2.9455719999999981
 31
0.0
  0
LINE
  5
626
  8
SIZE
  6
BYBLOCK
 62
    30
 10
-668.76072099999999
 20
56.054428000000001
 30
0.0
 11
-668.76072099999999
 21
1.054427999999999
 31
0.0
  0
TEXT
  5
627
  8
SIZE
  6
BYBLOCK
 62
    30
 10
-700.76072099999965
 20
-126.786108
 30
0.0
 40
64.0
  1
55
 50
90.0
 41
0.9
  0
LINE
  5
628
  8
SIZE
  6
BYBLOCK
 62
    30
 10
-186.5
 20
56.054428000000001
 30
0.0
 11
-698.76072099999999
 21
56.054428000000001
 31
0.0
  0
LINE
  5
629
  8
SIZE
  6
BYBLOCK
 62
    30
 10
-186.5
 20
166.054428
 30
0.0
 11
-698.76072099999999
 21
166.054428
 31
0.0
  0
LINE
  5
62A
  8
SIZE
  6
BYBLOCK
 62
    30
 10
-668.76072099999999
 20
168.054428
 30
0.0
 11
-668.76072099999999
 21
170.054428
 31
0.0
  0
LINE
  5
62B
  8
SIZE
  6
BYBLOCK
 62
    30
 10
-668.76072099999999
 20
54.054428000000001
 30
0.0
 11
-668.76072099999999
 21
52.054428000000001
 31
0.0
  0
LINE
  5
62C
  8
SIZE
  6
BYBLOCK
 62
    30
 10
-668.76072099999999
 20
166.054428
 30
0.0
 11
-668.76072099999999
 21
56.054428000000001
 31
0.0
  0
TEXT
  5
62D
  8
SIZE
  6
BYBLOCK
 62
    30
 10
-700.76072099999965
 20
183.00128699999999
 30
0.0
 40
64.0
  1
âË110
 50
90.0
 41
0.9
  0
LINE
  5
62E
  8
SIZE
  6
BYBLOCK
 62
    30
 10
-236.5
 20
62.304428000000001
 30
0.0
 11
-573.77799400000004
 21
62.304428000000001
 31
0.0
  0
LINE
  5
62F
  8
SIZE
  6
BYBLOCK
 62
    30
 10
-236.5
 20
159.804428
 30
0.0
 11
-573.77799400000004
 21
159.804428
 31
0.0
  0
LINE
  5
630
  8
SIZE
  6
BYBLOCK
 62
    30
 10
-543.77799400000004
 20
161.804428
 30
0.0
 11
-543.77799400000004
 21
163.804428
 31
0.0
  0
LINE
  5
631
  8
SIZE
  6
BYBLOCK
 62
    30
 10
-543.77799400000004
 20
60.304428000000001
 30
0.0
 11
-543.77799400000004
 21
58.304428000000001
 31
0.0
  0
LINE
  5
632
  8
SIZE
  6
BYBLOCK
 62
    30
 10
-543.77799400000004
 20
159.804428
 30
0.0
 11
-543.77799400000004
 21
62.304428000000001
 31
0.0
  0
TEXT
  5
633
  8
SIZE
  6
BYBLOCK
 62
    30
 10
-575.77799400000004
 20
180.530159
 30
0.0
 40
64.0
  1
âË97.5
 50
90.0
 41
0.9
  0
LINE
  5
634
  8
SIZE
  6
BYBLOCK
 62
    30
 10
-125.5
 20
195.5544279999998
 30
0.0
 11
-125.5
 21
887.12273000000005
 31
0.0
  0
LINE
  5
635
  8
SIZE
  6
BYBLOCK
 62
    30
 10
-216.5
 20
179.804428
 30
0.0
 11
-216.5
 21
887.12273000000005
 31
0.0
  0
LINE
  5
636
  8
SIZE
  6
BYBLOCK
 62
    30
 10
-127.5
 20
857.12273000000005
 30
0.0
 11
-171.0
 21
857.12273000000005
 31
0.0
  0
LINE
  5
637
  8
SIZE
  6
BYBLOCK
 62
    30
 10
-214.5
 20
857.12273000000005
 30
0.0
 11
-171.0
 21
857.12273000000005
 31
0.0
  0
TEXT
  5
638
  8
SIZE
  6
BYBLOCK
 62
    30
 10
-320.50668999999982
 20
889.12273000000005
 30
0.0
 40
64.0
  1
91
 41
0.9
  0
LINE
  5
639
  8
SIZE
  6
BYBLOCK
 62
    30
 10
-216.5
 20
179.804428
 30
0.0
 11
-216.5
 21
751.17669999999964
 31
0.0
  0
LINE
  5
63A
  8
SIZE
  6
BYBLOCK
 62
    30
 10
-196.5
 20
179.804428
 30
0.0
 11
-196.5
 21
751.17669999999964
 31
0.0
  0
LINE
  5
63B
  8
SIZE
  6
BYBLOCK
 62
    30
 10
-194.5
 20
721.17669999999998
 30
0.0
 11
-192.5
 21
721.17669999999998
 31
0.0
  0
LINE
  5
63C
  8
SIZE
  6
BYBLOCK
 62
    30
 10
-218.5
 20
721.17669999999998
 30
0.0
 11
-220.5
 21
721.17669999999998
 31
0.0
  0
LINE
  5
63D
  8
SIZE
  6
BYBLOCK
 62
    30
 10
-196.5
 20
721.17669999999998
 30
0.0
 11
-216.5
 21
721.17669999999998
 31
0.0
  0
TEXT
  5
63E
  8
SIZE
  6
BYBLOCK
 62
    30
 10
-335.59653199999991
 20
753.17669999999998
 30
0.0
 40
64.0
  1
20
 41
0.9
  0
LINE
  5
63F
  8
SIZE
  6
BYBLOCK
 62
    30
 10
-185.0
 20
0.054428
 30
0.0
 11
-765.19408899999985
 21
0.054428
 31
0.0
  0
LINE
  5
640
  8
SIZE
  6
BYBLOCK
 62
    30
 10
-303.6826069999999
 20
111.054428
 30
0.0
 11
-765.19408899999985
 21
111.054428
 31
0.0
  0
LINE
  5
641
  8
SIZE
  6
BYBLOCK
 62
    30
 10
-735.19408899999985
 20
2.054427999999997
 30
0.0
 11
-735.19408899999985
 21
55.554428000000001
 31
0.0
  0
LINE
  5
642
  8
SIZE
  6
BYBLOCK
 62
    30
 10
-735.19408899999985
 20
109.054428
 30
0.0
 11
-735.19408899999985
 21
55.554428000000001
 31
0.0
  0
TEXT
  5
643
  8
SIZE
  6
BYBLOCK
 62
    30
 10
-767.19408899999985
 20
4.811570999999998
 30
0.0
 40
64.0
  1
111
 50
90.0
 41
0.9
  0
LINE
  5
644
  8
SIZE
  6
BYBLOCK
 62
    30
 10
-185.0
 20
0.054428
 30
0.0
 11
-875.86356499999999
 21
0.054428
 31
0.0
  0
LINE
  5
645
  8
SIZE
  6
BYBLOCK
 62
    30
 10
-148.5
 20
178.0544279999998
 30
0.0
 11
-875.86356499999999
 21
178.0544279999998
 31
0.0
  0
LINE
  5
646
  8
SIZE
  6
BYBLOCK
 62
    30
 10
-845.86356499999988
 20
2.054427999999997
 30
0.0
 11
-845.86356499999988
 21
89.054428000000016
 31
0.0
  0
LINE
  5
647
  8
SIZE
  6
BYBLOCK
 62
    30
 10
-845.86356499999988
 20
176.05442799999969
 30
0.0
 11
-845.86356499999988
 21
89.054428000000016
 31
0.0
  0
TEXT
  5
648
  8
SIZE
  6
BYBLOCK
 62
    30
 10
-877.86356499999999
 20
20.483000000000001
 30
0.0
 40
64.0
  1
178
 50
90.0
 41
0.9
  0
LINE
  5
649
  8
SIZE
  6
BYBLOCK
 62
    30
 10
107.4999999999999
 20
166.054428
 30
0.0
 11
451.45282900000001
 21
166.054428
 31
0.0
  0
LINE
  5
64A
  8
SIZE
  6
BYBLOCK
 62
    30
 10
182.5
 20
174.0544279999998
 30
0.0
 11
451.45282900000001
 21
174.0544279999998
 31
0.0
  0
LINE
  5
64B
  8
SIZE
  6
BYBLOCK
 62
    30
 10
421.45282900000001
 20
176.05442799999969
 30
0.0
 11
421.45282900000001
 21
178.0544279999998
 31
0.0
  0
LINE
  5
64C
  8
SIZE
  6
BYBLOCK
 62
    30
 10
421.45282900000001
 20
164.054428
 30
0.0
 11
421.45282900000001
 21
162.054428
 31
0.0
  0
LINE
  5
64D
  8
SIZE
  6
BYBLOCK
 62
    30
 10
421.45282900000001
 20
174.0544279999998
 30
0.0
 11
421.45282900000001
 21
166.054428
 31
0.0
  0
TEXT
  5
64E
  8
SIZE
  6
BYBLOCK
 62
    30
 10
389.45282900000001
 20
250.94212399999989
 30
0.0
 40
64.0
  1
8
 50
90.0
 41
0.9
  0
LINE
  5
64F
  8
SIZE
  6
BYBLOCK
 62
    30
 10
107.4999999999999
 20
166.054428
 30
0.0
 11
587.384503
 21
166.054428
 31
0.0
  0
LINE
  5
650
  8
SIZE
  6
BYBLOCK
 62
    30
 10
92.0
 20
170.054428
 30
0.0
 11
587.384503
 21
170.054428
 31
0.0
  0
LINE
  5
651
  8
SIZE
  6
BYBLOCK
 62
    30
 10
557.384503
 20
172.054428
 30
0.0
 11
557.384503
 21
174.0544279999998
 31
0.0
  0
LINE
  5
652
  8
SIZE
  6
BYBLOCK
 62
    30
 10
557.384503
 20
164.054428
 30
0.0
 11
557.384503
 21
162.054428
 31
0.0
  0
LINE
  5
653
  8
SIZE
  6
BYBLOCK
 62
    30
 10
557.384503
 20
170.054428
 30
0.0
 11
557.384503
 21
166.054428
 31
0.0
  0
TEXT
  5
654
  8
SIZE
  6
BYBLOCK
 62
    30
 10
525.38450299999988
 20
247.570696
 30
0.0
 40
64.0
  1
4
 50
90.0
 41
0.9
  0
LINE
  5
655
  8
SIZE
  6
BYBLOCK
 62
    30
 10
185.0
 20
0.054428
 30
0.0
 11
587.384503
 21
0.054428
 31
0.0
  0
LINE
  5
656
  8
SIZE
  6
BYBLOCK
 62
    30
 10
107.4999999999999
 20
166.054428
 30
0.0
 11
587.384503
 21
166.054428
 31
0.0
  0
LINE
  5
657
  8
SIZE
  6
BYBLOCK
 62
    30
 10
557.384503
 20
2.054427999999997
 30
0.0
 11
557.384503
 21
83.054427999999987
 31
0.0
  0
LINE
  5
658
  8
SIZE
  6
BYBLOCK
 62
    30
 10
557.384503
 20
164.054428
 30
0.0
 11
557.384503
 21
83.054427999999987
 31
0.0
  0
TEXT
  5
659
  8
SIZE
  6
BYBLOCK
 62
    30
 10
525.38450299999988
 20
15.854428
 30
0.0
 40
64.0
  1
166
 50
90.0
 41
0.9
  0
LINE
  5
65A
  8
SIZE
  6
BYBLOCK
 62
    30
 10
185.0
 20
0.054428
 30
0.0
 11
735.78780800000004
 21
0.054428
 31
0.0
  0
LINE
  5
65B
  8
SIZE
  6
BYBLOCK
 62
    30
 10
36.852012000000002
 20
204.05441499999969
 30
0.0
 11
735.78780800000004
 21
204.05441499999969
 31
0.0
  0
LINE
  5
65C
  8
SIZE
  6
BYBLOCK
 62
    30
 10
705.78780800000004
 20
2.054427999999997
 30
0.0
 11
705.78780800000004
 21
102.054422
 31
0.0
  0
LINE
  5
65D
  8
SIZE
  6
BYBLOCK
 62
    30
 10
705.78780800000004
 20
202.05441499999981
 30
0.0
 11
705.78780800000004
 21
102.054422
 31
0.0
  0
TEXT
  5
65E
  8
SIZE
  6
BYBLOCK
 62
    30
 10
673.78780800000004
 20
26.625849999999989
 30
0.0
 40
64.0
  1
204
 50
90.0
 41
0.9
  0
LINE
  5
65F
  8
SIZE
  6
BYBLOCK
 62
    30
 10
155.13491300000001
 20
-19.945571999999999
 30
0.0
 11
735.78780800000004
 21
-19.945571999999999
 31
0.0
  0
LINE
  5
660
  8
SIZE
  6
BYBLOCK
 62
    30
 10
185.0
 20
0.054428
 30
0.0
 11
735.78780800000004
 21
0.054428
 31
0.0
  0
LINE
  5
661
  8
SIZE
  6
BYBLOCK
 62
    30
 10
705.78780800000004
 20
2.054427999999997
 30
0.0
 11
705.78780800000004
 21
4.054427999999997
 31
0.0
  0
LINE
  5
662
  8
SIZE
  6
BYBLOCK
 62
    30
 10
705.78780800000004
 20
-21.945571999999991
 30
0.0
 11
705.78780800000004
 21
-23.945571999999991
 31
0.0
  0
LINE
  5
663
  8
SIZE
  6
BYBLOCK
 62
    30
 10
705.78780800000004
 20
0.054428
 30
0.0
 11
705.78780800000004
 21
-19.945571999999999
 31
0.0
  0
TEXT
  5
664
  8
SIZE
  6
BYBLOCK
 62
    30
 10
673.78780800000004
 20
-147.17984699999991
 30
0.0
 40
64.0
  1
20
 50
90.0
 41
0.9
  0
LINE
  5
665
  8
SIZE
  6
BYBLOCK
 62
    30
 10
-125.5
 20
198.054428
 30
0.0
 11
-125.5
 21
887.12273000000005
 31
0.0
  0
LINE
  5
666
  8
SIZE
  6
BYBLOCK
 62
    30
 10
125.5
 20
194.054428
 30
0.0
 11
125.5
 21
887.12273000000005
 31
0.0
  0
LINE
  5
667
  8
SIZE
  6
BYBLOCK
 62
    30
 10
-123.5
 20
857.12273000000005
 30
0.0
 11
0.0
 21
857.12273000000005
 31
0.0
  0
LINE
  5
668
  8
SIZE
  6
BYBLOCK
 62
    30
 10
123.5
 20
857.12273000000005
 30
0.0
 11
0.0
 21
857.12273000000005
 31
0.0
  0
TEXT
  5
669
  8
SIZE
  6
BYBLOCK
 62
    30
 10
-86.391818000000015
 20
889.12273000000005
 30
0.0
 40
64.0
  1
üá251
 41
0.9
  0
LINE
  5
66A
  8
SIZE
  6
BYBLOCK
 62
    30
 10
0.0
 20
242.01638999999989
 30
0.0
 11
0.0
 21
386.543948
 31
0.0
  0
LINE
  5
66B
  8
SIZE
  6
BYBLOCK
 62
    30
 10
12.0
 20
233.7921979999999
 30
0.0
 11
12.0
 21
386.543948
 31
0.0
  0
LINE
  5
66C
  8
SIZE
  6
BYBLOCK
 62
    30
 10
14.0
 20
356.543948
 30
0.0
 11
16.0
 21
356.543948
 31
0.0
  0
LINE
  5
66D
  8
SIZE
  6
BYBLOCK
 62
    30
 10
-2.0
 20
356.543948
 30
0.0
 11
-4.0
 21
356.543948
 31
0.0
  0
LINE
  5
66E
  8
SIZE
  6
BYBLOCK
 62
    30
 10
12.0
 20
356.543948
 30
0.0
 11
0.0
 21
356.543948
 31
0.0
  0
TEXT
  5
66F
  8
SIZE
  6
BYBLOCK
 62
    30
 10
179.2033779999999
 20
388.543948
 30
0.0
 40
64.0
  1
12
 41
0.9
  0
LINE
  5
670
  8
SIZE
  6
BYBLOCK
 62
    30
 10
105.0
 20
214.0544279999998
 30
0.0
 11
105.0
 21
624.18775900000003
 31
0.0
  0
LINE
  5
671
  8
SIZE
  6
BYBLOCK
 62
    30
 10
-105.0
 20
214.0544279999998
 30
0.0
 11
-105.0
 21
624.18775900000003
 31
0.0
  0
LINE
  5
672
  8
SIZE
  6
BYBLOCK
 62
    30
 10
103.0
 20
594.18775900000003
 30
0.0
 11
0.0
 21
594.18775900000003
 31
0.0
  0
LINE
  5
673
  8
SIZE
  6
BYBLOCK
 62
    30
 10
-103.0
 20
594.18775900000003
 30
0.0
 11
0.0
 21
594.18775900000003
 31
0.0
  0
TEXT
  5
674
  8
SIZE
  6
BYBLOCK
 62
    30
 10
-68.571429000000009
 20
626.18775900000003
 30
0.0
 40
64.0
  1
210
 41
0.9
  0
LINE
  5
675
  8
SIZE
  6
BYBLOCK
 62
    30
 10
142.5
 20
214.75058199999981
 30
0.0
 11
142.5
 21
751.52869999999984
 31
0.0
  0
LINE
  5
676
  8
SIZE
  6
BYBLOCK
 62
    30
 10
-142.5
 20
214.75058199999981
 30
0.0
 11
-142.5
 21
751.52869999999984
 31
0.0
  0
LINE
  5
677
  8
SIZE
  6
BYBLOCK
 62
    30
 10
140.5
 20
721.52869999999984
 30
0.0
 11
0.0
 21
721.52869999999984
 31
0.0
  0
LINE
  5
678
  8
SIZE
  6
BYBLOCK
 62
    30
 10
-140.5
 20
721.52869999999984
 30
0.0
 11
0.0
 21
721.52869999999984
 31
0.0
  0
TEXT
  5
679
  8
SIZE
  6
BYBLOCK
 62
    30
 10
-74.057143000000025
 20
753.52869999999984
 30
0.0
 40
64.0
  1
285
 41
0.9
  0
LINE
  5
67A
  8
SIZE
  6
BYBLOCK
 62
    30
 10
165.00000700000001
 20
-26.210712999999998
 30
0.0
 11
165.00000700000001
 21
-715.13707099999999
 31
0.0
  0
LINE
  5
67B
  8
SIZE
  6
BYBLOCK
 62
    30
 10
-165.00000700000001
 20
-26.210712999999998
 30
0.0
 11
-165.00000700000001
 21
-715.13707099999999
 31
0.0
  0
LINE
  5
67C
  8
SIZE
  6
BYBLOCK
 62
    30
 10
163.00000700000001
 20
-685.13707099999999
 30
0.0
 11
0.0
 21
-685.13707099999999
 31
0.0
  0
LINE
  5
67D
  8
SIZE
  6
BYBLOCK
 62
    30
 10
-163.00000700000001
 20
-685.13707099999999
 30
0.0
 11
0.0
 21
-685.13707099999999
 31
0.0
  0
TEXT
  5
67E
  8
SIZE
  6
BYBLOCK
 62
    30
 10
-106.6971429999999
 20
-653.13707099999999
 30
0.0
 40
64.0
  1
üá330
 41
0.9
  0
LINE
  5
67F
  8
SIZE
  6
BYBLOCK
 62
    30
 10
-141.5
 20
-40.0
 30
0.0
 11
-141.5
 21
-586.16231600000003
 31
0.0
  0
LINE
  5
680
  8
SIZE
  6
BYBLOCK
 62
    30
 10
141.5
 20
-40.0
 30
0.0
 11
141.5
 21
-586.16231600000003
 31
0.0
  0
LINE
  5
681
  8
SIZE
  6
BYBLOCK
 62
    30
 10
-139.5
 20
-556.16231600000003
 30
0.0
 11
0.0
 21
-556.16231600000003
 31
0.0
  0
LINE
  5
682
  8
SIZE
  6
BYBLOCK
 62
    30
 10
139.5
 20
-556.16231600000003
 30
0.0
 11
0.0
 21
-556.16231600000003
 31
0.0
  0
TEXT
  5
683
  8
SIZE
  6
BYBLOCK
 62
    30
 10
-79.803834999999978
 20
-524.16231600000003
 30
0.0
 40
64.0
  1
283
 41
0.9
  0
LINE
  5
684
  8
SIZE
  6
BYBLOCK
 62
    30
 10
-85.0
 20
-40.0
 30
0.0
 11
-85.0
 21
-445.16050899999999
 31
0.0
  0
LINE
  5
685
  8
SIZE
  6
BYBLOCK
 62
    30
 10
85.0
 20
-40.0
 30
0.0
 11
85.0
 21
-445.16050899999999
 31
0.0
  0
LINE
  5
686
  8
SIZE
  6
BYBLOCK
 62
    30
 10
-83.0
 20
-415.16050899999999
 30
0.0
 11
0.0
 21
-415.16050899999999
 31
0.0
  0
LINE
  5
687
  8
SIZE
  6
BYBLOCK
 62
    30
 10
83.0
 20
-415.16050899999999
 30
0.0
 11
0.0
 21
-415.16050899999999
 31
0.0
  0
TEXT
  5
688
  8
SIZE
  6
BYBLOCK
 62
    30
 10
-68.571429000000009
 20
-383.16050899999999
 30
0.0
 40
64.0
  1
170
 41
0.9
  0
CIRCLE
  5
689
  8
SIZE
  6
CONTINUOUS
 62
    30
 10
85.0
 20
-415.16050899999999
 30
0.0
 40
6.0
  0
CIRCLE
  5
68A
  8
SIZE
  6
CONTINUOUS
 62
    30
 10
-85.0
 20
-415.16050899999999
 30
0.0
 40
6.0
  0
CIRCLE
  5
68B
  8
SIZE
  6
CONTINUOUS
 62
    30
 10
141.5
 20
-556.16231600000003
 30
0.0
 40
6.0
  0
CIRCLE
  5
68C
  8
SIZE
  6
CONTINUOUS
 62
    30
 10
-141.5
 20
-556.16231600000003
 30
0.0
 40
6.0
  0
CIRCLE
  5
68D
  8
SIZE
  6
CONTINUOUS
 62
    30
 10
-165.00000700000001
 20
-685.13707099999999
 30
0.0
 40
6.0
  0
CIRCLE
  5
68E
  8
SIZE
  6
CONTINUOUS
 62
    30
 10
165.00000700000001
 20
-685.13707099999999
 30
0.0
 40
6.0
  0
CIRCLE
  5
68F
  8
SIZE
  6
CONTINUOUS
 62
    30
 10
-142.5
 20
721.52869999999984
 30
0.0
 40
6.0
  0
CIRCLE
  5
690
  8
SIZE
  6
CONTINUOUS
 62
    30
 10
142.5
 20
721.52869999999984
 30
0.0
 40
6.0
  0
CIRCLE
  5
691
  8
SIZE
  6
CONTINUOUS
 62
    30
 10
-105.0
 20
594.18775900000003
 30
0.0
 40
6.0
  0
CIRCLE
  5
692
  8
SIZE
  6
CONTINUOUS
 62
    30
 10
105.0
 20
594.18775900000003
 30
0.0
 40
6.0
  0
CIRCLE
  5
693
  8
SIZE
  6
CONTINUOUS
 62
    30
 10
0.0
 20
356.543948
 30
0.0
 40
6.0
  0
CIRCLE
  5
694
  8
SIZE
  6
CONTINUOUS
 62
    30
 10
12.0
 20
356.543948
 30
0.0
 40
6.0
  0
CIRCLE
  5
695
  8
SIZE
  6
CONTINUOUS
 62
    30
 10
125.5
 20
857.12273000000005
 30
0.0
 40
6.0
  0
CIRCLE
  5
696
  8
SIZE
  6
CONTINUOUS
 62
    30
 10
-125.5
 20
857.12273000000005
 30
0.0
 40
6.0
  0
CIRCLE
  5
697
  8
SIZE
  6
CONTINUOUS
 62
    30
 10
705.78780800000004
 20
-19.945571999999999
 30
0.0
 40
6.0
  0
CIRCLE
  5
698
  8
SIZE
  6
CONTINUOUS
 62
    30
 10
705.78780800000004
 20
0.054428
 30
0.0
 40
6.0
  0
CIRCLE
  5
699
  8
SIZE
  6
CONTINUOUS
 62
    30
 10
705.78780800000004
 20
204.05441499999969
 30
0.0
 40
6.0
  0
CIRCLE
  5
69A
  8
SIZE
  6
CONTINUOUS
 62
    30
 10
705.78780800000004
 20
0.054428
 30
0.0
 40
6.0
  0
CIRCLE
  5
69B
  8
SIZE
  6
CONTINUOUS
 62
    30
 10
557.384503
 20
166.054428
 30
0.0
 40
6.0
  0
CIRCLE
  5
69C
  8
SIZE
  6
CONTINUOUS
 62
    30
 10
557.384503
 20
0.054428
 30
0.0
 40
6.0
  0
CIRCLE
  5
69D
  8
SIZE
  6
CONTINUOUS
 62
    30
 10
557.384503
 20
166.054428
 30
0.0
 40
6.0
  0
CIRCLE
  5
69E
  8
SIZE
  6
CONTINUOUS
 62
    30
 10
557.384503
 20
170.054428
 30
0.0
 40
6.0
  0
CIRCLE
  5
69F
  8
SIZE
  6
CONTINUOUS
 62
    30
 10
421.45282900000001
 20
166.054428
 30
0.0
 40
6.0
  0
CIRCLE
  5
6A0
  8
SIZE
  6
CONTINUOUS
 62
    30
 10
421.45282900000001
 20
174.0544279999998
 30
0.0
 40
6.0
  0
CIRCLE
  5
6A1
  8
SIZE
  6
CONTINUOUS
 62
    30
 10
-845.86356499999988
 20
178.0544279999998
 30
0.0
 40
6.0
  0
CIRCLE
  5
6A2
  8
SIZE
  6
CONTINUOUS
 62
    30
 10
-845.86356499999988
 20
0.054428
 30
0.0
 40
6.0
  0
CIRCLE
  5
6A3
  8
SIZE
  6
CONTINUOUS
 62
    30
 10
-735.19408899999985
 20
111.054428
 30
0.0
 40
6.0
  0
CIRCLE
  5
6A4
  8
SIZE
  6
CONTINUOUS
 62
    30
 10
-735.19408899999985
 20
0.054428
 30
0.0
 40
6.0
  0
CIRCLE
  5
6A5
  8
SIZE
  6
CONTINUOUS
 62
    30
 10
-216.5
 20
721.17669999999998
 30
0.0
 40
6.0
  0
CIRCLE
  5
6A6
  8
SIZE
  6
CONTINUOUS
 62
    30
 10
-196.5
 20
721.17669999999998
 30
0.0
 40
6.0
  0
CIRCLE
  5
6A7
  8
SIZE
  6
CONTINUOUS
 62
    30
 10
-216.5
 20
857.12273000000005
 30
0.0
 40
6.0
  0
CIRCLE
  5
6A8
  8
SIZE
  6
CONTINUOUS
 62
    30
 10
-125.5
 20
857.12273000000005
 30
0.0
 40
6.0
  0
CIRCLE
  5
6A9
  8
SIZE
  6
CONTINUOUS
 62
    30
 10
-543.77799400000004
 20
62.304428000000001
 30
0.0
 40
6.0
  0
CIRCLE
  5
6AA
  8
SIZE
  6
CONTINUOUS
 62
    30
 10
-543.77799400000004
 20
159.804428
 30
0.0
 40
6.0
  0
CIRCLE
  5
6AB
  8
SIZE
  6
CONTINUOUS
 62
    30
 10
-668.76072099999999
 20
56.054428000000001
 30
0.0
 40
6.0
  0
CIRCLE
  5
6AC
  8
SIZE
  6
CONTINUOUS
 62
    30
 10
-668.76072099999999
 20
166.054428
 30
0.0
 40
6.0
  0
CIRCLE
  5
6AD
  8
SIZE
  6
CONTINUOUS
 62
    30
 10
-668.76072099999999
 20
1.054427999999999
 30
0.0
 40
6.0
  0
CIRCLE
  5
6AE
  8
SIZE
  6
CONTINUOUS
 62
    30
 10
-668.76072099999999
 20
56.054428000000001
 30
0.0
 40
6.0
  0
CIRCLE
  5
6AF
  8
SIZE
  6
CONTINUOUS
 62
    30
 10
0.0
 20
-258.53873599999991
 30
0.0
 40
6.0
  0
CIRCLE
  5
6B0
  8
SIZE
  6
CONTINUOUS
 62
    30
 10
-105.0
 20
-258.53873599999991
 30
0.0
 40
6.0
  0
CIRCLE
  5
6B1
  8
SIZE
  6
CONTINUOUS
 62
    30
 10
0.0
 20
356.543948
 30
0.0
 40
6.0
  0
CIRCLE
  5
6B2
  8
SIZE
  6
CONTINUOUS
 62
    30
 10
-216.5
 20
356.543948
 30
0.0
 40
6.0
  0
CIRCLE
  5
6B3
  8
SIZE
  6
CONTINUOUS
 62
    30
 10
-216.5
 20
986.81857800000012
 30
0.0
 40
6.0
  0
CIRCLE
  5
6B4
  8
SIZE
  6
CONTINUOUS
 62
    30
 10
165.0
 20
986.81857800000012
 30
0.0
 40
6.0
  0
LINE
  5
6BA
  8
NOTE
  6
CONTINUOUS
 62
     4
 10
105.0
 20
154.05442799999969
 30
0.0
 11
105.0
 21
194.054428
 31
0.0
  0
LINE
  5
6BB
  8
NOTE
  6
CONTINUOUS
 62
     4
 10
85.0
 20
174.0544279999998
 30
0.0
 11
125.0
 21
174.0544279999998
 31
0.0
  0
LINE
  5
6BC
  8
NOTE
  6
CONTINUOUS
 62
     4
 10
-105.0
 20
154.05442799999969
 30
0.0
 11
-105.0
 21
194.054428
 31
0.0
  0
LINE
  5
6BD
  8
NOTE
  6
CONTINUOUS
 62
     4
 10
-85.0
 20
174.0544279999998
 30
0.0
 11
-125.0
 21
174.0544279999998
 31
0.0
  0
LINE
  5
6BE
  8
NOTE
  6
CONTINUOUS
 62
     4
 10
142.5
 20
154.05442799999969
 30
0.0
 11
142.5
 21
194.054428
 31
0.0
  0
LINE
  5
6BF
  8
NOTE
  6
CONTINUOUS
 62
     4
 10
122.5
 20
174.0544279999998
 30
0.0
 11
162.5
 21
174.0544279999998
 31
0.0
  0
LINE
  5
6CA
  8
NOTE
  6
CONTINUOUS
 62
     4
 10
-142.5
 20
154.05442799999969
 30
0.0
 11
-142.5
 21
194.054428
 31
0.0
  0
LINE
  5
6CB
  8
NOTE
  6
CONTINUOUS
 62
     4
 10
-122.5
 20
174.0544279999998
 30
0.0
 11
-162.5
 21
174.0544279999998
 31
0.0
  0
LINE
  5
6CC
  8
NOTE
  6
CONTINUOUS
 62
     4
 10
-105.0
 20
146.054428
 30
0.0
 11
-105.0
 21
186.054428
 31
0.0
  0
LINE
  5
6CD
  8
NOTE
  6
CONTINUOUS
 62
     4
 10
-85.0
 20
166.054428
 30
0.0
 11
-125.0
 21
166.054428
 31
0.0
  0
LINE
  5
6CE
  8
NOTE
  6
CONTINUOUS
 62
     4
 10
-141.5
 20
-19.945571999999999
 30
0.0
 11
-141.5
 21
20.054428000000001
 31
0.0
  0
LINE
  5
6CF
  8
NOTE
  6
CONTINUOUS
 62
     4
 10
-161.5
 20
0.054428
 30
0.0
 11
-121.5
 21
0.054428
 31
0.0
  0
LINE
  5
6D0
  8
NOTE
  6
CONTINUOUS
 62
     4
 10
-85.0
 20
-19.945571999999999
 30
0.0
 11
-85.0
 21
20.054428000000001
 31
0.0
  0
LINE
  5
6D1
  8
NOTE
  6
CONTINUOUS
 62
     4
 10
-105.0
 20
0.054428
 30
0.0
 11
-65.0
 21
0.054428
 31
0.0
  0
LINE
  5
6D2
  8
NOTE
  6
CONTINUOUS
 62
     4
 10
85.0
 20
-19.945571999999999
 30
0.0
 11
85.0
 21
20.054428000000001
 31
0.0
  0
LINE
  5
6D3
  8
NOTE
  6
CONTINUOUS
 62
     4
 10
65.0
 20
0.054428
 30
0.0
 11
105.0
 21
0.054428
 31
0.0
  0
LINE
  5
6D4
  8
NOTE
  6
CONTINUOUS
 62
     4
 10
141.5
 20
-19.945571999999999
 30
0.0
 11
141.5
 21
20.054428000000001
 31
0.0
  0
LINE
  5
6D5
  8
NOTE
  6
CONTINUOUS
 62
     4
 10
121.5
 20
0.054428
 30
0.0
 11
161.5
 21
0.054428
 31
0.0
  0
LINE
  5
6DA
  8
DETAIL
  6
DASHDOT
 62
     5
 10
-29.0
 20
194.4544139999999
 30
0.0
 11
-29.0
 21
170.054428
 31
0.0
  0
LINE
  5
6DB
  8
DETAIL
  6
DASHDOT
 62
     5
 10
53.0
 20
194.4544139999999
 30
0.0
 11
53.0
 21
170.054428
 31
0.0
  0
ARC
  5
6DC
  8
DETAIL
  6
CONTINUOUS
 62
     5
 10
-24.0
 20
194.4544139999999
 30
0.0
 40
5.0
 50
90.0
 51
180.0
  0
ARC
  5
6DD
  8
DETAIL
  6
CONTINUOUS
 62
     5
 10
48.0
 20
194.4544139999999
 30
0.0
 40
5.0
 50
0.0
 51
90.0
  0
LINE
  5
6DE
  8
SIZE
  6
CONTINUOUS
 62
    30
 10
-29.0
 20
214.4544139999999
 30
0.0
 11
-28.999999999999961
 21
509.00217710015289
 31
0.0
  0
LINE
  5
6DF
  8
SIZE
  6
CONTINUOUS
 62
    30
 10
53.0
 20
214.4544139999999
 30
0.0
 11
53.000000000000043
 21
509.00217710015289
 31
0.0
  0
LINE
  5
6E0
  8
SIZE
  6
CONTINUOUS
 62
    30
 10
-16.999999999999989
 20
479.00217710015278
 30
0.0
 11
41.000000000000007
 21
479.00217710015278
 31
0.0
  0
TEXT
  5
6E3
  8
SIZE
  6
BYBLOCK
 62
    30
 10
-84.077494737372035
 20
510.32286515235302
 30
0.0
 40
64.0
  1
âË82
 41
0.9
  0
TEXT
  5
6ED
  8
ETC
  6
CONTINUOUS
 62
    61
 10
829.14176908761442
 20
981.30689920649411
 30
0.0
 40
64.0
  1
VD-15ZT7_4
 41
0.9
  0
TEXT
  5
6EE
  8
ETC
  6
CONTINUOUS
 62
    61
 10
828.43689408761452
 20
878.15702920649369
 30
0.0
 40
64.0
  1
èÀïCÉ¯
 41
0.9
  0
TEXT
  5
6EF
  8
ETC
  6
CONTINUOUS
 62
    61
 10
1006.057207021621
 20
691.40600450777254
 30
0.0
 40
50.0
  1
VD-15ZPT7
 41
0.9
  0
TEXT
  5
6F0
  8
ETC
  6
CONTINUOUS
 62
    61
 10
1006.057207021621
 20
778.37627291738966
 30
0.0
 40
50.0
  1
VD-15ZT7
 41
0.9
  0
ARC
  5
6F1
  8
DETAIL
  6
CONTINUOUS
 62
     5
 10
-160.6531314213122
 20
-8.4994533355303297
 30
0.0
 40
4.3468685786884018
 50
179.9999692155333
 51
234.48040473296439
  0
ARC
  5
6F2
  8
DETAIL
  6
CONTINUOUS
 62
     5
 10
-143.85271285375001
 20
15.036754348281431
 30
0.0
 40
33.26411492374222
 50
234.4803248995994
 51
253.5286705122077
  0
ARC
  5
6F3
  8
DETAIL
  6
CONTINUOUS
 62
     5
 10
-132.52209515784139
 20
53.358355301539127
 30
0.0
 40
73.225696436334616
 50
253.52859718138629
 51
263.0177691889362
  0
ARC
  5
6F4
  8
DETAIL
  6
CONTINUOUS
 62
     5
 10
-125.0001446984809
 20
114.7761173357022
 30
0.0
 40
135.1023578846459
 50
263.01771384064739
 51
265.69788821887329
  0
LINE
  5
6F5
  8
NOTE
  6
CONTINUOUS
 62
     4
 10
-120.99633799999999
 20
129.392225
 30
0.0
 11
-105.0
 21
166.054428
 31
0.0
  0
LINE
  5
6F6
  8
NOTE
  6
CONTINUOUS
 62
     4
 10
-105.0
 20
166.054428
 30
0.0
 11
-137.184337
 21
142.302198
 31
0.0
  0
CIRCLE
  5
6F7
  8
SIZE
  6
CONTINUOUS
 62
    30
 10
-28.999999999999961
 20
479.00217710015278
 30
0.0
 40
6.0
  0
LINE
  5
6F8
  8
SIZE
  6
CONTINUOUS
 62
    30
 10
-28.999999999999961
 20
479.00217710015278
 30
0.0
 11
-16.999999999999961
 21
479.00217710015278
 31
0.0
  0
LINE
  5
6F9
  8
NOTE
  6
CONTINUOUS
 62
     4
 10
147.617694
 20
-39.474975999999998
 30
0.0
 11
141.5
 21
0.054428
 31
0.0
  0
LINE
  5
6FA
  8
NOTE
  6
CONTINUOUS
 62
     4
 10
141.5
 20
0.054428
 30
0.0
 11
166.56278
 21
-31.120194000000001
 31
0.0
  0
ARC
  5
6FB
  8
DETAIL
  6
CONTINUOUS
 62
     5
 10
160.6531314213122
 20
-8.4994533355303297
 30
0.0
 40
4.3468685786884018
 50
305.51959526703553
 51
0.0000307844666481
  0
ARC
  5
6FC
  8
DETAIL
  6
CONTINUOUS
 62
     5
 10
143.85271285375001
 20
15.036754348281431
 30
0.0
 40
33.26411492374222
 50
286.47132948779222
 51
305.5196751004006
  0
ARC
  5
6FD
  8
DETAIL
  6
CONTINUOUS
 62
     5
 10
132.52209515784139
 20
53.358355301539127
 30
0.0
 40
73.225696436334616
 50
276.98223081106369
 51
286.47140281861363
  0
ARC
  5
6FE
  8
DETAIL
  6
CONTINUOUS
 62
     5
 10
125.0001446984809
 20
114.7761173357022
 30
0.0
 40
135.1023578846459
 50
274.3021117811266
 51
276.9822861593525
  0
LINE
  5
6FF
  8
NOTE
  6
CONTINUOUS
 62
     4
 10
179.43295499999999
 20
189.41531499999991
 30
0.0
 11
142.5
 21
174.0544279999998
 31
0.0
  0
LINE
  5
700
  8
NOTE
  6
CONTINUOUS
 62
     4
 10
142.5
 20
174.0544279999998
 30
0.0
 11
166.80443299999979
 21
205.823824
 31
0.0
  0
CIRCLE
  5
701
  8
SIZE
  6
CONTINUOUS
 62
    30
 10
53.000000000000021
 20
479.00217710015278
 30
0.0
 40
6.0
  0
LINE
  5
702
  8
SIZE
  6
CONTINUOUS
 62
    30
 10
53.000000000000021
 20
479.00217710015278
 30
0.0
 11
41.000000000000021
 21
479.00217710015278
 31
0.0
  0
ENDSEC
  0
EOF
