  0
SECTION
  2
HEADER
  9
$ACADVER
  1
AC1009
  9
$DWGCODEPAGE
  3
dos932
  9
$INSBASE
 10
0.0
 20
0.0
 30
0.0
  9
$EXTMIN
 10
-468.41727547633849
 20
-597.6104621049144
 30
-0.0038144062317542
  9
$EXTMAX
 10
1034.190771267542
 20
478.72925593835322
 30
0.0057221914242405
  9
$LIMMIN
 10
-2970.0
 20
-2100.0
  9
$LIMMAX
 10
2970.0
 20
2100.0
  9
$ORTHOMODE
 70
     1
  9
$REGENMODE
 70
     1
  9
$FILLMODE
 70
     1
  9
$QTEXTMODE
 70
     0
  9
$MIRRTEXT
 70
     0
  9
$LTSCALE
 40
20.0
  9
$ATTMODE
 70
     1
  9
$TEXTSIZE
 40
64.0
  9
$TRACEWID
 40
0.05
  9
$TEXTSTYLE
  7
STANDARD
  9
$CLAYER
  8
OUTLINE
  9
$CELTYPE
  6
CONTINUOUS
  9
$CECOLOR
 62
     7
  9
$DIMSCALE
 40
1.0
  9
$DIMASZ
 40
12.0
  9
$DIMEXO
 40
20.0
  9
$DIMDLI
 40
200.0
  9
$DIMRND
 40
0.0
  9
$DIMDLE
 40
0.0
  9
$DIMEXE
 40
20.0
  9
$DIMTP
 40
0.0
  9
$DIMTM
 40
0.0
  9
$DIMTXT
 40
64.0
  9
$DIMCEN
 40
0.09
  9
$DIMTSZ
 40
0.0
  9
$DIMTOL
 70
     0
  9
$DIMLIM
 70
     0
  9
$DIMTIH
 70
     0
  9
$DIMTOH
 70
     0
  9
$DIMSE1
 70
     0
  9
$DIMSE2
 70
     0
  9
$DIMTAD
 70
     1
  9
$DIMZIN
 70
     8
  9
$DIMBLK
  1

  9
$DIMASO
 70
     1
  9
$DIMSHO
 70
     0
  9
$DIMPOST
  1

  9
$DIMAPOST
  1

  9
$DIMALT
 70
     0
  9
$DIMALTD
 70
     2
  9
$DIMALTF
 40
25.399999999999999
  9
$DIMLFAC
 40
1.0
  9
$DIMTOFL
 70
     1
  9
$DIMTVP
 40
0.0
  9
$DIMTIX
 70
     1
  9
$DIMSOXD
 70
     0
  9
$DIMSAH
 70
     0
  9
$DIMBLK1
  1

  9
$DIMBLK2
  1

  9
$DIMSTYLE
  2
STANDARD
  9
$DIMCLRD
 70
     7
  9
$DIMCLRE
 70
     7
  9
$DIMCLRT
 70
     7
  9
$DIMTFAC
 40
1.0
  9
$DIMGAP
 40
25.0
  9
$LUNITS
 70
     2
  9
$LUPREC
 70
     4
  9
$SKETCHINC
 40
0.1
  9
$FILLETRAD
 40
3.0
  9
$AUNITS
 70
     1
  9
$AUPREC
 70
     3
  9
$MENU
  1
ACAD
  9
$ELEVATION
 40
0.0
  9
$PELEVATION
 40
0.0
  9
$THICKNESS
 40
50.0
  9
$LIMCHECK
 70
     0
  9
$CHAMFERA
 40
0.0
  9
$CHAMFERB
 40
0.0
  9
$SKPOLY
 70
     0
  9
$TDCREATE
 40
2453019.62301037
  9
$TDUPDATE
 40
2458899.495890474
  9
$TDINDWG
 40
1.7934791435
  9
$TDUSRTIMER
 40
1.7934791435
  9
$USRTIMER
 70
     1
  9
$ANGBASE
 50
0.0
  9
$ANGDIR
 70
     0
  9
$PDMODE
 70
     3
  9
$PDSIZE
 40
-2.0
  9
$PLINEWID
 40
0.0
  9
$SPLFRAME
 70
     0
  9
$SPLINETYPE
 70
     6
  9
$SPLINESEGS
 70
     8
  9
$SURFTAB1
 70
     6
  9
$SURFTAB2
 70
     6
  9
$SURFTYPE
 70
     6
  9
$SURFU
 70
     6
  9
$SURFV
 70
     6
  9
$UCSNAME
  2

  9
$UCSORG
 10
0.0
 20
0.0
 30
0.0
  9
$UCSXDIR
 10
1.0
 20
0.0
 30
0.0
  9
$UCSYDIR
 10
0.0
 20
1.0
 30
0.0
  9
$PUCSNAME
  2

  9
$PUCSORG
 10
0.0
 20
0.0
 30
0.0
  9
$PUCSXDIR
 10
1.0
 20
0.0
 30
0.0
  9
$PUCSYDIR
 10
0.0
 20
1.0
 30
0.0
  9
$USERI1
 70
     0
  9
$USERI2
 70
     0
  9
$USERI3
 70
     0
  9
$USERI4
 70
     0
  9
$USERI5
 70
     0
  9
$USERR1
 40
20.0
  9
$USERR2
 40
0.0
  9
$USERR3
 40
0.0
  9
$USERR4
 40
0.0
  9
$USERR5
 40
0.0
  9
$WORLDVIEW
 70
     1
  9
$SHADEDGE
 70
     3
  9
$SHADEDIF
 70
    70
  9
$TILEMODE
 70
     1
  9
$MAXACTVP
 70
    48
  9
$PINSBASE
 10
0.0
 20
0.0
 30
0.0
  9
$PLIMCHECK
 70
     0
  9
$PEXTMIN
 10
-100000000000000000000.0
 20
-100000000000000000000.0
 30
-100000000000000000000.0
  9
$PEXTMAX
 10
100000000000000000000.0
 20
100000000000000000000.0
 30
100000000000000000000.0
  9
$PLIMMIN
 10
0.0
 20
0.0
  9
$PLIMMAX
 10
12.0
 20
9.0
  9
$UNITMODE
 70
     0
  9
$VISRETAIN
 70
     0
  9
$PLINEGEN
 70
     0
  9
$PSLTSCALE
 70
     0
  9
$TREEDEPTH
 70
  3020
  9
$ATTDIA
 70
     0
  9
$ATTREQ
 70
     1
  9
$BLIPMODE
 70
     1
  9
$COORDS
 70
     1
  9
$DRAGMODE
 70
     2
  9
$OSMODE
 70
     0
  9
$HANDLING
 70
     0
  9
$HANDSEED
  5
1E9DB
  0
ENDSEC
  0
SECTION
  2
TABLES
  0
TABLE
  2
LTYPE
 70
     3
  0
LTYPE
  2
CONTINUOUS
 70
     0
  3
実線
 72
    65
 73
     0
 40
0.0
  0
LTYPE
  2
DASHDOT
 70
     0
  3
____ _ ____ _ ____ _ ____ _ ____ _ ____ _ ____
 72
    65
 73
     4
 40
5.5
 49
4.0
 49
-0.6
 49
0.3
 49
-0.6
  0
LTYPE
  2
CONTINOUS
 70
     0
  3
Solid line
 72
    65
 73
     0
 40
0.0
  0
ENDTAB
  0
TABLE
  2
LAYER
 70
    12
  0
LAYER
  2
0
 70
     0
 62
     7
  6
CONTINUOUS
  0
LAYER
  2
BASIS
 70
     0
 62
     6
  6
DASHDOT
  0
LAYER
  2
OUTLINE
 70
     0
 62
     3
  6
CONTINUOUS
  0
LAYER
  2
DETAIL
 70
     0
 62
     5
  6
CONTINUOUS
  0
LAYER
  2
SIZE
 70
     0
 62
    30
  6
CONTINUOUS
  0
LAYER
  2
ARRANGE
 70
     0
 62
     1
  6
CONTINUOUS
  0
LAYER
  2
DEFPOINTS
 70
     0
 62
     7
  6
CONTINUOUS
  0
LAYER
  2
ETC
 70
     0
 62
    61
  6
CONTINUOUS
  0
LAYER
  2
NOTE
 70
     0
 62
     4
  6
CONTINUOUS
  0
LAYER
  2
FIX
 70
    64
 62
    11
  6
CONTINUOUS
  0
LAYER
  2
SERVICESPACE
 70
    64
 62
     2
  6
DASHDOT
  0
LAYER
  2
SYMBOLLINE
 70
    64
 62
    15
  6
CONTINUOUS
  0
ENDTAB
  0
TABLE
  2
STYLE
 70
     1
  0
STYLE
  2
STANDARD
 70
     0
 40
64.0
 41
0.9
 50
0.0
 71
     0
 42
64.0
  3
SIMPLEX.shx
  4
BIGFONT.shx
  0
ENDTAB
  0
TABLE
  2
APPID
 70
    17
  0
APPID
  2
ACAD
 70
     0
  0
APPID
  2
AUTOCAD_POSTSCRIPT_FIGURE
 70
     0
  0
APPID
  2
ACAD_EXEMPT_FROM_CAD_STANDARDS
 70
     0
  0
APPID
  2
ACAD_PSEXT
 70
     0
  0
APPID
  2
ACAUTHENVIRON
 70
     0
  0
APPID
  2
GENIUS_GENOENT_13
 70
     0
  0
APPID
  2
GENIUS_GENCFG_13
 70
     0
  0
APPID
  2
GENIUS_GENCFG0_13
 70
     0
  0
APPID
  2
GENIUS_GENCFG1_13
 70
     0
  0
APPID
  2
GENIUS_GENCFG2_13
 70
     0
  0
APPID
  2
GENIUS_GENCFG3_13
 70
     0
  0
APPID
  2
GENIUS_GENCFG4_13
 70
     0
  0
APPID
  2
GENIUS_GEVCFG0_13
 70
     0
  0
APPID
  2
CONTENTBLOCKICON
 70
     0
  0
APPID
  2
CONTENTBLOCKDESCRIPTION
 70
     0
  0
APPID
  2
ACAD_NAV_VCDISPLAY
 70
     0
  0
APPID
  2
ACAD_MLEADERVER
 70
     0
  0
ENDTAB
  0
TABLE
  2
DIMSTYLE
 70
     1
  0
DIMSTYLE
  2
STANDARD
 70
     0
  3

  4

  5
_ORIGIN
  6

  7

 40
1.0
 41
12.0
 42
20.0
 43
200.0
 44
20.0
 45
0.0
 46
0.0
 47
0.0
 48
0.0
140
64.0
141
0.09
142
0.0
143
25.399999999999999
144
1.0
145
0.0
146
1.0
147
25.0
 71
     0
 72
     0
 73
     0
 74
     0
 75
     0
 76
     0
 77
     1
 78
     8
170
     0
171
     2
172
     1
173
     0
174
     1
175
     0
176
     7
177
     7
178
     7
  0
ENDTAB
  0
TABLE
  2
VIEW
 70
     1
  0
VIEW
  2
ALL
 70
     0
 40
4282.6198079999986
 10
0.0
 20
41.309904000000003
 41
5940.0
 11
0.0
 21
0.0
 31
1.0
 12
0.0
 22
0.0
 32
0.0
 42
50.0
 43
0.0
 44
0.0
 50
0.0
 71
     0
  0
ENDTAB
  0
TABLE
  2
UCS
 70
     0
  0
ENDTAB
  0
TABLE
  2
VPORT
 70
     1
  0
VPORT
  2
*ACTIVE
 70
     0
 10
0.0
 20
0.0
 11
1.0
 21
1.0
 12
282.88674789560167
 22
-59.440603083280621
 13
0.0
 23
0.0
 14
1.0
 24
1.0
 15
0.0
 25
0.0
 16
0.0
 26
0.0
 36
1.0
 17
0.0
 27
0.0
 37
0.0
 40
1083.011245221222
 41
1.6339193381592549
 42
50.0
 43
0.0
 44
0.0
 50
0.0
 51
0.0
 71
     0
 72
  1000
 73
     1
 74
     3
 75
     0
 76
     0
 77
     0
 78
     0
  0
ENDTAB
  0
ENDSEC
  0
SECTION
  2
BLOCKS
  0
BLOCK
  8
0
  2
_ORIGIN
 70
     0
 10
0.0
 20
0.0
 30
0.0
  3
_ORIGIN
  1
_ORIGIN
  0
CIRCLE
  8
0
  6
CONTINUOUS
 62
     7
 10
0.0
 20
0.0
 30
0.0
 40
0.5
  0
LINE
  8
0
  6
CONTINUOUS
 62
     7
 10
0.0
 20
0.0
 30
0.0
 11
-1.0
 21
0.0
 31
0.0
  0
ENDBLK
  8
0
  0
ENDSEC
  0
SECTION
  2
ENTITIES
  0
TEXT
  8
ETC
  6
CONTINUOUS
 62
    61
 10
301.70365294257772
 20
414.6459446847914
 30
0.0
 40
64.0
  1
VD-15ZVX6-C_6
 41
0.9
  0
TEXT
  8
ETC
  6
CONTINUOUS
 62
    61
 10
297.51765894257733
 20
296.69063466996022
 30
0.0
 40
64.0
  1
換気扇
 41
0.9
  0
TEXT
  8
ETC
  6
CONTINUOUS
 62
    61
 10
348.21905719113329
 20
188.5418617837349
 30
0.0
 40
40.0
  1
VD-15ZVX6-C
 41
0.9
  0
LINE
  8
DETAIL
  6
CONTINOUS
 62
     5
 10
49.0
 20
-239.5
 30
0.0
 11
-49.0
 21
-239.5
 31
0.0
  0
LINE
  8
DETAIL
  6
CONTINUOUS
 62
     5
 10
-149.5
 20
-167.5
 30
0.0
 11
149.5
 21
-167.5
 31
0.0
  0
LINE
  8
SIZE
  6
CONTINUOUS
 62
    30
 10
-31.058250999999931
 20
-577.47308799999985
 30
0.0
 11
298.7317109999999
 21
-577.47308799999985
 31
0.0
  0
LINE
  8
SIZE
  6
CONTINUOUS
 62
    30
 10
-34.558250999999927
 20
-449.99274400000002
 30
0.0
 11
269.77854699999989
 21
-449.99274400000002
 31
0.0
  0
TEXT
  8
NOTE
  6
CONTINUOUS
 62
     4
 10
-43.163888999999926
 20
-361.90829500000001
 30
0.0
 40
64.0
  1
EA
 41
0.9
  0
LINE
  8
SIZE
  6
CONTINUOUS
 62
    30
 10
40.5
 20
-577.47308799999985
 30
0.0
 11
-40.5
 21
-577.47308799999985
 31
0.0
  0
LINE
  8
SIZE
  6
CONTINUOUS
 62
    30
 10
37.0
 20
-449.99274400000002
 30
0.0
 11
-37.0
 21
-449.99274400000002
 31
0.0
  0
LINE
  8
DETAIL
  6
CONTINOUS
 62
     5
 10
52.5
 20
-212.5
 30
0.0
 11
-52.5
 21
-212.5
 31
0.0
  0
LINE
  8
DETAIL
  6
CONTINOUS
 62
     5
 10
52.5
 20
-187.5
 30
0.0
 11
-52.5
 21
-187.5
 31
0.0
  0
LINE
  8
BASIS
  6
DASHDOT
 62
     6
 10
0.0
 20
-315.72222479999988
 30
0.0
 11
0.0
 21
238.11404759999991
 31
0.0
  0
TEXT
  8
SIZE
  6
CONTINUOUS
 62
    30
 10
-404.35023999241679
 20
-259.65083709187093
 30
0.0
 40
64.0
  1
52
 50
90.0
 41
0.9
 72
     1
 11
-404.35023999241679
 21
-213.02226566329949
 31
0.0
  0
LINE
  8
SIZE
  6
CONTINUOUS
 62
    30
 10
-253.36296499241689
 20
-246.09011199999989
 30
0.0
 11
-253.36296499241689
 21
-374.93256999999983
 31
0.0
  0
TEXT
  8
SIZE
  6
CONTINUOUS
 62
    30
 10
-281.34807799241679
 20
-364.8750264285714
 30
0.0
 40
64.0
  1
27
 50
90.0
 41
0.9
 72
     1
 11
-281.34807799241679
 21
-318.24645500000003
 31
0.0
  0
LINE
  8
SIZE
  6
CONTINUOUS
 62
    30
 10
-52.5
 20
-232.5
 30
0.0
 11
-52.5
 21
-597.47308799999996
 31
0.0
  0
LINE
  8
SIZE
  6
CONTINUOUS
 62
    30
 10
-49.0
 20
-259.5
 30
0.0
 11
-49.0
 21
-469.99274400000002
 31
0.0
  0
CIRCLE
  8
SIZE
  6
CONTINUOUS
 62
    30
 10
-52.5
 20
-577.47308799999985
 30
0.0
 40
6.0
  0
LINE
  8
SIZE
  6
CONTINUOUS
 62
    30
 10
-52.5
 20
-577.47308799999985
 30
0.0
 11
-40.5
 21
-577.47308799999985
 31
0.0
  0
LINE
  8
SIZE
  6
CONTINUOUS
 62
    30
 10
-49.0
 20
-449.99274400000002
 30
0.0
 11
-37.0
 21
-449.99274400000002
 31
0.0
  0
CIRCLE
  8
SIZE
  6
CONTINUOUS
 62
    30
 10
-49.0
 20
-449.99274400000002
 30
0.0
 40
6.0
  0
LINE
  8
SIZE
  6
CONTINUOUS
 62
    30
 10
-72.5
 20
-187.5
 30
0.0
 11
-394.77249499241691
 21
-187.5
 31
0.0
  0
LINE
  8
SIZE
  6
CONTINUOUS
 62
    30
 10
-69.0
 20
-239.5
 30
0.0
 11
-394.77249499241691
 21
-239.5
 31
0.0
  0
LINE
  8
SIZE
  6
CONTINUOUS
 62
    30
 10
-72.5
 20
-212.5
 30
0.0
 11
-273.36296499241689
 21
-212.5
 31
0.0
  0
LINE
  8
SIZE
  6
CONTINUOUS
 62
    30
 10
-69.0
 20
-239.5
 30
0.0
 11
-273.36296499241689
 21
-239.5
 31
0.0
  0
LINE
  8
SIZE
  6
CONTINUOUS
 62
    30
 10
-374.77249499241691
 20
-239.5
 30
0.0
 11
-374.77249499241691
 21
-251.5
 31
0.0
  0
CIRCLE
  8
SIZE
  6
CONTINUOUS
 62
    30
 10
-374.77249499241691
 20
-187.5
 30
0.0
 40
6.0
  0
CIRCLE
  8
SIZE
  6
CONTINUOUS
 62
    30
 10
-374.77249499241691
 20
-239.5
 30
0.0
 40
6.0
  0
LINE
  8
SIZE
  6
CONTINUOUS
 62
    30
 10
-374.77249499241691
 20
-239.5
 30
0.0
 11
-374.77249499241691
 21
-187.5
 31
0.0
  0
LINE
  8
SIZE
  6
CONTINUOUS
 62
    30
 10
-374.77249499241691
 20
-239.5
 30
0.0
 11
-374.77249499241691
 21
-174.36578839073039
 31
0.0
  0
LINE
  8
SIZE
  6
CONTINUOUS
 62
    30
 10
-253.36296499241689
 20
-239.5
 30
0.0
 11
-253.36296499241689
 21
-251.5
 31
0.0
  0
LINE
  8
SIZE
  6
CONTINUOUS
 62
    30
 10
-253.36296499241689
 20
-251.5
 30
0.0
 11
-253.36296499241689
 21
-263.5
 31
0.0
  0
LINE
  8
SIZE
  6
CONTINUOUS
 62
    30
 10
-253.36296499241689
 20
-212.5
 30
0.0
 11
-253.36296499241689
 21
-200.49999999999989
 31
0.0
  0
CIRCLE
  8
SIZE
  6
CONTINUOUS
 62
    30
 10
-253.36296499241689
 20
-212.5
 30
0.0
 40
6.0
  0
CIRCLE
  8
SIZE
  6
CONTINUOUS
 62
    30
 10
-253.36296499241689
 20
-239.5
 30
0.0
 40
6.0
  0
LINE
  8
SIZE
  6
CONTINUOUS
 62
    30
 10
-253.36296499241689
 20
-239.5
 30
0.0
 11
-253.36296499241689
 21
-212.5
 31
0.0
  0
LINE
  8
SIZE
  6
CONTINUOUS
 62
    30
 10
-253.36296499241689
 20
-239.5
 30
0.0
 11
-253.36296499241689
 21
-212.5
 31
0.0
  0
LINE
  8
SIZE
  6
CONTINUOUS
 62
    30
 10
-253.36296499241689
 20
-200.49999999999989
 30
0.0
 11
-253.36296499241689
 21
-188.4999999999998
 31
0.0
  0
LINE
  8
DETAIL
  6
CONTINUOUS
 62
     5
 10
-63.0
 20
-175.5
 30
0.0
 11
-52.5
 21
-187.5
 31
0.0
  0
LINE
  8
DETAIL
  6
CONTINOUS
 62
     5
 10
-63.0
 20
-175.5
 30
0.0
 11
-63.0
 21
-167.5
 31
0.0
  0
LINE
  8
DETAIL
  6
CONTINUOUS
 62
     5
 10
-52.5
 20
-212.5
 30
0.0
 11
-52.5
 21
-187.5
 31
0.0
  0
LINE
  8
DETAIL
  6
CONTINOUS
 62
     5
 10
-49.0
 20
-239.5
 30
0.0
 11
-49.0
 21
-212.5
 31
0.0
  0
LINE
  8
SIZE
  6
CONTINUOUS
 62
    30
 10
52.5
 20
-232.5
 30
0.0
 11
52.5
 21
-597.47308799999996
 31
0.0
  0
LINE
  8
SIZE
  6
CONTINUOUS
 62
    30
 10
49.0
 20
-259.5
 30
0.0
 11
49.0
 21
-469.99274400000002
 31
0.0
  0
TEXT
  8
SIZE
  6
CONTINUOUS
 62
    30
 10
73.958300857142831
 20
-558.49312699999984
 30
0.0
 40
64.0
  1
φ105
 41
0.9
 72
     1
 11
172.70115799999999
 21
-558.49312699999984
 31
0.0
  0
CIRCLE
  8
SIZE
  6
CONTINUOUS
 62
    30
 10
52.5
 20
-577.47308799999985
 30
0.0
 40
6.0
  0
LINE
  8
SIZE
  6
CONTINUOUS
 62
    30
 10
52.5
 20
-577.47308799999985
 30
0.0
 11
40.5
 21
-577.47308799999985
 31
0.0
  0
TEXT
  8
SIZE
  6
CONTINUOUS
 62
    30
 10
76.209191999999533
 20
-423.29582199999987
 30
0.0
 40
64.0
  1
φ98
 41
0.9
 72
     1
 11
153.0091919999995
 21
-423.29582199999987
 31
0.0
  0
LINE
  8
SIZE
  6
CONTINUOUS
 62
    30
 10
49.0
 20
-449.99274400000002
 30
0.0
 11
37.0
 21
-449.99274400000002
 31
0.0
  0
CIRCLE
  8
SIZE
  6
CONTINUOUS
 62
    30
 10
49.0
 20
-449.99274400000002
 30
0.0
 40
6.0
  0
LINE
  8
DETAIL
  6
CONTINUOUS
 62
     5
 10
63.0
 20
-175.5
 30
0.0
 11
52.5
 21
-187.5
 31
0.0
  0
LINE
  8
DETAIL
  6
CONTINOUS
 62
     5
 10
49.0
 20
-239.5
 30
0.0
 11
49.0
 21
-212.5
 31
0.0
  0
LINE
  8
DETAIL
  6
CONTINUOUS
 62
     5
 10
52.5
 20
-212.5
 30
0.0
 11
52.5
 21
-187.5
 31
0.0
  0
LINE
  8
DETAIL
  6
CONTINOUS
 62
     5
 10
63.0
 20
-175.5
 30
0.0
 11
63.0
 21
-167.5
 31
0.0
  0
POINT
  8
DEFPOINTS
  6
CONTINUOUS
 62
    30
 10
-49.0
 20
-239.5
 30
0.0
  0
POINT
  8
ARRANGE
  6
CONTINUOUS
 62
     1
 10
0.0
 20
0.0
 30
0.0
  0
CIRCLE
  8
ARRANGE
  6
CONTINUOUS
 62
     1
 10
0.0
 20
0.0
 30
0.0
 40
33.852631584000001
  0
LINE
  8
BASIS
  6
DASHDOT
 62
     6
 10
-231.9849887335719
 20
0.0
 30
0.0
 11
231.9849887335721
 21
0.0
 31
0.0
  0
LINE
  8
BASIS
  6
DASHDOT
 62
     6
 10
0.0
 20
-234.02249738229699
 30
0.0
 11
0.0
 21
234.0224973822969
 31
0.0
  0
LINE
  8
BASIS
  6
DASHDOT
 62
     6
 10
0.0
 20
-234.02249738229699
 30
0.0
 11
0.0
 21
234.0224973822969
 31
0.0
  0
LINE
  8
DETAIL
  6
CONTINUOUS
 62
     5
 10
-107.7764210762397
 20
-58.205368429740822
 30
0.0
 11
-107.7764210762397
 21
-53.762210534340738
 31
0.0
  0
LINE
  8
DETAIL
  6
CONTINUOUS
 62
     5
 10
-109.5536842343996
 20
-58.205368429740822
 30
0.0
 11
-109.5536842343996
 21
-53.762210534340738
 31
0.0
  0
LINE
  8
DETAIL
  6
CONTINUOUS
 62
     5
 10
-107.7764210762397
 20
-66.203052641460772
 30
0.0
 11
-107.7764210762397
 21
-61.759894746060809
 31
0.0
  0
LINE
  8
DETAIL
  6
CONTINUOUS
 62
     5
 10
-109.5536842343996
 20
-66.203052641460772
 30
0.0
 11
-109.5536842343996
 21
-61.759894746060809
 31
0.0
  0
LINE
  8
DETAIL
  6
CONTINUOUS
 62
     5
 10
-107.7764210762397
 20
-74.200736853180842
 30
0.0
 11
-107.7764210762397
 21
-69.75757895777997
 31
0.0
  0
LINE
  8
DETAIL
  6
CONTINUOUS
 62
     5
 10
-109.5536842343996
 20
-74.200736853180842
 30
0.0
 11
-109.5536842343996
 21
-69.75757895777997
 31
0.0
  0
LINE
  8
DETAIL
  6
CONTINUOUS
 62
     5
 10
-107.7764210762397
 20
-82.198421064900799
 30
0.0
 11
-107.7764210762397
 21
-77.755263169500722
 31
0.0
  0
LINE
  8
DETAIL
  6
CONTINUOUS
 62
     5
 10
-109.5536842343996
 20
-82.198421064900799
 30
0.0
 11
-109.5536842343996
 21
-77.755263169500722
 31
0.0
  0
LINE
  8
DETAIL
  6
CONTINUOUS
 62
     5
 10
-107.7764210762397
 20
-90.196105276620756
 30
0.0
 11
-107.7764210762397
 21
-85.752947381220793
 31
0.0
  0
LINE
  8
DETAIL
  6
CONTINUOUS
 62
     5
 10
-109.5536842343996
 20
-90.196105276620756
 30
0.0
 11
-109.5536842343996
 21
-85.752947381220793
 31
0.0
  0
LINE
  8
DETAIL
  6
CONTINUOUS
 62
     5
 10
-107.7764210762397
 20
-98.193789488340826
 30
0.0
 11
-107.7764210762397
 21
-93.750631592940749
 31
0.0
  0
LINE
  8
DETAIL
  6
CONTINUOUS
 62
     5
 10
-109.5536842343996
 20
-98.193789488340826
 30
0.0
 11
-109.5536842343996
 21
-93.750631592940749
 31
0.0
  0
ARC
  8
DETAIL
  6
CONTINUOUS
 62
     5
 10
-166.08947370899941
 20
166.089473709
 30
0.0
 40
1.410526315999969
 50
90.0
 51
180.0
  0
ARC
  8
DETAIL
  6
CONTINUOUS
 62
     5
 10
-155.15789475999691
 20
155.15789475999679
 30
0.0
 40
1.410526316000031
 50
90.0
 51
180.0
  0
LINE
  8
DETAIL
  6
CONTINUOUS
 62
     5
 10
-107.7764210762397
 20
2.2215789476999821
 30
0.0
 11
-107.7764210762397
 21
-2.2215789476999821
 31
0.0
  0
LINE
  8
DETAIL
  6
CONTINUOUS
 62
     5
 10
-109.5536842343996
 20
2.2215789476999821
 30
0.0
 11
-109.5536842343996
 21
-2.2215789476999821
 31
0.0
  0
LINE
  8
DETAIL
  6
CONTINUOUS
 62
     5
 10
-107.7764210762397
 20
10.21926315942005
 30
0.0
 11
-107.7764210762397
 21
5.776105264019975
 31
0.0
  0
LINE
  8
DETAIL
  6
CONTINUOUS
 62
     5
 10
-109.5536842343996
 20
10.21926315942005
 30
0.0
 11
-109.5536842343996
 21
5.776105264019975
 31
0.0
  0
LINE
  8
DETAIL
  6
CONTINUOUS
 62
     5
 10
-107.7764210762397
 20
18.216947371140009
 30
0.0
 11
-107.7764210762397
 21
13.773789475740051
 31
0.0
  0
LINE
  8
DETAIL
  6
CONTINUOUS
 62
     5
 10
-109.5536842343996
 20
18.216947371140009
 30
0.0
 11
-109.5536842343996
 21
13.773789475740051
 31
0.0
  0
LINE
  8
DETAIL
  6
CONTINUOUS
 62
     5
 10
-107.7764210762397
 20
26.214631582859969
 30
0.0
 11
-107.7764210762397
 21
21.771473687459999
 31
0.0
  0
LINE
  8
DETAIL
  6
CONTINUOUS
 62
     5
 10
-109.5536842343996
 20
26.214631582859969
 30
0.0
 11
-109.5536842343996
 21
21.771473687459999
 31
0.0
  0
LINE
  8
DETAIL
  6
CONTINUOUS
 62
     5
 10
-107.7764210762397
 20
34.212315794580043
 30
0.0
 11
-107.7764210762397
 21
29.769157899179959
 31
0.0
  0
LINE
  8
DETAIL
  6
CONTINUOUS
 62
     5
 10
-109.5536842343996
 20
34.212315794580043
 30
0.0
 11
-109.5536842343996
 21
29.769157899179959
 31
0.0
  0
LINE
  8
DETAIL
  6
CONTINUOUS
 62
     5
 10
-107.7764210762397
 20
42.210000006299992
 30
0.0
 11
-107.7764210762397
 21
37.766842110900029
 31
0.0
  0
LINE
  8
DETAIL
  6
CONTINUOUS
 62
     5
 10
-109.5536842343996
 20
42.210000006299992
 30
0.0
 11
-109.5536842343996
 21
37.766842110900029
 31
0.0
  0
LINE
  8
DETAIL
  6
CONTINUOUS
 62
     5
 10
-107.7764210762397
 20
50.207684218020063
 30
0.0
 11
-107.7764210762397
 21
45.764526322619993
 31
0.0
  0
LINE
  8
DETAIL
  6
CONTINUOUS
 62
     5
 10
-109.5536842343996
 20
50.207684218020063
 30
0.0
 11
-109.5536842343996
 21
45.764526322619993
 31
0.0
  0
LINE
  8
DETAIL
  6
CONTINUOUS
 62
     5
 10
-107.7764210762397
 20
58.20536842974002
 30
0.0
 11
-107.7764210762397
 21
53.762210534340063
 31
0.0
  0
LINE
  8
DETAIL
  6
CONTINUOUS
 62
     5
 10
-109.5536842343996
 20
58.20536842974002
 30
0.0
 11
-109.5536842343996
 21
53.762210534340063
 31
0.0
  0
LINE
  8
DETAIL
  6
CONTINUOUS
 62
     5
 10
-107.7764210762397
 20
66.203052641459976
 30
0.0
 11
-107.7764210762397
 21
61.759894746060013
 31
0.0
  0
LINE
  8
DETAIL
  6
CONTINUOUS
 62
     5
 10
-109.5536842343996
 20
66.203052641459976
 30
0.0
 11
-109.5536842343996
 21
61.759894746060013
 31
0.0
  0
LINE
  8
DETAIL
  6
CONTINUOUS
 62
     5
 10
-107.7764210762397
 20
74.200736853180047
 30
0.0
 11
-107.7764210762397
 21
69.75757895777997
 31
0.0
  0
LINE
  8
DETAIL
  6
CONTINUOUS
 62
     5
 10
-109.5536842343996
 20
74.200736853180047
 30
0.0
 11
-109.5536842343996
 21
69.75757895777997
 31
0.0
  0
LINE
  8
DETAIL
  6
CONTINUOUS
 62
     5
 10
-107.7764210762397
 20
82.198421064900003
 30
0.0
 11
-107.7764210762397
 21
77.755263169500836
 31
0.0
  0
LINE
  8
DETAIL
  6
CONTINUOUS
 62
     5
 10
-109.5536842343996
 20
82.198421064900003
 30
0.0
 11
-109.5536842343996
 21
77.755263169500836
 31
0.0
  0
LINE
  8
DETAIL
  6
CONTINUOUS
 62
     5
 10
-107.7764210762397
 20
90.196105276620074
 30
0.0
 11
-107.7764210762397
 21
85.752947381219997
 31
0.0
  0
LINE
  8
DETAIL
  6
CONTINUOUS
 62
     5
 10
-109.5536842343996
 20
90.196105276620074
 30
0.0
 11
-109.5536842343996
 21
85.752947381219997
 31
0.0
  0
LINE
  8
DETAIL
  6
CONTINUOUS
 62
     5
 10
-107.7764210762394
 20
98.19378948834003
 30
0.0
 11
-107.7764210762397
 21
93.750631592939953
 31
0.0
  0
LINE
  8
DETAIL
  6
CONTINUOUS
 62
     5
 10
-109.5536842343996
 20
98.19378948834003
 30
0.0
 11
-109.5536842343996
 21
93.750631592939953
 31
0.0
  0
ARC
  8
DETAIL
  6
CONTINUOUS
 62
     5
 10
-155.15789475999691
 20
-155.15789475999739
 30
0.0
 40
1.4105263159999999
 50
180.0
 51
270.0
  0
LINE
  8
DETAIL
  6
CONTINUOUS
 62
     5
 10
-156.56842107599701
 20
-155.15789475999739
 30
0.0
 11
-156.56842107599701
 21
155.15789475999679
 31
0.0
  0
LINE
  8
DETAIL
  6
CONTINUOUS
 62
     5
 10
-167.50000002499959
 20
166.089473709
 30
0.0
 11
-167.50000002499959
 21
-166.0894737090006
 31
0.0
  0
ARC
  8
DETAIL
  6
CONTINUOUS
 62
     5
 10
-166.08947370899969
 20
-166.0894737090006
 30
0.0
 40
1.4105263159999999
 50
180.0
 51
270.0
  0
LINE
  8
DETAIL
  6
CONTINUOUS
 62
     5
 10
-107.7764210762397
 20
-10.21926315942085
 30
0.0
 11
-107.7764210762397
 21
-5.7761052640207708
 31
0.0
  0
LINE
  8
DETAIL
  6
CONTINUOUS
 62
     5
 10
-109.5536842343996
 20
-10.21926315942085
 30
0.0
 11
-109.5536842343996
 21
-5.7761052640207708
 31
0.0
  0
LINE
  8
DETAIL
  6
CONTINUOUS
 62
     5
 10
-107.7764210762397
 20
-18.216947371140801
 30
0.0
 11
-107.7764210762397
 21
-13.773789475740839
 31
0.0
  0
LINE
  8
DETAIL
  6
CONTINUOUS
 62
     5
 10
-109.5536842343996
 20
-18.216947371140801
 30
0.0
 11
-109.5536842343996
 21
-13.773789475740839
 31
0.0
  0
LINE
  8
DETAIL
  6
CONTINUOUS
 62
     5
 10
-107.7764210762397
 20
-26.214631582860761
 30
0.0
 11
-107.7764210762397
 21
-21.771473687460801
 31
0.0
  0
LINE
  8
DETAIL
  6
CONTINUOUS
 62
     5
 10
-109.5536842343996
 20
-26.214631582860761
 30
0.0
 11
-109.5536842343996
 21
-21.771473687460801
 31
0.0
  0
LINE
  8
DETAIL
  6
CONTINUOUS
 62
     5
 10
-107.7764210762397
 20
-34.212315794580832
 30
0.0
 11
-107.7764210762397
 21
-29.769157899180868
 31
0.0
  0
LINE
  8
DETAIL
  6
CONTINUOUS
 62
     5
 10
-109.5536842343996
 20
-34.212315794580832
 30
0.0
 11
-109.5536842343996
 21
-29.769157899180868
 31
0.0
  0
LINE
  8
DETAIL
  6
CONTINUOUS
 62
     5
 10
-107.7764210762397
 20
-42.210000006299992
 30
0.0
 11
-107.7764210762397
 21
-37.766842110900711
 31
0.0
  0
LINE
  8
DETAIL
  6
CONTINUOUS
 62
     5
 10
-109.5536842343996
 20
-42.210000006299992
 30
0.0
 11
-109.5536842343996
 21
-37.766842110900711
 31
0.0
  0
LINE
  8
DETAIL
  6
CONTINUOUS
 62
     5
 10
-107.7764210762397
 20
-50.207684218020859
 30
0.0
 11
-107.7764210762397
 21
-45.764526322620782
 31
0.0
  0
LINE
  8
DETAIL
  6
CONTINUOUS
 62
     5
 10
-109.5536842343996
 20
-50.207684218020859
 30
0.0
 11
-109.5536842343996
 21
-45.764526322620782
 31
0.0
  0
LINE
  8
DETAIL
  6
CONTINUOUS
 62
     5
 10
16.615683669560099
 20
156.56842107599741
 30
0.0
 11
-155.15789475999691
 21
156.56842107599741
 31
0.0
  0
LINE
  8
DETAIL
  6
CONTINUOUS
 62
     5
 10
-166.08947370899941
 20
167.50000002499999
 30
0.0
 11
22.39981604623188
 21
167.50000002499999
 31
0.0
  0
LINE
  8
DETAIL
  6
CONTINUOUS
 62
     5
 10
-109.5536842343996
 20
98.19378948834003
 30
0.0
 11
-0.0252605056026027
 21
98.19378948834003
 31
0.0
  0
LINE
  8
DETAIL
  6
CONTINUOUS
 62
     5
 10
-109.5536842343996
 20
93.750631592939953
 30
0.0
 11
0.0917116993995251
 21
93.750631592939953
 31
0.0
  0
LINE
  8
DETAIL
  6
CONTINUOUS
 62
     5
 10
-109.5536842343996
 20
90.196105276620074
 30
0.0
 11
0.2527715842929865
 21
90.196105276620074
 31
0.0
  0
LINE
  8
DETAIL
  6
CONTINUOUS
 62
     5
 10
-109.5536842343996
 20
85.752947381219997
 30
0.0
 11
0.5386750272324434
 21
85.752947381219997
 31
0.0
  0
LINE
  8
DETAIL
  6
CONTINUOUS
 62
     5
 10
-109.5536842343996
 20
82.198421064900003
 30
0.0
 11
0.8352999751062953
 21
82.198421064900003
 31
0.0
  0
LINE
  8
DETAIL
  6
CONTINUOUS
 62
     5
 10
-109.5536842343996
 20
77.755263169500836
 30
0.0
 11
1.2913791018716549
 21
77.755263169500836
 31
0.0
  0
LINE
  8
DETAIL
  6
CONTINUOUS
 62
     5
 10
-109.5536842343996
 20
74.200736853180047
 30
0.0
 11
1.7248674151034611
 21
74.200736853180047
 31
0.0
  0
LINE
  8
DETAIL
  6
CONTINUOUS
 62
     5
 10
-109.5536842343996
 20
69.75757895777997
 30
0.0
 11
2.3531328473787312
 21
69.75757895777997
 31
0.0
  0
LINE
  8
DETAIL
  6
CONTINUOUS
 62
     5
 10
-109.5536842343996
 20
66.203052641459976
 30
0.0
 11
2.925411887582527
 21
66.203052641459976
 31
0.0
  0
LINE
  8
DETAIL
  6
CONTINUOUS
 62
     5
 10
-109.5536842343996
 20
61.759894746060013
 30
0.0
 11
3.728685594934916
 21
61.759894746060013
 31
0.0
  0
LINE
  8
DETAIL
  6
CONTINUOUS
 62
     5
 10
-109.5536842343996
 20
58.20536842974002
 30
0.0
 11
4.4423557001512677
 21
58.20536842974002
 31
0.0
  0
LINE
  8
DETAIL
  6
CONTINUOUS
 62
     5
 10
-109.5536842343996
 20
53.762210534340063
 30
0.0
 11
5.4243363940872769
 21
53.762210534340063
 31
0.0
  0
LINE
  8
DETAIL
  6
CONTINUOUS
 62
     5
 10
-109.5536842343996
 20
50.207684218020063
 30
0.0
 11
6.2827322916095909
 21
50.207684218020063
 31
0.0
  0
LINE
  8
DETAIL
  6
CONTINUOUS
 62
     5
 10
-109.5536842343996
 20
45.764526322619993
 30
0.0
 11
7.4480846985099447
 21
45.764526322619993
 31
0.0
  0
LINE
  8
DETAIL
  6
CONTINUOUS
 62
     5
 10
-109.5536842343996
 20
42.210000006299992
 30
0.0
 11
8.4553579372632726
 21
42.210000006299992
 31
0.0
  0
LINE
  8
DETAIL
  6
CONTINUOUS
 62
     5
 10
-109.5536842343996
 20
37.766842110900029
 30
0.0
 11
9.809831224808363
 21
37.766842110900029
 31
0.0
  0
LINE
  8
DETAIL
  6
CONTINUOUS
 62
     5
 10
-109.5536842343996
 20
34.212315794580043
 30
0.0
 11
10.971058654746569
 21
34.212315794580043
 31
0.0
  0
LINE
  8
DETAIL
  6
CONTINUOUS
 62
     5
 10
-109.5536842343996
 20
29.769157899179959
 30
0.0
 11
12.52164149264433
 21
29.769157899179959
 31
0.0
  0
LINE
  8
DETAIL
  6
CONTINUOUS
 62
     5
 10
-109.5536842343996
 20
26.214631582859969
 30
0.0
 11
13.84296690483637
 21
26.214631582859969
 31
0.0
  0
LINE
  8
DETAIL
  6
CONTINUOUS
 62
     5
 10
-109.5536842343996
 20
21.771473687459999
 30
0.0
 11
15.598089750672949
 21
21.771473687459999
 31
0.0
  0
LINE
  8
DETAIL
  6
CONTINUOUS
 62
     5
 10
-109.5536842343996
 20
18.216947371140009
 30
0.0
 11
17.086908775675621
 21
18.216947371140009
 31
0.0
  0
LINE
  8
DETAIL
  6
CONTINUOUS
 62
     5
 10
-109.5536842343996
 20
13.773789475740051
 30
0.0
 11
19.056708487472061
 21
13.773789475740051
 31
0.0
  0
LINE
  8
DETAIL
  6
CONTINUOUS
 62
     5
 10
-109.5536842343996
 20
10.21926315942005
 30
0.0
 11
20.721911235674948
 21
10.21926315942005
 31
0.0
  0
LINE
  8
DETAIL
  6
CONTINUOUS
 62
     5
 10
-109.5536842343996
 20
5.776105264019975
 30
0.0
 11
22.918579832307842
 21
5.776105264019975
 31
0.0
  0
LINE
  8
DETAIL
  6
CONTINUOUS
 62
     5
 10
-109.5536842343996
 20
2.2215789476999821
 30
0.0
 11
24.770872380639961
 21
2.2215789476999821
 31
0.0
  0
LINE
  8
DETAIL
  6
CONTINUOUS
 62
     5
 10
-109.5536842343996
 20
-2.2215789476999821
 30
0.0
 11
27.209122054013388
 21
-2.2215789476999821
 31
0.0
  0
LINE
  8
DETAIL
  6
CONTINUOUS
 62
     5
 10
28.183948422903651
 20
-156.56842107599741
 30
0.0
 11
-155.15789475999691
 21
-156.56842107599741
 31
0.0
  0
LINE
  8
DETAIL
  6
CONTINUOUS
 62
     5
 10
-166.08947370899969
 20
-167.50000002499999
 30
0.0
 11
22.39981604623188
 21
-167.50000002499999
 31
0.0
  0
LINE
  8
DETAIL
  6
CONTINUOUS
 62
     5
 10
-109.5536842343996
 20
-98.193789488340826
 30
0.0
 11
56.194764852211158
 21
-98.193789488340826
 31
0.0
  0
LINE
  8
DETAIL
  6
CONTINUOUS
 62
     5
 10
-109.5536842343996
 20
-93.750631592940749
 30
0.0
 11
55.908861409271708
 21
-93.750631592940749
 31
0.0
  0
LINE
  8
DETAIL
  6
CONTINUOUS
 62
     5
 10
-109.5536842343996
 20
-90.196105276620756
 30
0.0
 11
55.612236461397863
 21
-90.196105276620756
 31
0.0
  0
LINE
  8
DETAIL
  6
CONTINUOUS
 62
     5
 10
-109.5536842343996
 20
-85.752947381220793
 30
0.0
 11
55.156157334632667
 21
-85.752947381220793
 31
0.0
  0
LINE
  8
DETAIL
  6
CONTINUOUS
 62
     5
 10
-109.5536842343996
 20
-82.198421064900799
 30
0.0
 11
54.722669021401089
 21
-82.198421064900799
 31
0.0
  0
LINE
  8
DETAIL
  6
CONTINUOUS
 62
     5
 10
-109.5536842343996
 20
-77.755263169500722
 30
0.0
 11
54.094403589125477
 21
-77.755263169500722
 31
0.0
  0
LINE
  8
DETAIL
  6
CONTINUOUS
 62
     5
 10
-109.5536842343996
 20
-74.200736853180842
 30
0.0
 11
53.522124548921852
 21
-74.200736853180842
 31
0.0
  0
LINE
  8
DETAIL
  6
CONTINUOUS
 62
     5
 10
-109.5536842343996
 20
-69.75757895777997
 30
0.0
 11
52.718850841569292
 21
-69.75757895777997
 31
0.0
  0
LINE
  8
DETAIL
  6
CONTINUOUS
 62
     5
 10
-109.5536842343996
 20
-66.203052641460772
 30
0.0
 11
52.005180736352941
 21
-66.203052641460772
 31
0.0
  0
LINE
  8
DETAIL
  6
CONTINUOUS
 62
     5
 10
-109.5536842343996
 20
-61.759894746060809
 30
0.0
 11
51.023200042416867
 21
-61.759894746060809
 31
0.0
  0
LINE
  8
DETAIL
  6
CONTINUOUS
 62
     5
 10
-109.5536842343996
 20
-58.205368429740822
 30
0.0
 11
50.164804144894561
 21
-58.205368429740822
 31
0.0
  0
LINE
  8
DETAIL
  6
CONTINUOUS
 62
     5
 10
-109.5536842343996
 20
-53.762210534340738
 30
0.0
 11
48.999451737994377
 21
-53.762210534340738
 31
0.0
  0
LINE
  8
DETAIL
  6
CONTINUOUS
 62
     5
 10
-109.5536842343996
 20
-50.207684218020859
 30
0.0
 11
47.992178499240822
 21
-50.207684218020859
 31
0.0
  0
LINE
  8
DETAIL
  6
CONTINUOUS
 62
     5
 10
-109.5536842343996
 20
-45.764526322620782
 30
0.0
 11
46.637705211695902
 21
-45.764526322620782
 31
0.0
  0
LINE
  8
DETAIL
  6
CONTINUOUS
 62
     5
 10
-109.5536842343996
 20
-42.210000006299992
 30
0.0
 11
45.476477781757808
 21
-42.210000006299992
 31
0.0
  0
LINE
  8
DETAIL
  6
CONTINUOUS
 62
     5
 10
-109.5536842343996
 20
-37.766842110900711
 30
0.0
 11
43.925894943859817
 21
-37.766842110900711
 31
0.0
  0
LINE
  8
DETAIL
  6
CONTINUOUS
 62
     5
 10
-109.5536842343996
 20
-34.212315794580832
 30
0.0
 11
42.604569531667948
 21
-34.212315794580832
 31
0.0
  0
LINE
  8
DETAIL
  6
CONTINUOUS
 62
     5
 10
-109.5536842343996
 20
-29.769157899180868
 30
0.0
 11
40.849446685831538
 21
-29.769157899180868
 31
0.0
  0
LINE
  8
DETAIL
  6
CONTINUOUS
 62
     5
 10
-109.5536842343996
 20
-26.214631582860761
 30
0.0
 11
39.360627660828868
 21
-26.214631582860761
 31
0.0
  0
LINE
  8
DETAIL
  6
CONTINUOUS
 62
     5
 10
-109.5536842343996
 20
-21.771473687460801
 30
0.0
 11
37.390827949032257
 21
-21.771473687460801
 31
0.0
  0
LINE
  8
DETAIL
  6
CONTINUOUS
 62
     5
 10
-109.5536842343996
 20
-18.216947371140801
 30
0.0
 11
35.725625200829263
 21
-18.216947371140801
 31
0.0
  0
LINE
  8
DETAIL
  6
CONTINUOUS
 62
     5
 10
-109.5536842343996
 20
-13.773789475740839
 30
0.0
 11
33.528956604196757
 21
-13.773789475740839
 31
0.0
  0
LINE
  8
DETAIL
  6
CONTINUOUS
 62
     5
 10
-109.5536842343996
 20
-10.21926315942085
 30
0.0
 11
31.67666405586419
 21
-10.21926315942085
 31
0.0
  0
LINE
  8
DETAIL
  6
CONTINUOUS
 62
     5
 10
-109.5536842343996
 20
-5.7761052640207708
 30
0.0
 11
29.238414382490479
 21
-5.7761052640207708
 31
0.0
  0
LINE
  8
DETAIL
  6
CONTINUOUS
 62
     5
 10
107.7764210762394
 20
-58.205368429740822
 30
0.0
 11
107.7764210762394
 21
-53.762210534340738
 31
0.0
  0
LINE
  8
DETAIL
  6
CONTINUOUS
 62
     5
 10
109.5536842343998
 20
-58.205368429740822
 30
0.0
 11
109.5536842343998
 21
-53.762210534340738
 31
0.0
  0
LINE
  8
DETAIL
  6
CONTINUOUS
 62
     5
 10
107.7764210762394
 20
-66.203052641460772
 30
0.0
 11
107.7764210762394
 21
-61.759894746060809
 31
0.0
  0
LINE
  8
DETAIL
  6
CONTINUOUS
 62
     5
 10
109.5536842343998
 20
-66.203052641460772
 30
0.0
 11
109.5536842343998
 21
-61.759894746060809
 31
0.0
  0
LINE
  8
DETAIL
  6
CONTINUOUS
 62
     5
 10
107.7764210762394
 20
-74.200736853180842
 30
0.0
 11
107.7764210762394
 21
-69.75757895777997
 31
0.0
  0
LINE
  8
DETAIL
  6
CONTINUOUS
 62
     5
 10
109.5536842343998
 20
-74.200736853180842
 30
0.0
 11
109.5536842343998
 21
-69.75757895777997
 31
0.0
  0
LINE
  8
DETAIL
  6
CONTINUOUS
 62
     5
 10
107.7764210762394
 20
-82.198421064900799
 30
0.0
 11
107.7764210762394
 21
-77.755263169500722
 31
0.0
  0
LINE
  8
DETAIL
  6
CONTINUOUS
 62
     5
 10
109.5536842343998
 20
-82.198421064900799
 30
0.0
 11
109.5536842343998
 21
-77.755263169500722
 31
0.0
  0
LINE
  8
DETAIL
  6
CONTINUOUS
 62
     5
 10
107.7764210762394
 20
-90.196105276620756
 30
0.0
 11
107.7764210762394
 21
-85.752947381220793
 31
0.0
  0
LINE
  8
DETAIL
  6
CONTINUOUS
 62
     5
 10
109.5536842343998
 20
-90.196105276620756
 30
0.0
 11
109.5536842343998
 21
-85.752947381220793
 31
0.0
  0
LINE
  8
DETAIL
  6
CONTINUOUS
 62
     5
 10
107.7764210762394
 20
-98.193789488340826
 30
0.0
 11
107.7764210762394
 21
-93.750631592940749
 31
0.0
  0
LINE
  8
DETAIL
  6
CONTINUOUS
 62
     5
 10
109.5536842343998
 20
-98.193789488340826
 30
0.0
 11
109.5536842343998
 21
-93.750631592940749
 31
0.0
  0
ARC
  8
DETAIL
  6
CONTINUOUS
 62
     5
 10
166.089473709
 20
166.089473709
 30
0.0
 40
1.410526315999969
 50
0.0
 51
90.0
  0
ARC
  8
DETAIL
  6
CONTINUOUS
 62
     5
 10
155.15789475999711
 20
155.15789475999679
 30
0.0
 40
1.410526316000031
 50
0.0
 51
90.0
  0
LINE
  8
DETAIL
  6
CONTINUOUS
 62
     5
 10
107.7764210762394
 20
2.2215789476999821
 30
0.0
 11
107.7764210762394
 21
-2.2215789476999821
 31
0.0
  0
LINE
  8
DETAIL
  6
CONTINUOUS
 62
     5
 10
109.5536842343998
 20
2.2215789476999821
 30
0.0
 11
109.5536842343998
 21
-2.2215789476999821
 31
0.0
  0
LINE
  8
DETAIL
  6
CONTINUOUS
 62
     5
 10
107.7764210762394
 20
10.21926315942005
 30
0.0
 11
107.7764210762394
 21
5.776105264019975
 31
0.0
  0
LINE
  8
DETAIL
  6
CONTINUOUS
 62
     5
 10
109.5536842343998
 20
10.21926315942005
 30
0.0
 11
109.5536842343998
 21
5.776105264019975
 31
0.0
  0
LINE
  8
DETAIL
  6
CONTINUOUS
 62
     5
 10
107.7764210762394
 20
18.216947371140009
 30
0.0
 11
107.7764210762394
 21
13.773789475740051
 31
0.0
  0
LINE
  8
DETAIL
  6
CONTINUOUS
 62
     5
 10
109.5536842343998
 20
18.216947371140009
 30
0.0
 11
109.5536842343998
 21
13.773789475740051
 31
0.0
  0
LINE
  8
DETAIL
  6
CONTINUOUS
 62
     5
 10
107.7764210762394
 20
26.214631582859969
 30
0.0
 11
107.7764210762394
 21
21.771473687459999
 31
0.0
  0
LINE
  8
DETAIL
  6
CONTINUOUS
 62
     5
 10
109.5536842344
 20
26.214631582859969
 30
0.0
 11
109.5536842343998
 21
21.771473687459999
 31
0.0
  0
LINE
  8
DETAIL
  6
CONTINUOUS
 62
     5
 10
107.7764210762394
 20
34.212315794580043
 30
0.0
 11
107.7764210762394
 21
29.769157899179959
 31
0.0
  0
LINE
  8
DETAIL
  6
CONTINUOUS
 62
     5
 10
109.5536842344
 20
34.212315794580043
 30
0.0
 11
109.5536842344
 21
29.769157899179959
 31
0.0
  0
LINE
  8
DETAIL
  6
CONTINUOUS
 62
     5
 10
107.7764210762394
 20
42.210000006299992
 30
0.0
 11
107.7764210762394
 21
37.766842110900029
 31
0.0
  0
LINE
  8
DETAIL
  6
CONTINUOUS
 62
     5
 10
109.5536842344
 20
42.210000006299992
 30
0.0
 11
109.5536842344
 21
37.766842110900029
 31
0.0
  0
LINE
  8
DETAIL
  6
CONTINUOUS
 62
     5
 10
107.7764210762394
 20
50.207684218020063
 30
0.0
 11
107.7764210762394
 21
45.764526322619993
 31
0.0
  0
LINE
  8
DETAIL
  6
CONTINUOUS
 62
     5
 10
109.5536842344
 20
50.207684218020063
 30
0.0
 11
109.5536842344
 21
45.764526322619993
 31
0.0
  0
LINE
  8
DETAIL
  6
CONTINUOUS
 62
     5
 10
107.7764210762394
 20
58.20536842974002
 30
0.0
 11
107.7764210762394
 21
53.762210534340063
 31
0.0
  0
LINE
  8
DETAIL
  6
CONTINUOUS
 62
     5
 10
109.5536842344
 20
58.20536842974002
 30
0.0
 11
109.5536842344
 21
53.762210534340063
 31
0.0
  0
LINE
  8
DETAIL
  6
CONTINUOUS
 62
     5
 10
107.7764210762394
 20
66.203052641459976
 30
0.0
 11
107.7764210762394
 21
61.759894746060013
 31
0.0
  0
LINE
  8
DETAIL
  6
CONTINUOUS
 62
     5
 10
109.5536842344
 20
66.203052641459976
 30
0.0
 11
109.5536842344
 21
61.759894746060013
 31
0.0
  0
LINE
  8
DETAIL
  6
CONTINUOUS
 62
     5
 10
107.7764210762394
 20
74.200736853180047
 30
0.0
 11
107.7764210762394
 21
69.75757895777997
 31
0.0
  0
LINE
  8
DETAIL
  6
CONTINUOUS
 62
     5
 10
109.5536842344
 20
74.200736853180047
 30
0.0
 11
109.5536842344
 21
69.75757895777997
 31
0.0
  0
LINE
  8
DETAIL
  6
CONTINUOUS
 62
     5
 10
107.7764210762394
 20
82.198421064900003
 30
0.0
 11
107.7764210762394
 21
77.755263169500836
 31
0.0
  0
LINE
  8
DETAIL
  6
CONTINUOUS
 62
     5
 10
109.5536842344
 20
82.198421064900003
 30
0.0
 11
109.5536842344
 21
77.755263169500836
 31
0.0
  0
LINE
  8
DETAIL
  6
CONTINUOUS
 62
     5
 10
107.7764210762394
 20
90.196105276620074
 30
0.0
 11
107.7764210762394
 21
85.752947381219997
 31
0.0
  0
LINE
  8
DETAIL
  6
CONTINUOUS
 62
     5
 10
109.5536842344
 20
90.196105276620074
 30
0.0
 11
109.5536842344
 21
85.752947381219997
 31
0.0
  0
LINE
  8
DETAIL
  6
CONTINUOUS
 62
     5
 10
107.7764210762394
 20
98.19378948834003
 30
0.0
 11
107.7764210762394
 21
93.750631592939953
 31
0.0
  0
LINE
  8
DETAIL
  6
CONTINUOUS
 62
     5
 10
109.5536842344
 20
98.19378948834003
 30
0.0
 11
109.5536842344
 21
93.750631592939953
 31
0.0
  0
ARC
  8
DETAIL
  6
CONTINUOUS
 62
     5
 10
155.15789475999699
 20
-155.15789475999739
 30
0.0
 40
1.4105263159999999
 50
270.0
 51
0.0
  0
LINE
  8
DETAIL
  6
CONTINUOUS
 62
     5
 10
156.56842107599701
 20
-155.15789475999739
 30
0.0
 11
156.56842107599709
 21
155.15789475999679
 31
0.0
  0
LINE
  8
DETAIL
  6
CONTINUOUS
 62
     5
 10
167.50000002499971
 20
166.089473709
 30
0.0
 11
167.50000002499971
 21
-166.0894737090006
 31
0.0
  0
ARC
  8
DETAIL
  6
CONTINUOUS
 62
     5
 10
166.08947370899989
 20
-166.0894737090006
 30
0.0
 40
1.4105263159999999
 50
270.0
 51
0.0
  0
LINE
  8
DETAIL
  6
CONTINUOUS
 62
     5
 10
107.7764210762394
 20
-10.21926315942085
 30
0.0
 11
107.7764210762394
 21
-5.7761052640207708
 31
0.0
  0
LINE
  8
DETAIL
  6
CONTINUOUS
 62
     5
 10
109.5536842343998
 20
-10.21926315942085
 30
0.0
 11
109.5536842343998
 21
-5.7761052640207708
 31
0.0
  0
LINE
  8
DETAIL
  6
CONTINUOUS
 62
     5
 10
107.7764210762394
 20
-18.216947371140801
 30
0.0
 11
107.7764210762394
 21
-13.773789475740839
 31
0.0
  0
LINE
  8
DETAIL
  6
CONTINUOUS
 62
     5
 10
109.5536842343998
 20
-18.216947371140801
 30
0.0
 11
109.5536842343998
 21
-13.773789475740839
 31
0.0
  0
LINE
  8
DETAIL
  6
CONTINUOUS
 62
     5
 10
107.7764210762394
 20
-26.214631582860761
 30
0.0
 11
107.7764210762394
 21
-21.771473687460801
 31
0.0
  0
LINE
  8
DETAIL
  6
CONTINUOUS
 62
     5
 10
109.5536842343998
 20
-26.214631582860761
 30
0.0
 11
109.5536842343998
 21
-21.771473687460801
 31
0.0
  0
LINE
  8
DETAIL
  6
CONTINUOUS
 62
     5
 10
107.7764210762394
 20
-34.212315794580832
 30
0.0
 11
107.7764210762394
 21
-29.769157899180868
 31
0.0
  0
LINE
  8
DETAIL
  6
CONTINUOUS
 62
     5
 10
109.5536842343998
 20
-34.212315794580832
 30
0.0
 11
109.5536842343998
 21
-29.769157899180868
 31
0.0
  0
LINE
  8
DETAIL
  6
CONTINUOUS
 62
     5
 10
107.7764210762394
 20
-42.210000006299992
 30
0.0
 11
107.7764210762394
 21
-37.766842110900711
 31
0.0
  0
LINE
  8
DETAIL
  6
CONTINUOUS
 62
     5
 10
109.5536842343998
 20
-42.210000006299992
 30
0.0
 11
109.5536842343998
 21
-37.766842110900711
 31
0.0
  0
LINE
  8
DETAIL
  6
CONTINUOUS
 62
     5
 10
107.7764210762394
 20
-50.207684218020859
 30
0.0
 11
107.7764210762394
 21
-45.764526322620782
 31
0.0
  0
LINE
  8
DETAIL
  6
CONTINUOUS
 62
     5
 10
109.5536842343998
 20
-50.207684218020859
 30
0.0
 11
109.5536842343998
 21
-45.764526322620782
 31
0.0
  0
LINE
  8
DETAIL
  6
CONTINUOUS
 62
     5
 10
-16.615683669560099
 20
156.56842107599741
 30
0.0
 11
155.15789475999711
 21
156.56842107599741
 31
0.0
  0
LINE
  8
DETAIL
  6
CONTINUOUS
 62
     5
 10
166.089473709
 20
167.50000002499999
 30
0.0
 11
-22.399816046231759
 21
167.50000002499999
 31
0.0
  0
LINE
  8
DETAIL
  6
CONTINUOUS
 62
     5
 10
109.5536842344
 20
98.19378948834003
 30
0.0
 11
0.0252605056026027
 21
98.19378948834003
 31
0.0
  0
LINE
  8
DETAIL
  6
CONTINUOUS
 62
     5
 10
109.5536842344
 20
93.750631592939953
 30
0.0
 11
-0.0917116993995251
 21
93.750631592939953
 31
0.0
  0
LINE
  8
DETAIL
  6
CONTINUOUS
 62
     5
 10
109.5536842344
 20
90.196105276620074
 30
0.0
 11
-0.2527715842929297
 21
90.196105276620074
 31
0.0
  0
LINE
  8
DETAIL
  6
CONTINUOUS
 62
     5
 10
109.5536842344
 20
85.752947381219997
 30
0.0
 11
-0.5386750272324434
 21
85.752947381219997
 31
0.0
  0
LINE
  8
DETAIL
  6
CONTINUOUS
 62
     5
 10
109.5536842344
 20
82.198421064900003
 30
0.0
 11
-0.8352999751062953
 21
82.198421064900003
 31
0.0
  0
LINE
  8
DETAIL
  6
CONTINUOUS
 62
     5
 10
109.5536842344
 20
77.755263169500836
 30
0.0
 11
-1.2913791018717691
 21
77.755263169500836
 31
0.0
  0
LINE
  8
DETAIL
  6
CONTINUOUS
 62
     5
 10
109.5536842344
 20
74.200736853180047
 30
0.0
 11
-1.724867415103404
 21
74.200736853180047
 31
0.0
  0
LINE
  8
DETAIL
  6
CONTINUOUS
 62
     5
 10
109.5536842344
 20
69.75757895777997
 30
0.0
 11
-2.3531328473787312
 21
69.75757895777997
 31
0.0
  0
LINE
  8
DETAIL
  6
CONTINUOUS
 62
     5
 10
109.5536842344
 20
66.203052641459976
 30
0.0
 11
-2.9254118875826411
 21
66.203052641459976
 31
0.0
  0
LINE
  8
DETAIL
  6
CONTINUOUS
 62
     5
 10
109.5536842344
 20
61.759894746060013
 30
0.0
 11
-3.7286855949350302
 21
61.759894746060013
 31
0.0
  0
LINE
  8
DETAIL
  6
CONTINUOUS
 62
     5
 10
109.5536842344
 20
58.20536842974002
 30
0.0
 11
-4.4423557001512677
 21
58.20536842974002
 31
0.0
  0
LINE
  8
DETAIL
  6
CONTINUOUS
 62
     5
 10
109.5536842344
 20
53.762210534340063
 30
0.0
 11
-5.4243363940872769
 21
53.762210534340063
 31
0.0
  0
LINE
  8
DETAIL
  6
CONTINUOUS
 62
     5
 10
109.5536842344
 20
50.207684218020063
 30
0.0
 11
-6.2827322916095341
 21
50.207684218020063
 31
0.0
  0
LINE
  8
DETAIL
  6
CONTINUOUS
 62
     5
 10
109.5536842344
 20
45.764526322619993
 30
0.0
 11
-7.4480846985101152
 21
45.764526322619993
 31
0.0
  0
LINE
  8
DETAIL
  6
CONTINUOUS
 62
     5
 10
109.5536842344
 20
42.210000006299992
 30
0.0
 11
-8.4553579372632157
 21
42.210000006299992
 31
0.0
  0
LINE
  8
DETAIL
  6
CONTINUOUS
 62
     5
 10
109.5536842344
 20
37.766842110900029
 30
0.0
 11
-9.8098312248084767
 21
37.766842110900029
 31
0.0
  0
LINE
  8
DETAIL
  6
CONTINUOUS
 62
     5
 10
109.5536842344
 20
34.212315794580043
 30
0.0
 11
-10.971058654746569
 21
34.212315794580043
 31
0.0
  0
LINE
  8
DETAIL
  6
CONTINUOUS
 62
     5
 10
109.5536842344
 20
29.769157899179959
 30
0.0
 11
-12.52164149264433
 21
29.769157899179959
 31
0.0
  0
LINE
  8
DETAIL
  6
CONTINUOUS
 62
     5
 10
109.5536842344
 20
26.214631582859969
 30
0.0
 11
-13.842966904836491
 21
26.214631582859969
 31
0.0
  0
LINE
  8
DETAIL
  6
CONTINUOUS
 62
     5
 10
109.5536842343998
 20
21.771473687459999
 30
0.0
 11
-15.598089750672949
 21
21.771473687459999
 31
0.0
  0
LINE
  8
DETAIL
  6
CONTINUOUS
 62
     5
 10
109.5536842343998
 20
18.216947371140009
 30
0.0
 11
-17.086908775675621
 21
18.216947371140009
 31
0.0
  0
LINE
  8
DETAIL
  6
CONTINUOUS
 62
     5
 10
109.5536842343998
 20
13.773789475740051
 30
0.0
 11
-19.056708487472061
 21
13.773789475740051
 31
0.0
  0
LINE
  8
DETAIL
  6
CONTINUOUS
 62
     5
 10
109.5536842343998
 20
10.21926315942005
 30
0.0
 11
-20.721911235674948
 21
10.21926315942005
 31
0.0
  0
LINE
  8
DETAIL
  6
CONTINUOUS
 62
     5
 10
109.5536842343998
 20
5.776105264019975
 30
0.0
 11
-22.918579832307959
 21
5.776105264019975
 31
0.0
  0
LINE
  8
DETAIL
  6
CONTINUOUS
 62
     5
 10
109.5536842343998
 20
2.2215789476999821
 30
0.0
 11
-24.770872380639961
 21
2.2215789476999821
 31
0.0
  0
LINE
  8
DETAIL
  6
CONTINUOUS
 62
     5
 10
109.5536842343998
 20
-2.2215789476999821
 30
0.0
 11
-27.209122054013559
 21
-2.2215789476999821
 31
0.0
  0
LINE
  8
DETAIL
  6
CONTINUOUS
 62
     5
 10
-28.183948422903541
 20
-156.56842107599741
 30
0.0
 11
155.15789475999699
 21
-156.56842107599741
 31
0.0
  0
LINE
  8
DETAIL
  6
CONTINUOUS
 62
     5
 10
166.08947370899989
 20
-167.50000002499999
 30
0.0
 11
-22.399816046231759
 21
-167.50000002499999
 31
0.0
  0
LINE
  8
DETAIL
  6
CONTINUOUS
 62
     5
 10
109.5536842343998
 20
-98.193789488340826
 30
0.0
 11
-56.194764852211222
 21
-98.193789488340826
 31
0.0
  0
LINE
  8
DETAIL
  6
CONTINUOUS
 62
     5
 10
109.5536842343998
 20
-93.750631592940749
 30
0.0
 11
-55.908861409271758
 21
-93.750631592940749
 31
0.0
  0
LINE
  8
DETAIL
  6
CONTINUOUS
 62
     5
 10
109.5536842343998
 20
-90.196105276620756
 30
0.0
 11
-55.612236461398084
 21
-90.196105276620756
 31
0.0
  0
LINE
  8
DETAIL
  6
CONTINUOUS
 62
     5
 10
109.5536842343998
 20
-85.752947381220793
 30
0.0
 11
-55.156157334632837
 21
-85.752947381220793
 31
0.0
  0
LINE
  8
DETAIL
  6
CONTINUOUS
 62
     5
 10
109.5536842343998
 20
-82.198421064900799
 30
0.0
 11
-54.722669021401032
 21
-82.198421064900799
 31
0.0
  0
LINE
  8
DETAIL
  6
CONTINUOUS
 62
     5
 10
109.5536842343998
 20
-77.755263169500722
 30
0.0
 11
-54.094403589125591
 21
-77.755263169500722
 31
0.0
  0
LINE
  8
DETAIL
  6
CONTINUOUS
 62
     5
 10
109.5536842343998
 20
-74.200736853180842
 30
0.0
 11
-53.522124548921852
 21
-74.200736853180842
 31
0.0
  0
LINE
  8
DETAIL
  6
CONTINUOUS
 62
     5
 10
109.5536842343998
 20
-69.75757895777997
 30
0.0
 11
-52.718850841569292
 21
-69.75757895777997
 31
0.0
  0
LINE
  8
DETAIL
  6
CONTINUOUS
 62
     5
 10
109.5536842343998
 20
-66.203052641460772
 30
0.0
 11
-52.005180736353047
 21
-66.203052641460772
 31
0.0
  0
LINE
  8
DETAIL
  6
CONTINUOUS
 62
     5
 10
109.5536842343998
 20
-61.759894746060809
 30
0.0
 11
-51.023200042417052
 21
-61.759894746060809
 31
0.0
  0
LINE
  8
DETAIL
  6
CONTINUOUS
 62
     5
 10
109.5536842343998
 20
-58.205368429740822
 30
0.0
 11
-50.164804144894788
 21
-58.205368429740822
 31
0.0
  0
LINE
  8
DETAIL
  6
CONTINUOUS
 62
     5
 10
109.5536842343998
 20
-53.762210534340738
 30
0.0
 11
-48.999451737994377
 21
-53.762210534340738
 31
0.0
  0
LINE
  8
DETAIL
  6
CONTINUOUS
 62
     5
 10
109.5536842343998
 20
-50.207684218020859
 30
0.0
 11
-47.992178499240822
 21
-50.207684218020859
 31
0.0
  0
LINE
  8
DETAIL
  6
CONTINUOUS
 62
     5
 10
109.5536842343998
 20
-45.764526322620782
 30
0.0
 11
-46.637705211695959
 21
-45.764526322620782
 31
0.0
  0
LINE
  8
DETAIL
  6
CONTINUOUS
 62
     5
 10
109.5536842343998
 20
-42.210000006299992
 30
0.0
 11
-45.476477781757922
 21
-42.210000006299992
 31
0.0
  0
LINE
  8
DETAIL
  6
CONTINUOUS
 62
     5
 10
109.5536842343998
 20
-37.766842110900711
 30
0.0
 11
-43.925894943859987
 21
-37.766842110900711
 31
0.0
  0
LINE
  8
DETAIL
  6
CONTINUOUS
 62
     5
 10
109.5536842343998
 20
-34.212315794580832
 30
0.0
 11
-42.604569531667948
 21
-34.212315794580832
 31
0.0
  0
LINE
  8
DETAIL
  6
CONTINUOUS
 62
     5
 10
109.5536842343998
 20
-29.769157899180868
 30
0.0
 11
-40.849446685831538
 21
-29.769157899180868
 31
0.0
  0
LINE
  8
DETAIL
  6
CONTINUOUS
 62
     5
 10
109.5536842343998
 20
-26.214631582860761
 30
0.0
 11
-39.360627660828868
 21
-26.214631582860761
 31
0.0
  0
LINE
  8
DETAIL
  6
CONTINUOUS
 62
     5
 10
109.5536842343998
 20
-21.771473687460801
 30
0.0
 11
-37.390827949032428
 21
-21.771473687460801
 31
0.0
  0
LINE
  8
DETAIL
  6
CONTINUOUS
 62
     5
 10
109.5536842343998
 20
-18.216947371140801
 30
0.0
 11
-35.725625200829427
 21
-18.216947371140801
 31
0.0
  0
LINE
  8
DETAIL
  6
CONTINUOUS
 62
     5
 10
109.5536842343998
 20
-13.773789475740839
 30
0.0
 11
-33.528956604196757
 21
-13.773789475740839
 31
0.0
  0
LINE
  8
DETAIL
  6
CONTINUOUS
 62
     5
 10
109.5536842343998
 20
-10.21926315942085
 30
0.0
 11
-31.67666405586419
 21
-10.21926315942085
 31
0.0
  0
LINE
  8
DETAIL
  6
CONTINUOUS
 62
     5
 10
109.5536842343998
 20
-5.7761052640207708
 30
0.0
 11
-29.23841438249065
 21
-5.7761052640207708
 31
0.0
  0
ARC
  8
OUTLINE
  6
CONTINUOUS
 62
     3
 10
-166.08947370899941
 20
166.089473709
 30
0.0
 40
1.410526315999969
 50
90.0
 51
180.0
  0
LINE
  8
OUTLINE
  6
CONTINUOUS
 62
     3
 10
-167.50000002499959
 20
166.089473709
 30
0.0
 11
-167.50000002499959
 21
-166.0894737090006
 31
0.0
  0
ARC
  8
OUTLINE
  6
CONTINUOUS
 62
     3
 10
-166.08947370899969
 20
-166.0894737090006
 30
0.0
 40
1.4105263159999999
 50
180.0
 51
270.0
  0
LINE
  8
OUTLINE
  6
CONTINUOUS
 62
     3
 10
-166.08947370899941
 20
167.50000002499999
 30
0.0
 11
22.39981604623188
 21
167.50000002499999
 31
0.0
  0
LINE
  8
OUTLINE
  6
CONTINUOUS
 62
     3
 10
-166.08947370899969
 20
-167.50000002499999
 30
0.0
 11
22.39981604623188
 21
-167.50000002499999
 31
0.0
  0
ARC
  8
OUTLINE
  6
CONTINUOUS
 62
     3
 10
166.089473709
 20
166.089473709
 30
0.0
 40
1.410526315999969
 50
0.0
 51
90.0
  0
LINE
  8
OUTLINE
  6
CONTINUOUS
 62
     3
 10
167.50000002499971
 20
166.089473709
 30
0.0
 11
167.50000002499971
 21
-166.0894737090006
 31
0.0
  0
ARC
  8
OUTLINE
  6
CONTINUOUS
 62
     3
 10
166.08947370899989
 20
-166.0894737090006
 30
0.0
 40
1.4105263159999999
 50
270.0
 51
0.0
  0
LINE
  8
OUTLINE
  6
CONTINUOUS
 62
     3
 10
166.089473709
 20
167.50000002499999
 30
0.0
 11
-22.399816046231759
 21
167.50000002499999
 31
0.0
  0
LINE
  8
OUTLINE
  6
CONTINUOUS
 62
     3
 10
166.08947370899989
 20
-167.50000002499999
 30
0.0
 11
-22.399816046231759
 21
-167.50000002499999
 31
0.0
  0
LINE
  8
SIZE
  6
CONTINUOUS
 62
    30
 10
-167.50000002499959
 20
186.089473709
 30
0.0
 11
-167.50000002499959
 21
270.17579444570231
 31
0.0
  0
LINE
  8
SIZE
  6
CONTINUOUS
 62
    30
 10
167.50000002499971
 20
186.089473709
 30
0.0
 11
167.50000002499971
 21
270.17579444570231
 31
0.0
  0
LINE
  8
SIZE
  6
CONTINUOUS
 62
    30
 10
-155.50000002499959
 20
250.17579444570231
 30
0.0
 11
155.50000002499971
 21
250.17579444570231
 31
0.0
  0
CIRCLE
  8
SIZE
  6
CONTINUOUS
 62
    30
 10
-167.50000002499959
 20
250.17579444570231
 30
0.0
 40
6.0
  0
LINE
  8
SIZE
  6
CONTINUOUS
 62
    30
 10
-167.50000002499959
 20
250.17579444570231
 30
0.0
 11
-155.50000002499959
 21
250.17579444570231
 31
0.0
  0
CIRCLE
  8
SIZE
  6
CONTINUOUS
 62
    30
 10
167.50000002499971
 20
250.17579444570231
 30
0.0
 40
6.0
  0
LINE
  8
SIZE
  6
CONTINUOUS
 62
    30
 10
167.50000002499971
 20
250.17579444570231
 30
0.0
 11
155.50000002499971
 21
250.17579444570231
 31
0.0
  0
TEXT
  8
SIZE
  6
CONTINUOUS
 62
    30
 10
-110.5371428571428
 20
275.17579444570231
 30
0.0
 40
64.0
  1
□335
 41
0.9
 72
     1
 11
0.0000000000000568
 21
275.17579444570231
 31
0.0
  0
POINT
  8
DEFPOINTS
  6
CONTINUOUS
 62
    30
 10
-167.50000002499959
 20
166.089473709
 30
0.0
  0
POINT
  8
DEFPOINTS
  6
CONTINUOUS
 62
    30
 10
167.50000002499971
 20
166.089473709
 30
0.0
  0
POINT
  8
DEFPOINTS
  6
CONTINUOUS
 62
    30
 10
167.50000002499971
 20
250.17579444570231
 30
0.0
  0
LINE
  8
OUTLINE
  6
CONTINUOUS
 62
     3
 10
49.0
 20
-239.5
 30
0.0
 11
-49.0
 21
-239.5
 31
0.0
  0
LINE
  8
OUTLINE
  6
CONTINUOUS
 62
     3
 10
52.5
 20
-212.5
 30
0.0
 11
-52.5
 21
-212.5
 31
0.0
  0
LINE
  8
OUTLINE
  6
CONTINUOUS
 62
     3
 10
52.5
 20
-187.5
 30
0.0
 11
-52.5
 21
-187.5
 31
0.0
  0
LINE
  8
OUTLINE
  6
CONTINUOUS
 62
     3
 10
-63.0
 20
-175.5
 30
0.0
 11
-52.5
 21
-187.5
 31
0.0
  0
LINE
  8
OUTLINE
  6
CONTINUOUS
 62
     3
 10
-63.0
 20
-175.5
 30
0.0
 11
-63.0
 21
-167.5
 31
0.0
  0
LINE
  8
OUTLINE
  6
CONTINUOUS
 62
     3
 10
-52.5
 20
-212.5
 30
0.0
 11
-52.5
 21
-187.5
 31
0.0
  0
LINE
  8
OUTLINE
  6
CONTINUOUS
 62
     3
 10
-49.0
 20
-239.5
 30
0.0
 11
-49.0
 21
-212.5
 31
0.0
  0
LINE
  8
OUTLINE
  6
CONTINUOUS
 62
     3
 10
63.0
 20
-175.5
 30
0.0
 11
52.5
 21
-187.5
 31
0.0
  0
LINE
  8
OUTLINE
  6
CONTINUOUS
 62
     3
 10
49.0
 20
-239.5
 30
0.0
 11
49.0
 21
-212.5
 31
0.0
  0
LINE
  8
OUTLINE
  6
CONTINUOUS
 62
     3
 10
52.5
 20
-212.5
 30
0.0
 11
52.5
 21
-187.5
 31
0.0
  0
LINE
  8
OUTLINE
  6
CONTINUOUS
 62
     3
 10
63.0
 20
-175.5
 30
0.0
 11
63.0
 21
-167.5
 31
0.0
  0
ENDSEC
  0
EOF
