  0
SECTION
  2
HEADER
  9
$ACADVER
  1
AC1009
  9
$DWGCODEPAGE
  3
dos932
  9
$INSBASE
 10
0.0
 20
0.0
 30
0.0
  9
$EXTMIN
 10
-566.93571335279375
 20
-636.06261058717791
 30
-0.0000006984510773
  9
$EXTMAX
 10
1038.249218124254
 20
654.32740067402665
 30
0.0000000291224815
  9
$LIMMIN
 10
-2970.0
 20
-2100.0
  9
$LIMMAX
 10
2970.0
 20
2100.0
  9
$ORTHOMODE
 70
     1
  9
$REGENMODE
 70
     1
  9
$FILLMODE
 70
     1
  9
$QTEXTMODE
 70
     0
  9
$MIRRTEXT
 70
     0
  9
$LTSCALE
 40
20.0
  9
$ATTMODE
 70
     1
  9
$TEXTSIZE
 40
64.0
  9
$TRACEWID
 40
0.05
  9
$TEXTSTYLE
  7
STANDARD
  9
$CLAYER
  8
OUTLINE
  9
$CELTYPE
  6
CONTINUOUS
  9
$CECOLOR
 62
     7
  9
$DIMSCALE
 40
1.0
  9
$DIMASZ
 40
12.0
  9
$DIMEXO
 40
20.0
  9
$DIMDLI
 40
200.0
  9
$DIMRND
 40
0.0
  9
$DIMDLE
 40
0.0
  9
$DIMEXE
 40
20.0
  9
$DIMTP
 40
0.0
  9
$DIMTM
 40
0.0
  9
$DIMTXT
 40
64.0
  9
$DIMCEN
 40
0.09
  9
$DIMTSZ
 40
0.0
  9
$DIMTOL
 70
     0
  9
$DIMLIM
 70
     0
  9
$DIMTIH
 70
     0
  9
$DIMTOH
 70
     0
  9
$DIMSE1
 70
     0
  9
$DIMSE2
 70
     0
  9
$DIMTAD
 70
     1
  9
$DIMZIN
 70
     8
  9
$DIMBLK
  1

  9
$DIMASO
 70
     1
  9
$DIMSHO
 70
     0
  9
$DIMPOST
  1

  9
$DIMAPOST
  1

  9
$DIMALT
 70
     0
  9
$DIMALTD
 70
     2
  9
$DIMALTF
 40
25.399999999999999
  9
$DIMLFAC
 40
1.0
  9
$DIMTOFL
 70
     1
  9
$DIMTVP
 40
0.0
  9
$DIMTIX
 70
     1
  9
$DIMSOXD
 70
     0
  9
$DIMSAH
 70
     0
  9
$DIMBLK1
  1

  9
$DIMBLK2
  1

  9
$DIMSTYLE
  2
STANDARD
  9
$DIMCLRD
 70
     7
  9
$DIMCLRE
 70
     7
  9
$DIMCLRT
 70
     7
  9
$DIMTFAC
 40
1.0
  9
$DIMGAP
 40
25.0
  9
$LUNITS
 70
     2
  9
$LUPREC
 70
     4
  9
$SKETCHINC
 40
0.1
  9
$FILLETRAD
 40
3.0
  9
$AUNITS
 70
     1
  9
$AUPREC
 70
     3
  9
$MENU
  1
ACAD
  9
$ELEVATION
 40
0.0
  9
$PELEVATION
 40
0.0
  9
$THICKNESS
 40
50.0
  9
$LIMCHECK
 70
     0
  9
$CHAMFERA
 40
0.0
  9
$CHAMFERB
 40
0.0
  9
$SKPOLY
 70
     0
  9
$TDCREATE
 40
2453019.62301037
  9
$TDUPDATE
 40
2458899.496065787
  9
$TDINDWG
 40
1.7986596181
  9
$TDUSRTIMER
 40
1.7986596181
  9
$USRTIMER
 70
     1
  9
$ANGBASE
 50
0.0
  9
$ANGDIR
 70
     0
  9
$PDMODE
 70
     3
  9
$PDSIZE
 40
-2.0
  9
$PLINEWID
 40
0.0
  9
$SPLFRAME
 70
     0
  9
$SPLINETYPE
 70
     6
  9
$SPLINESEGS
 70
     8
  9
$SURFTAB1
 70
     6
  9
$SURFTAB2
 70
     6
  9
$SURFTYPE
 70
     6
  9
$SURFU
 70
     6
  9
$SURFV
 70
     6
  9
$UCSNAME
  2

  9
$UCSORG
 10
0.0
 20
0.0
 30
0.0
  9
$UCSXDIR
 10
1.0
 20
0.0
 30
0.0
  9
$UCSYDIR
 10
0.0
 20
1.0
 30
0.0
  9
$PUCSNAME
  2

  9
$PUCSORG
 10
0.0
 20
0.0
 30
0.0
  9
$PUCSXDIR
 10
1.0
 20
0.0
 30
0.0
  9
$PUCSYDIR
 10
0.0
 20
1.0
 30
0.0
  9
$USERI1
 70
     0
  9
$USERI2
 70
     0
  9
$USERI3
 70
     0
  9
$USERI4
 70
     0
  9
$USERI5
 70
     0
  9
$USERR1
 40
20.0
  9
$USERR2
 40
0.0
  9
$USERR3
 40
0.0
  9
$USERR4
 40
0.0
  9
$USERR5
 40
0.0
  9
$WORLDVIEW
 70
     1
  9
$SHADEDGE
 70
     3
  9
$SHADEDIF
 70
    70
  9
$TILEMODE
 70
     1
  9
$MAXACTVP
 70
    48
  9
$PINSBASE
 10
0.0
 20
0.0
 30
0.0
  9
$PLIMCHECK
 70
     0
  9
$PEXTMIN
 10
-100000000000000000000.0
 20
-100000000000000000000.0
 30
-100000000000000000000.0
  9
$PEXTMAX
 10
100000000000000000000.0
 20
100000000000000000000.0
 30
100000000000000000000.0
  9
$PLIMMIN
 10
0.0
 20
0.0
  9
$PLIMMAX
 10
12.0
 20
9.0
  9
$UNITMODE
 70
     0
  9
$VISRETAIN
 70
     0
  9
$PLINEGEN
 70
     0
  9
$PSLTSCALE
 70
     0
  9
$TREEDEPTH
 70
  3020
  9
$ATTDIA
 70
     0
  9
$ATTREQ
 70
     1
  9
$BLIPMODE
 70
     1
  9
$COORDS
 70
     1
  9
$DRAGMODE
 70
     2
  9
$OSMODE
 70
     0
  9
$HANDLING
 70
     0
  9
$HANDSEED
  5
1F172
  0
ENDSEC
  0
SECTION
  2
TABLES
  0
TABLE
  2
LTYPE
 70
     2
  0
LTYPE
  2
CONTINUOUS
 70
     0
  3
実線
 72
    65
 73
     0
 40
0.0
  0
LTYPE
  2
DASHDOT
 70
     0
  3
____ _ ____ _ ____ _ ____ _ ____ _ ____ _ ____
 72
    65
 73
     4
 40
5.5
 49
4.0
 49
-0.6
 49
0.3
 49
-0.6
  0
ENDTAB
  0
TABLE
  2
LAYER
 70
    12
  0
LAYER
  2
0
 70
     0
 62
     7
  6
CONTINUOUS
  0
LAYER
  2
BASIS
 70
     0
 62
     6
  6
DASHDOT
  0
LAYER
  2
OUTLINE
 70
     0
 62
     3
  6
CONTINUOUS
  0
LAYER
  2
DETAIL
 70
     0
 62
     5
  6
CONTINUOUS
  0
LAYER
  2
SIZE
 70
     0
 62
    30
  6
CONTINUOUS
  0
LAYER
  2
ARRANGE
 70
     0
 62
     1
  6
CONTINUOUS
  0
LAYER
  2
DEFPOINTS
 70
     0
 62
     7
  6
CONTINUOUS
  0
LAYER
  2
ETC
 70
     0
 62
    61
  6
CONTINUOUS
  0
LAYER
  2
FIX
 70
     0
 62
    11
  6
CONTINUOUS
  0
LAYER
  2
NOTE
 70
     0
 62
     4
  6
CONTINUOUS
  0
LAYER
  2
SERVICESPACE
 70
    64
 62
     2
  6
DASHDOT
  0
LAYER
  2
SYMBOLLINE
 70
    64
 62
    15
  6
CONTINUOUS
  0
ENDTAB
  0
TABLE
  2
STYLE
 70
     1
  0
STYLE
  2
STANDARD
 70
     0
 40
64.0
 41
0.9
 50
0.0
 71
     0
 42
64.0
  3
SIMPLEX.shx
  4
BIGFONT.shx
  0
ENDTAB
  0
TABLE
  2
APPID
 70
    17
  0
APPID
  2
ACAD
 70
     0
  0
APPID
  2
AUTOCAD_POSTSCRIPT_FIGURE
 70
     0
  0
APPID
  2
ACAD_EXEMPT_FROM_CAD_STANDARDS
 70
     0
  0
APPID
  2
ACAD_PSEXT
 70
     0
  0
APPID
  2
ACAUTHENVIRON
 70
     0
  0
APPID
  2
GENIUS_GENOENT_13
 70
     0
  0
APPID
  2
GENIUS_GENCFG_13
 70
     0
  0
APPID
  2
GENIUS_GENCFG0_13
 70
     0
  0
APPID
  2
GENIUS_GENCFG1_13
 70
     0
  0
APPID
  2
GENIUS_GENCFG2_13
 70
     0
  0
APPID
  2
GENIUS_GENCFG3_13
 70
     0
  0
APPID
  2
GENIUS_GENCFG4_13
 70
     0
  0
APPID
  2
GENIUS_GEVCFG0_13
 70
     0
  0
APPID
  2
CONTENTBLOCKICON
 70
     0
  0
APPID
  2
CONTENTBLOCKDESCRIPTION
 70
     0
  0
APPID
  2
ACAD_NAV_VCDISPLAY
 70
     0
  0
APPID
  2
ACAD_MLEADERVER
 70
     0
  0
ENDTAB
  0
TABLE
  2
DIMSTYLE
 70
     1
  0
DIMSTYLE
  2
STANDARD
 70
     0
  3

  4

  5
_ORIGIN
  6

  7

 40
1.0
 41
12.0
 42
20.0
 43
200.0
 44
20.0
 45
0.0
 46
0.0
 47
0.0
 48
0.0
140
64.0
141
0.09
142
0.0
143
25.399999999999999
144
1.0
145
0.0
146
1.0
147
25.0
 71
     0
 72
     0
 73
     0
 74
     0
 75
     0
 76
     0
 77
     1
 78
     8
170
     0
171
     2
172
     1
173
     0
174
     1
175
     0
176
     7
177
     7
178
     7
  0
ENDTAB
  0
TABLE
  2
VIEW
 70
     1
  0
VIEW
  2
ALL
 70
     0
 40
4282.6198079999986
 10
0.0
 20
41.309904000000003
 41
5940.0
 11
0.0
 21
0.0
 31
1.0
 12
0.0
 22
0.0
 32
0.0
 42
50.0
 43
0.0
 44
0.0
 50
0.0
 71
     0
  0
ENDTAB
  0
TABLE
  2
UCS
 70
     0
  0
ENDTAB
  0
TABLE
  2
VPORT
 70
     1
  0
VPORT
  2
*ACTIVE
 70
     0
 10
0.0
 20
0.0
 11
1.0
 21
1.0
 12
235.6567523857303
 22
9.132395043424367
 13
0.0
 23
0.0
 14
1.0
 24
1.0
 15
0.0
 25
0.0
 16
0.0
 26
0.0
 36
1.0
 17
0.0
 27
0.0
 37
0.0
 40
1298.3882964549721
 41
1.6339193381592549
 42
50.0
 43
0.0
 44
0.0
 50
0.0
 51
0.0
 71
     0
 72
  1000
 73
     1
 74
     3
 75
     0
 76
     0
 77
     0
 78
     0
  0
ENDTAB
  0
ENDSEC
  0
SECTION
  2
BLOCKS
  0
BLOCK
  8
0
  2
_ORIGIN
 70
     0
 10
0.0
 20
0.0
 30
0.0
  3
_ORIGIN
  1
_ORIGIN
  0
CIRCLE
  8
0
  6
CONTINUOUS
 62
     7
 10
0.0
 20
0.0
 30
0.0
 40
0.5
  0
LINE
  8
0
  6
CONTINUOUS
 62
     7
 10
0.0
 20
0.0
 30
0.0
 11
-1.0
 21
0.0
 31
0.0
  0
ENDBLK
  8
0
  0
ENDSEC
  0
SECTION
  2
ENTITIES
  0
TEXT
  8
ETC
  6
CONTINUOUS
 62
    61
 10
253.7667174994767
 20
556.86478793667925
 30
0.0
 40
64.0
  1
VD-15ZVX6-FP_3
 41
0.9
  0
TEXT
  8
ETC
  6
CONTINUOUS
 62
    61
 10
249.58072349947631
 20
438.90947792184812
 30
0.0
 40
64.0
  1
換気扇
 41
0.9
  0
TEXT
  8
ETC
  6
CONTINUOUS
 62
    61
 10
300.2821217480323
 20
330.76070503562278
 30
0.0
 40
40.0
  1
VD-15ZVX6-FP
 41
0.9
  0
POINT
  8
ARRANGE
  6
CONTINUOUS
 62
     1
 10
0.0
 20
0.0
 30
0.0
  0
CIRCLE
  8
ARRANGE
  6
CONTINUOUS
 62
     1
 10
0.0
 20
0.0
 30
0.0
 40
40.0
  0
LINE
  8
DETAIL
  6
CONTINUOUS
 62
     5
 10
-117.90938980167989
 20
-18.195961890984339
 30
0.0
 11
-117.2644634013395
 21
-18.195961890984339
 31
0.0
  0
ARC
  8
DETAIL
  6
CONTINUOUS
 62
     5
 10
-117.2644634013395
 20
-18.395990942128719
 30
0.0
 40
0.200029051144036
 50
0.5000000000241178
 51
90.0
  0
LINE
  8
DETAIL
  6
CONTINUOUS
 62
     5
 10
-116.88462714370139
 20
-38.998983209960222
 30
0.0
 11
-117.06444196670149
 21
-18.39424538151275
 31
0.0
  0
ARC
  8
DETAIL
  6
CONTINUOUS
 62
     5
 10
-115.0477075147319
 20
-21.796484811576651
 30
0.0
 40
0.800116204575958
 50
180.0
 51
270.0
  0
ARC
  8
DETAIL
  6
CONTINUOUS
 62
     5
 10
-115.0477075147319
 20
-28.197414448184421
 30
0.0
 40
0.8001162045759758
 50
90.0
 51
180.0
  0
LINE
  8
DETAIL
  6
CONTINUOUS
 62
     5
 10
-114.64764941244449
 20
-27.397298243608699
 30
0.0
 11
-115.0477075147319
 21
-27.397298243608699
 31
0.0
  0
LINE
  8
DETAIL
  6
CONTINUOUS
 62
     5
 10
-112.5473443754322
 20
-23.496731746300611
 30
0.0
 11
-112.5473443754322
 21
-26.497167513460681
 31
0.0
  0
LINE
  8
DETAIL
  6
CONTINUOUS
 62
     5
 10
-112.5473443754322
 20
-26.497167513460681
 30
0.0
 11
-114.64764941244449
 21
-26.497167513460681
 31
0.0
  0
LINE
  8
DETAIL
  6
CONTINUOUS
 62
     5
 10
-112.5473443754322
 20
-23.496731746300611
 30
0.0
 11
-114.64764941244449
 21
-23.496731746300611
 31
0.0
  0
LINE
  8
DETAIL
  6
CONTINUOUS
 62
     5
 10
-114.64764941244449
 20
-27.397298243608699
 30
0.0
 11
-114.64764941244449
 21
-22.59660101615259
 31
0.0
  0
LINE
  8
DETAIL
  6
CONTINUOUS
 62
     5
 10
-114.64764941244449
 20
-22.59660101615259
 30
0.0
 11
-115.0477075147319
 21
-22.59660101615259
 31
0.0
  0
LINE
  8
DETAIL
  6
CONTINUOUS
 62
     5
 10
-116.64793992388419
 20
-38.998983209960222
 30
0.0
 11
-116.64793992388419
 21
-18.295976416556641
 31
0.0
  0
LINE
  8
DETAIL
  6
CONTINUOUS
 62
     5
 10
-115.8478237193081
 20
-18.295976416556641
 30
0.0
 11
-116.64793992388419
 21
-18.295976416556641
 31
0.0
  0
LINE
  8
DETAIL
  6
CONTINUOUS
 62
     5
 10
-115.8478237193081
 20
-38.998983209960222
 30
0.0
 11
-115.8478237193081
 21
-18.295976416556641
 31
0.0
  0
LINE
  8
DETAIL
  6
CONTINUOUS
 62
     5
 10
112.4925623754325
 20
-8.4750628944498203
 30
0.0
 11
-163.6341293651715
 21
-8.4750628944493656
 31
0.0
  0
LINE
  8
DETAIL
  6
CONTINUOUS
 62
     5
 10
115.5221526390485
 20
-38.998983209960222
 30
0.0
 11
-164.52800370430489
 21
-38.998983209959988
 31
0.0
  0
ARC
  8
DETAIL
  6
CONTINUOUS
 62
     5
 10
-164.52800370429671
 20
-39.499055837820379
 30
0.0
 40
0.500072627859976
 50
90.0
 51
182.99999999999909
  0
LINE
  8
DETAIL
  6
CONTINUOUS
 62
     5
 10
-165.0273909999996
 20
-39.525227616990612
 30
0.0
 11
-164.73773474020359
 21
-45.052198302620582
 31
0.0
  0
ARC
  8
DETAIL
  6
CONTINUOUS
 62
     5
 10
-163.73896014879671
 20
-44.999854744280583
 30
0.0
 40
1.00014525571994
 50
182.99999999999909
 51
270.0
  0
LINE
  8
DETAIL
  6
CONTINUOUS
 62
     5
 10
-165.02739099999991
 20
0.0
 30
0.0
 11
-164.6329039565783
 21
-7.5272611970697199
 31
0.0
  0
ARC
  8
DETAIL
  6
CONTINUOUS
 62
     5
 10
-163.6341293651715
 20
-7.4749176387299494
 30
0.0
 40
1.00014525571994
 50
182.99999999999909
 51
270.0
  0
ARC
  8
DETAIL
  6
CONTINUOUS
 62
     5
 10
-117.29680947318521
 20
-8.7751064711660547
 30
0.0
 40
0.300043576716174
 50
90.0
 51
178.99999999997871
  0
ARC
  8
DETAIL
  6
CONTINUOUS
 62
     5
 10
-136.80198533326461
 20
-8.7751064711662821
 30
0.0
 40
0.3000435767159159
 50
1.0000000000082889
 51
90.0
  0
LINE
  8
DETAIL
  6
CONTINUOUS
 62
     5
 10
-136.50198745468541
 20
-8.7698699887473595
 30
0.0
 11
-135.82628691689749
 21
-38.998983209960443
 31
0.0
  0
LINE
  8
DETAIL
  6
CONTINUOUS
 62
     5
 10
-117.5968073517645
 20
-8.7698699887473595
 30
0.0
 11
-118.2725078895519
 21
-38.998983209960222
 31
0.0
  0
LINE
  8
DETAIL
  6
CONTINUOUS
 62
     5
 10
163.6841781487976
 20
-46.000000000000448
 30
0.0
 11
-163.73896014879671
 21
-46.0
 31
0.0
  0
LINE
  8
DETAIL
  6
CONTINUOUS
 62
     5
 10
117.85460780168
 20
-18.195961890984339
 30
0.0
 11
117.20968140134001
 21
-18.195961890984339
 31
0.0
  0
ARC
  8
DETAIL
  6
CONTINUOUS
 62
     5
 10
117.20968140134001
 20
-18.395990942128719
 30
0.0
 40
0.200029051144036
 50
90.0
 51
179.49999999996939
  0
LINE
  8
DETAIL
  6
CONTINUOUS
 62
     5
 10
116.829845143702
 20
-38.998983209960222
 30
0.0
 11
117.0096599667024
 21
-18.39424538151275
 31
0.0
  0
ARC
  8
DETAIL
  6
CONTINUOUS
 62
     5
 10
114.9929255147329
 20
-21.796484811576651
 30
0.0
 40
0.800116204575958
 50
270.0
 51
0.0
  0
ARC
  8
DETAIL
  6
CONTINUOUS
 62
     5
 10
114.9929255147329
 20
-28.197414448184421
 30
0.0
 40
0.8001162045759758
 50
0.0
 51
90.0
  0
LINE
  8
DETAIL
  6
CONTINUOUS
 62
     5
 10
114.59286741244451
 20
-27.397298243608699
 30
0.0
 11
114.9929255147329
 21
-27.397298243608699
 31
0.0
  0
LINE
  8
DETAIL
  6
CONTINUOUS
 62
     5
 10
112.4925623754327
 20
-23.496731746300611
 30
0.0
 11
112.4925623754327
 21
-26.497167513460681
 31
0.0
  0
LINE
  8
DETAIL
  6
CONTINUOUS
 62
     5
 10
112.4925623754327
 20
-26.497167513460681
 30
0.0
 11
114.59286741244451
 21
-26.497167513460681
 31
0.0
  0
LINE
  8
DETAIL
  6
CONTINUOUS
 62
     5
 10
112.4925623754327
 20
-23.496731746300611
 30
0.0
 11
114.59286741244451
 21
-23.496731746300611
 31
0.0
  0
LINE
  8
DETAIL
  6
CONTINUOUS
 62
     5
 10
114.59286741244451
 20
-27.397298243608699
 30
0.0
 11
114.59286741244451
 21
-22.59660101615259
 31
0.0
  0
LINE
  8
DETAIL
  6
CONTINUOUS
 62
     5
 10
114.59286741244451
 20
-22.59660101615259
 30
0.0
 11
114.9929255147329
 21
-22.59660101615259
 31
0.0
  0
LINE
  8
DETAIL
  6
CONTINUOUS
 62
     5
 10
116.5931579238847
 20
-38.998983209960222
 30
0.0
 11
116.5931579238847
 21
-18.295976416556641
 31
0.0
  0
LINE
  8
DETAIL
  6
CONTINUOUS
 62
     5
 10
115.7930417193086
 20
-18.295976416556641
 30
0.0
 11
116.5931579238847
 21
-18.295976416556641
 31
0.0
  0
LINE
  8
DETAIL
  6
CONTINUOUS
 62
     5
 10
115.7930417193086
 20
-38.998983209960222
 30
0.0
 11
115.7930417193086
 21
-18.295976416556641
 31
0.0
  0
LINE
  8
DETAIL
  6
CONTINUOUS
 62
     5
 10
-112.5473443754329
 20
-8.4750628944498203
 30
0.0
 11
163.5793473651714
 21
-8.4750628944493656
 31
0.0
  0
LINE
  8
DETAIL
  6
CONTINUOUS
 62
     5
 10
-115.57693463904801
 20
-38.998983209960222
 30
0.0
 11
164.47322170430539
 21
-38.998983209959988
 31
0.0
  0
ARC
  8
DETAIL
  6
CONTINUOUS
 62
     5
 10
164.47322170429669
 20
-39.499055837820379
 30
0.0
 40
0.500072627859976
 50
356.99999999999437
 51
90.0
  0
LINE
  8
DETAIL
  6
CONTINUOUS
 62
     5
 10
164.97260900000009
 20
-39.525227616990612
 30
0.0
 11
164.682952740204
 21
-45.052198302620582
 31
0.0
  0
ARC
  8
DETAIL
  6
CONTINUOUS
 62
     5
 10
163.6841781487972
 20
-44.999854744280583
 30
0.0
 40
1.00014525571994
 50
270.0
 51
357.00000000000102
  0
LINE
  8
DETAIL
  6
CONTINUOUS
 62
     5
 10
164.97260899999989
 20
0.0
 30
0.0
 11
164.57812195657789
 21
-7.5272611970697199
 31
0.0
  0
ARC
  8
DETAIL
  6
CONTINUOUS
 62
     5
 10
163.5793473651714
 20
-7.4749176387299494
 30
0.0
 40
1.00014525571994
 50
270.0
 51
357.00000000000102
  0
ARC
  8
DETAIL
  6
CONTINUOUS
 62
     5
 10
117.2420274731858
 20
-8.7751064711660547
 30
0.0
 40
0.300043576716174
 50
1.0000000000213209
 51
90.0
  0
ARC
  8
DETAIL
  6
CONTINUOUS
 62
     5
 10
136.7472033332642
 20
-8.7751064711662821
 30
0.0
 40
0.3000435767159159
 50
90.0
 51
178.99999999998519
  0
LINE
  8
DETAIL
  6
CONTINUOUS
 62
     5
 10
136.44720545468539
 20
-8.7698699887473595
 30
0.0
 11
135.77150491689801
 21
-38.998983209960443
 31
0.0
  0
LINE
  8
DETAIL
  6
CONTINUOUS
 62
     5
 10
117.54202535176459
 20
-8.7698699887473595
 30
0.0
 11
118.2177258895524
 21
-38.998983209960222
 31
0.0
  0
LINE
  8
DETAIL
  6
CONTINUOUS
 62
     5
 10
-163.73896014879671
 20
-46.000000000000448
 30
0.0
 11
163.6841781487972
 21
-46.0
 31
0.0
  0
POINT
  8
ARRANGE
  6
CONTINUOUS
 62
     1
 10
0.0000000000002274
 20
0.0
 30
0.0
  0
LINE
  8
OUTLINE
  6
CONTINUOUS
 62
     3
 10
-140.0547627139326
 20
0.0
 30
0.0
 11
139.94519871393231
 21
0.0
 31
0.0
  0
LINE
  8
OUTLINE
  6
CONTINUOUS
 62
     3
 10
125.5
 20
166.0000279999999
 30
0.0
 11
-125.5
 21
166.0000279999999
 31
0.0
  0
LINE
  8
DETAIL
  6
CONTINUOUS
 62
     5
 10
-83.999998000000005
 20
170.0000279999999
 30
0.0
 11
36.000001999999988
 21
170.0000279999999
 31
0.0
  0
LINE
  8
DETAIL
  6
CONTINUOUS
 62
     5
 10
-64.999998000000005
 20
176.0000279999999
 30
0.0
 11
17.000001999999991
 21
176.0000279999999
 31
0.0
  0
LINE
  8
DETAIL
  6
CONTINUOUS
 62
     5
 10
-165.02739099999991
 20
0.0
 30
0.0
 11
164.97260899999989
 21
0.0
 31
0.0
  0
LINE
  8
DETAIL
  6
CONTINUOUS
 62
     5
 10
11.93999799999983
 20
201.97609799999989
 30
0.0
 11
-24.000002000000219
 21
201.97609799999989
 31
0.0
  0
LINE
  8
DETAIL
  6
CONTINUOUS
 62
     5
 10
-24.000002000000219
 20
204.00001399999999
 30
0.0
 11
5.4689509999998336
 21
204.00001399999999
 31
0.0
  0
LINE
  8
SIZE
  6
CONTINUOUS
 62
    30
 10
-53.000001999999988
 20
299.00013538981972
 30
0.0
 11
5.0
 21
299.00013538981972
 31
0.0
  0
TEXT
  8
SIZE
  6
CONTINUOUS
 62
    30
 10
-98.194285714285726
 20
-337.08696399743332
 30
0.0
 40
64.0
  1
□251
 41
0.9
 72
     1
 11
0.0
 21
-337.08696399743332
 31
0.0
  0
LINE
  8
SIZE
  6
CONTINUOUS
 62
    30
 10
113.5
 20
-362.5799189974332
 30
0.0
 11
-113.5
 21
-362.5799189974332
 31
0.0
  0
TEXT
  8
SIZE
  6
CONTINUOUS
 62
    30
 10
-68.571428571428555
 20
461.58644681804162
 30
0.0
 40
64.0
  1
210
 41
0.9
 72
     1
 11
0.0
 21
461.58644681804162
 31
0.0
  0
LINE
  8
SIZE
  6
CONTINUOUS
 62
    30
 10
-93.0
 20
435.28815581804201
 30
0.0
 11
93.0
 21
435.28815581804201
 31
0.0
  0
LINE
  8
DETAIL
  6
CONTINUOUS
 62
     5
 10
-90.0
 20
159.0000279999999
 30
0.0
 11
125.5
 21
159.0000279999999
 31
0.0
  0
LINE
  8
DETAIL
  6
CONTINUOUS
 62
     5
 10
-90.0
 20
166.0000279999999
 30
0.0
 11
125.5
 21
166.0000279999999
 31
0.0
  0
TEXT
  8
SIZE
  6
CONTINUOUS
 62
    30
 10
-74.057142857142821
 20
590.1326968180415
 30
0.0
 40
64.0
  1
285
 41
0.9
 72
     1
 11
0.0
 21
590.1326968180415
 31
0.0
  0
LINE
  8
SIZE
  6
CONTINUOUS
 62
    30
 10
-130.49999999999949
 20
562.62909681804172
 30
0.0
 11
130.49999999999949
 21
562.62909681804172
 31
0.0
  0
TEXT
  8
SIZE
  6
CONTINUOUS
 62
    30
 10
-110.5371428571429
 20
-587.61477239225053
 30
0.0
 40
64.0
  1
□330
 41
0.9
 72
     1
 11
0.0
 21
-587.61477239225053
 31
0.0
  0
LINE
  8
SIZE
  6
CONTINUOUS
 62
    30
 10
-153.02739100000011
 20
-615.80255939225049
 30
0.0
 11
152.97260899999989
 21
-615.80255939225049
 31
0.0
  0
TEXT
  8
SIZE
  6
CONTINUOUS
 62
    30
 10
-68.310450857142669
 20
-464.46191999743309
 30
0.0
 40
64.0
  1
283
 41
0.9
 72
     1
 11
5.7466920000001656
 21
-464.46191999743309
 31
0.0
  0
LINE
  8
SIZE
  6
CONTINUOUS
 62
    30
 10
129.49999999999949
 20
-488.85876899743317
 30
0.0
 11
-129.49999999999949
 21
-488.85876899743317
 31
0.0
  0
TEXT
  8
SIZE
  6
CONTINUOUS
 62
    30
 10
-68.571428571428569
 20
-193.56589499743319
 30
0.0
 40
64.0
  1
170
 41
0.9
 72
     1
 11
0.0
 21
-193.56589499743319
 31
0.0
  0
LINE
  8
SIZE
  6
CONTINUOUS
 62
    30
 10
73.0
 20
-218.4447909974333
 30
0.0
 11
-73.0
 21
-218.4447909974333
 31
0.0
  0
LINE
  8
OUTLINE
  6
CONTINUOUS
 62
     3
 10
-125.5
 20
166.0000279999999
 30
0.0
 11
-125.5
 21
0.0
 31
0.0
  0
LINE
  8
SIZE
  6
CONTINUOUS
 62
    30
 10
-476.29309435263531
 20
0.0
 30
0.0
 11
-476.29309435263531
 21
12.0
 31
0.0
  0
CIRCLE
  8
SIZE
  6
CONTINUOUS
 62
    30
 10
-476.29309435263531
 20
0.0
 30
0.0
 40
6.0
  0
CIRCLE
  8
FIX
  6
CONTINUOUS
 62
    11
 10
-85.0
 20
0.0
 30
0.0
 40
2.5
  0
CIRCLE
  8
FIX
  6
CONTINUOUS
 62
    11
 10
-141.5
 20
0.0
 30
0.0
 40
2.5
  0
LINE
  8
NOTE
  6
CONTINUOUS
 62
     4
 10
-141.5
 20
-20.0
 30
0.0
 11
-141.5
 21
20.0
 31
0.0
  0
LINE
  8
NOTE
  6
CONTINUOUS
 62
     4
 10
-85.0
 20
-20.0
 30
0.0
 11
-85.0
 21
20.0
 31
0.0
  0
LINE
  8
SIZE
  6
CONTINUOUS
 62
    30
 10
-476.29309435263531
 20
0.0
 30
0.0
 11
-476.29309435263531
 21
12.0
 31
0.0
  0
CIRCLE
  8
SIZE
  6
CONTINUOUS
 62
    30
 10
-476.29309435263531
 20
0.0
 30
0.0
 40
6.0
  0
LINE
  8
DETAIL
  6
CONTINUOUS
 62
     5
 10
-125.5
 20
166.05442799999989
 30
0.0
 11
-125.5
 21
0.0
 31
0.0
  0
LINE
  8
BASIS
  6
DASHDOT
 62
     6
 10
0.0
 20
222.01639
 30
0.0
 11
0.0
 21
-58.610777999999982
 31
0.0
  0
LINE
  8
SIZE
  6
CONTINUOUS
 62
    30
 10
-165.02739099999991
 20
-20.0
 30
0.0
 11
-165.02739099999991
 21
-635.80255939225049
 31
0.0
  0
LINE
  8
SIZE
  6
CONTINUOUS
 62
    30
 10
-165.02739099999991
 20
-615.80255939225049
 30
0.0
 11
-153.02739100000011
 21
-615.80255939225049
 31
0.0
  0
CIRCLE
  8
SIZE
  6
CONTINUOUS
 62
    30
 10
-165.02739099999991
 20
-615.80255939225049
 30
0.0
 40
6.0
  0
LINE
  8
SIZE
  6
CONTINUOUS
 62
    30
 10
-193.18339176982681
 20
0.0
 30
0.0
 11
-355.83545835263521
 21
0.0
 31
0.0
  0
LINE
  8
SIZE
  6
CONTINUOUS
 62
    30
 10
-186.57786706414839
 20
-46.0
 30
0.0
 11
-496.29309435263491
 21
-46.0
 31
0.0
  0
LINE
  8
SIZE
  6
CONTINUOUS
 62
    30
 10
-193.18339176982681
 20
0.0
 30
0.0
 11
-496.29309435263491
 21
0.0
 31
0.0
  0
LINE
  8
SIZE
  6
CONTINUOUS
 62
    30
 10
-193.18339176982681
 20
0.0
 30
0.0
 11
-496.29309435263491
 21
0.0
 31
0.0
  0
TEXT
  8
SIZE
  6
CONTINUOUS
 62
    30
 10
-501.47448135263488
 20
-165.20612385714281
 30
0.0
 40
64.0
  1
46
 50
90.0
 41
0.9
 72
     1
 11
-501.47448135263488
 21
-119.9489809999999
 31
0.0
  0
LINE
  8
SIZE
  6
CONTINUOUS
 62
    30
 10
-476.29309435263531
 20
-48.0
 30
0.0
 11
-476.29309435263531
 21
-178.59455800000001
 31
0.0
  0
LINE
  8
SIZE
  6
CONTINUOUS
 62
    30
 10
-476.29309435263531
 20
-46.0
 30
0.0
 11
-476.29309435263531
 21
-58.0
 31
0.0
  0
CIRCLE
  8
SIZE
  6
CONTINUOUS
 62
    30
 10
-476.29309435263531
 20
-46.0
 30
0.0
 40
6.0
  0
LINE
  8
SIZE
  6
CONTINUOUS
 62
    30
 10
-476.29309435263531
 20
0.0
 30
0.0
 11
-476.29309435263531
 21
-46.0
 31
0.0
  0
LINE
  8
SIZE
  6
CONTINUOUS
 62
    30
 10
-476.29309435263531
 20
0.0
 30
0.0
 11
-476.29309435263531
 21
-46.0
 31
0.0
  0
LINE
  8
SIZE
  6
CONTINUOUS
 62
    30
 10
-476.29309435263531
 20
-58.0
 30
0.0
 11
-476.29309435263531
 21
-70.0
 31
0.0
  0
LINE
  8
SIZE
  6
CONTINUOUS
 62
    30
 10
-125.5
 20
-19.94557199999997
 30
0.0
 11
-125.5
 21
-382.5799189974332
 31
0.0
  0
LINE
  8
SIZE
  6
CONTINUOUS
 62
    30
 10
-141.5
 20
-40.0
 30
0.0
 11
-141.5
 21
-508.85876899743317
 31
0.0
  0
LINE
  8
SIZE
  6
CONTINUOUS
 62
    30
 10
-85.0
 20
-40.0
 30
0.0
 11
-85.0
 21
-238.4447909974333
 31
0.0
  0
LINE
  8
SIZE
  6
CONTINUOUS
 62
    30
 10
-141.5
 20
-488.85876899743317
 30
0.0
 11
-129.49999999999949
 21
-488.85876899743317
 31
0.0
  0
CIRCLE
  8
SIZE
  6
CONTINUOUS
 62
    30
 10
-141.5
 20
-488.85876899743317
 30
0.0
 40
6.0
  0
LINE
  8
SIZE
  6
CONTINUOUS
 62
    30
 10
-125.5
 20
-362.5799189974332
 30
0.0
 11
-113.5
 21
-362.5799189974332
 31
0.0
  0
CIRCLE
  8
SIZE
  6
CONTINUOUS
 62
    30
 10
-125.5
 20
-362.5799189974332
 30
0.0
 40
6.0
  0
LINE
  8
SIZE
  6
CONTINUOUS
 62
    30
 10
-85.0
 20
-218.4447909974333
 30
0.0
 11
-73.0
 21
-218.4447909974333
 31
0.0
  0
CIRCLE
  8
SIZE
  6
CONTINUOUS
 62
    30
 10
-85.0
 20
-218.4447909974333
 30
0.0
 40
6.0
  0
LINE
  8
NOTE
  6
CONTINUOUS
 62
     4
 10
-161.5
 20
0.0
 30
0.0
 11
-121.5
 21
0.0
 31
0.0
  0
LINE
  8
NOTE
  6
CONTINUOUS
 62
     4
 10
-105.0
 20
0.0
 30
0.0
 11
-65.0
 21
0.0
 31
0.0
  0
LINE
  8
SIZE
  6
CONTINUOUS
 62
    30
 10
-142.5
 20
214.75058199999989
 30
0.0
 11
-142.5
 21
582.62909681804149
 31
0.0
  0
LINE
  8
SIZE
  6
CONTINUOUS
 62
    30
 10
-66.488708381836659
 20
204.0
 30
0.0
 11
-496.29309435263491
 21
204.0
 31
0.0
  0
TEXT
  8
SIZE
  6
CONTINUOUS
 62
    30
 10
-502.70975335263478
 20
26.625850571428629
 30
0.0
 40
64.0
  1
204
 50
90.0
 41
0.9
 72
     1
 11
-502.70975335263478
 21
102.054422
 31
0.0
  0
LINE
  8
SIZE
  6
CONTINUOUS
 62
    30
 10
-476.29309435263531
 20
12.0
 30
0.0
 11
-476.29309435263531
 21
192.0
 31
0.0
  0
LINE
  8
SIZE
  6
CONTINUOUS
 62
    30
 10
-476.29309435263531
 20
12.0
 30
0.0
 11
-476.29309435263531
 21
24.0
 31
0.0
  0
LINE
  8
SIZE
  6
CONTINUOUS
 62
    30
 10
-476.29309435263531
 20
204.0
 30
0.0
 11
-476.29309435263531
 21
192.0
 31
0.0
  0
CIRCLE
  8
SIZE
  6
CONTINUOUS
 62
    30
 10
-476.29309435263531
 20
204.0
 30
0.0
 40
6.0
  0
LINE
  8
SIZE
  6
CONTINUOUS
 62
    30
 10
-65.000001999999995
 20
214.39442799999981
 30
0.0
 11
-65.000001999999995
 21
319.00013538981972
 31
0.0
  0
LINE
  8
SIZE
  6
CONTINUOUS
 62
    30
 10
-105.0
 20
214.05442799999989
 30
0.0
 11
-105.0
 21
455.28815581804201
 31
0.0
  0
LINE
  8
DETAIL
  6
CONTINUOUS
 62
     5
 10
-122.5
 20
174.0000279999999
 30
0.0
 11
-122.5
 21
119.554428
 31
0.0
  0
LINE
  8
NOTE
  6
CONTINUOUS
 62
     4
 10
-105.0
 20
154.0000279999999
 30
0.0
 11
-105.0
 21
194.0000279999999
 31
0.0
  0
LINE
  8
DETAIL
  6
CONTINUOUS
 62
     5
 10
-129.0
 20
170.5000279999999
 30
0.0
 11
-129.0
 21
22.500028000000039
 31
0.0
  0
LINE
  8
DETAIL
  6
CONTINUOUS
 62
     5
 10
-90.0
 20
170.05442799999989
 30
0.0
 11
-90.0
 21
119.554428
 31
0.0
  0
LINE
  8
NOTE
  6
CONTINUOUS
 62
     4
 10
-142.5
 20
154.0000279999999
 30
0.0
 11
-142.5
 21
194.0000279999999
 31
0.0
  0
LINE
  8
DETAIL
  6
CONTINUOUS
 62
     5
 10
-90.0
 20
119.554428
 30
0.0
 11
-125.5
 21
119.554428
 31
0.0
  0
LINE
  8
DETAIL
  6
CONTINUOUS
 62
     5
 10
-129.0
 20
22.55442800000003
 30
0.0
 11
-125.5
 21
22.55442800000003
 31
0.0
  0
LINE
  8
DETAIL
  6
CONTINUOUS
 62
     5
 10
-90.0
 20
170.05442799999989
 30
0.0
 11
-122.5
 21
170.05442799999989
 31
0.0
  0
LINE
  8
DETAIL
  6
CONTINUOUS
 62
     5
 10
-122.5
 20
174.0000279999999
 30
0.0
 11
-90.0
 21
174.0000279999999
 31
0.0
  0
LINE
  8
NOTE
  6
CONTINUOUS
 62
     4
 10
-85.0
 20
174.0000279999999
 30
0.0
 11
-125.0
 21
174.0000279999999
 31
0.0
  0
LINE
  8
DETAIL
  6
CONTINUOUS
 62
     5
 10
-122.5
 20
166.0000279999999
 30
0.0
 11
-125.5
 21
166.0000279999999
 31
0.0
  0
LINE
  8
DETAIL
  6
CONTINUOUS
 62
     5
 10
-125.5
 20
166.0000279999999
 30
0.0
 11
-125.5
 21
174.0000279999999
 31
0.0
  0
LINE
  8
DETAIL
  6
CONTINUOUS
 62
     5
 10
-159.4999999999994
 20
174.0000279999999
 30
0.0
 11
-125.5
 21
174.0000279999999
 31
0.0
  0
CIRCLE
  8
FIX
  6
CONTINUOUS
 62
    11
 10
-142.5
 20
174.05442799999989
 30
0.0
 40
7.5
  0
LINE
  8
NOTE
  6
CONTINUOUS
 62
     4
 10
-122.5
 20
174.0000279999999
 30
0.0
 11
-162.5
 21
174.0000279999999
 31
0.0
  0
LINE
  8
DETAIL
  6
CONTINUOUS
 62
     5
 10
-129.0
 20
170.5000279999999
 30
0.0
 11
-159.4999999999994
 21
170.5000279999999
 31
0.0
  0
LINE
  8
DETAIL
  6
CONTINUOUS
 62
     5
 10
-159.4999999999994
 20
174.0000279999999
 30
0.0
 11
-159.4999999999994
 21
170.5000279999999
 31
0.0
  0
LINE
  8
DETAIL
  6
CONTINUOUS
 62
     5
 10
-59.93999800000006
 20
201.97609799999989
 30
0.0
 11
-23.999998000000229
 21
201.97609799999989
 31
0.0
  0
LINE
  8
DETAIL
  6
CONTINUOUS
 62
     5
 10
-83.999998000000005
 20
170.0000279999999
 30
0.0
 11
-83.999998000000005
 21
166.0000279999999
 31
0.0
  0
ARC
  8
DETAIL
  6
CONTINUOUS
 62
     5
 10
-78.0
 20
168.0
 30
0.0
 40
12.0
 50
90.0
 51
180.0
  0
CIRCLE
  8
FIX
  6
CONTINUOUS
 62
    11
 10
-105.0
 20
174.05442799999989
 30
0.0
 40
7.5
  0
LINE
  8
DETAIL
  6
CONTINUOUS
 62
     5
 10
-90.0
 20
174.0000279999999
 30
0.0
 11
-90.0
 21
170.05442799999989
 31
0.0
  0
ARC
  8
DETAIL
  6
CONTINUOUS
 62
     5
 10
-59.93999800000006
 20
196.91611199999991
 30
0.0
 40
5.060001999999999
 50
90.0
 51
179.99999899999861
  0
LINE
  8
DETAIL
  6
CONTINUOUS
 62
     5
 10
-65.0
 20
170.0000279999999
 30
0.0
 11
-65.0
 21
196.91611199999991
 31
0.0
  0
LINE
  8
DETAIL
  6
CONTINUOUS
 62
     5
 10
-78.0
 20
180.0
 30
0.0
 11
-65.0
 21
180.0
 31
0.0
  0
POINT
  8
DEFPOINTS
  6
CONTINUOUS
 62
    30
 10
0.0
 20
222.01639
 30
0.0
  0
POINT
  8
DEFPOINTS
  6
CONTINUOUS
 62
    30
 10
0.0
 20
222.01639
 30
0.0
  0
LINE
  8
DETAIL
  6
CONTINUOUS
 62
     5
 10
-23.999998000000229
 20
204.00001399999999
 30
0.0
 11
-53.468951000000288
 21
204.00001399999999
 31
0.0
  0
LINE
  8
DETAIL
  6
CONTINUOUS
 62
     5
 10
-54.637467999999899
 20
201.97609799999989
 30
0.0
 11
-53.468960000000152
 21
204.0
 31
0.0
  0
TEXT
  8
SIZE
  6
CONTINUOUS
 62
    30
 10
-102.3738377075186
 20
324.00013538981972
 30
0.0
 40
64.0
  1
φ82
 41
0.9
 72
     1
 11
-25.573837707518582
 21
324.00013538981972
 31
0.0
  0
LINE
  8
SIZE
  6
CONTINUOUS
 62
    30
 10
-65.000001999999995
 20
299.00013538981972
 30
0.0
 11
-53.000001999999988
 21
299.00013538981972
 31
0.0
  0
CIRCLE
  8
SIZE
  6
CONTINUOUS
 62
    30
 10
-65.000001999999995
 20
299.00013538981972
 30
0.0
 40
6.0
  0
LINE
  8
SIZE
  6
CONTINUOUS
 62
    30
 10
-105.0
 20
435.28815581804201
 30
0.0
 11
-93.0
 21
435.28815581804201
 31
0.0
  0
CIRCLE
  8
SIZE
  6
CONTINUOUS
 62
    30
 10
-105.0
 20
435.28815581804201
 30
0.0
 40
6.0
  0
LINE
  8
SIZE
  6
CONTINUOUS
 62
    30
 10
-142.5
 20
562.62909681804172
 30
0.0
 11
-130.49999999999949
 21
562.62909681804172
 31
0.0
  0
CIRCLE
  8
SIZE
  6
CONTINUOUS
 62
    30
 10
-142.5
 20
562.62909681804172
 30
0.0
 40
6.0
  0
LINE
  8
OUTLINE
  6
CONTINUOUS
 62
     3
 10
125.5
 20
166.0000279999999
 30
0.0
 11
125.5
 21
0.0
 31
0.0
  0
LINE
  8
NOTE
  6
CONTINUOUS
 62
     4
 10
141.5
 20
-20.0
 30
0.0
 11
141.5
 21
20.0
 31
0.0
  0
CIRCLE
  8
FIX
  6
CONTINUOUS
 62
    11
 10
141.5
 20
0.0
 30
0.0
 40
2.5
  0
CIRCLE
  8
FIX
  6
CONTINUOUS
 62
    11
 10
85.0
 20
0.0
 30
0.0
 40
2.5
  0
LINE
  8
NOTE
  6
CONTINUOUS
 62
     4
 10
85.0
 20
-20.0
 30
0.0
 11
85.0
 21
20.0
 31
0.0
  0
LINE
  8
DETAIL
  6
CONTINUOUS
 62
     5
 10
125.5
 20
174.0000279999999
 30
0.0
 11
125.5
 21
0.0
 31
0.0
  0
LINE
  8
NOTE
  6
CONTINUOUS
 62
     4
 10
141.48344
 20
0.0518479999999499
 30
0.0
 11
175.4445969999997
 21
-21.082005999999978
 31
0.0
  0
LINE
  8
NOTE
  6
CONTINUOUS
 62
     4
 10
160.3277370000001
 20
-35.231184999999982
 30
0.0
 11
141.48344
 21
0.0518479999999499
 31
0.0
  0
LINE
  8
NOTE
  6
CONTINUOUS
 62
     4
 10
141.48344
 20
0.0518479999999499
 30
0.0
 11
299.19581199999988
 21
-172.37768700000001
 31
0.0
  0
LINE
  8
SIZE
  6
CONTINUOUS
 62
    30
 10
164.97260899999989
 20
-20.0
 30
0.0
 11
164.97260899999989
 21
-635.80255939225049
 31
0.0
  0
LINE
  8
SIZE
  6
CONTINUOUS
 62
    30
 10
164.97260899999989
 20
-615.80255939225049
 30
0.0
 11
152.97260899999989
 21
-615.80255939225049
 31
0.0
  0
CIRCLE
  8
SIZE
  6
CONTINUOUS
 62
    30
 10
164.97260899999989
 20
-615.80255939225049
 30
0.0
 40
6.0
  0
TEXT
  8
NOTE
  6
CONTINUOUS
 62
     4
 10
331.0976169999999
 20
-136.60213999999999
 30
0.0
 40
64.0
  1
8-φ5×8
 41
0.9
  0
LINE
  8
NOTE
  6
CONTINUOUS
 62
     4
 10
299.19581199999988
 20
-172.37768700000001
 30
0.0
 11
723.73824800000011
 21
-172.37768700000001
 31
0.0
  0
LINE
  8
SIZE
  6
CONTINUOUS
 62
    30
 10
125.5
 20
-19.94557199999997
 30
0.0
 11
125.5
 21
-382.5799189974332
 31
0.0
  0
LINE
  8
SIZE
  6
CONTINUOUS
 62
    30
 10
141.5
 20
-40.0
 30
0.0
 11
141.5
 21
-508.85876899743317
 31
0.0
  0
LINE
  8
SIZE
  6
CONTINUOUS
 62
    30
 10
85.0
 20
-40.0
 30
0.0
 11
85.0
 21
-238.4447909974333
 31
0.0
  0
LINE
  8
SIZE
  6
CONTINUOUS
 62
    30
 10
141.5
 20
-488.85876899743317
 30
0.0
 11
129.49999999999949
 21
-488.85876899743317
 31
0.0
  0
CIRCLE
  8
SIZE
  6
CONTINUOUS
 62
    30
 10
141.5
 20
-488.85876899743317
 30
0.0
 40
6.0
  0
LINE
  8
SIZE
  6
CONTINUOUS
 62
    30
 10
125.5
 20
-362.5799189974332
 30
0.0
 11
113.5
 21
-362.5799189974332
 31
0.0
  0
CIRCLE
  8
SIZE
  6
CONTINUOUS
 62
    30
 10
125.5
 20
-362.5799189974332
 30
0.0
 40
6.0
  0
LINE
  8
SIZE
  6
CONTINUOUS
 62
    30
 10
85.0
 20
-218.4447909974333
 30
0.0
 11
73.0
 21
-218.4447909974333
 31
0.0
  0
CIRCLE
  8
SIZE
  6
CONTINUOUS
 62
    30
 10
85.0
 20
-218.4447909974333
 30
0.0
 40
6.0
  0
LINE
  8
NOTE
  6
CONTINUOUS
 62
     4
 10
105.0
 20
0.0
 30
0.0
 11
65.0
 21
0.0
 31
0.0
  0
LINE
  8
NOTE
  6
CONTINUOUS
 62
     4
 10
161.5
 20
0.0
 30
0.0
 11
121.5
 21
0.0
 31
0.0
  0
TEXT
  8
NOTE
  6
CONTINUOUS
 62
     4
 10
-515.06234342857147
 20
358.20391699999982
 30
0.0
 40
64.0
  1
AH 2
 41
0.9
  0
LINE
  8
NOTE
  6
CONTINUOUS
 62
     4
 10
-535.51765395274015
 20
314.33659199999988
 30
0.0
 11
-269.72720500000008
 21
314.33659199999988
 31
0.0
  0
LINE
  8
SIZE
  6
CONTINUOUS
 62
    30
 10
142.5
 20
214.75058199999989
 30
0.0
 11
142.5
 21
582.62909681804149
 31
0.0
  0
LINE
  8
SIZE
  6
CONTINUOUS
 62
    30
 10
17.0
 20
214.39442799999981
 30
0.0
 11
17.0
 21
319.00013538981972
 31
0.0
  0
LINE
  8
SIZE
  6
CONTINUOUS
 62
    30
 10
105.0
 20
214.05442799999989
 30
0.0
 11
105.0
 21
455.28815581804201
 31
0.0
  0
LINE
  8
NOTE
  6
CONTINUOUS
 62
     4
 10
-142.5
 20
174.0000279999999
 30
0.0
 11
-269.72720500000008
 21
314.33659199999988
 31
0.0
  0
LINE
  8
DETAIL
  6
CONTINUOUS
 62
     5
 10
129.0
 20
170.5000279999999
 30
0.0
 11
129.0
 21
22.55442800000003
 31
0.0
  0
LINE
  8
NOTE
  6
CONTINUOUS
 62
     4
 10
142.5
 20
154.0000279999999
 30
0.0
 11
142.5
 21
194.0000279999999
 31
0.0
  0
LINE
  8
NOTE
  6
CONTINUOUS
 62
     4
 10
105.0
 20
154.0000279999999
 30
0.0
 11
105.0
 21
194.0000279999999
 31
0.0
  0
LINE
  8
DETAIL
  6
CONTINUOUS
 62
     5
 10
125.5
 20
22.55442800000003
 30
0.0
 11
129.0
 21
22.55442800000003
 31
0.0
  0
LINE
  8
NOTE
  6
CONTINUOUS
 62
     4
 10
85.0
 20
174.0000279999999
 30
0.0
 11
125.0
 21
174.0000279999999
 31
0.0
  0
LINE
  8
DETAIL
  6
CONTINUOUS
 62
     5
 10
87.5
 20
174.0000279999999
 30
0.0
 11
122.5
 21
174.0000279999999
 31
0.0
  0
LINE
  8
DETAIL
  6
CONTINUOUS
 62
     5
 10
87.5
 20
170.5000279999999
 30
0.0
 11
122.5
 21
170.5000279999999
 31
0.0
  0
LINE
  8
DETAIL
  6
CONTINUOUS
 62
     5
 10
17.0
 20
180.0
 30
0.0
 11
92.0
 21
180.0
 31
0.0
  0
LINE
  8
DETAIL
  6
CONTINUOUS
 62
     5
 10
36.000001999999988
 20
170.0000279999999
 30
0.0
 11
36.000001999999988
 21
166.0000279999999
 31
0.0
  0
LINE
  8
DETAIL
  6
CONTINUOUS
 62
     5
 10
6.6374679999998989
 20
201.97609799999989
 30
0.0
 11
5.4689600000001519
 21
204.0
 31
0.0
  0
LINE
  8
DETAIL
  6
CONTINUOUS
 62
     5
 10
17.0
 20
170.0000279999999
 30
0.0
 11
17.0
 21
196.91611199999991
 31
0.0
  0
ARC
  8
DETAIL
  6
CONTINUOUS
 62
     5
 10
11.93999799999983
 20
196.91611199999991
 30
0.0
 40
5.060001999999999
 50
0.0000010000014034
 51
90.0
  0
LINE
  8
DETAIL
  6
CONTINUOUS
 62
     5
 10
92.0
 20
170.5000279999999
 30
0.0
 11
92.0
 21
166.0000279999999
 31
0.0
  0
LINE
  8
DETAIL
  6
CONTINUOUS
 62
     5
 10
92.0
 20
180.0
 30
0.0
 11
92.0
 21
174.0000279999999
 31
0.0
  0
LINE
  8
DETAIL
  6
CONTINUOUS
 62
     5
 10
92.0
 20
180.0
 30
0.0
 11
92.0
 21
174.0000279999999
 31
0.0
  0
LINE
  8
DETAIL
  6
CONTINUOUS
 62
     5
 10
87.5
 20
174.0000279999999
 30
0.0
 11
87.5
 21
170.5000279999999
 31
0.0
  0
CIRCLE
  8
FIX
  6
CONTINUOUS
 62
    11
 10
105.0
 20
174.05442799999989
 30
0.0
 40
7.5
  0
LINE
  8
NOTE
  6
CONTINUOUS
 62
     4
 10
-176.78080800000001
 20
194.61134099999981
 30
0.0
 11
-142.5
 21
174.0000279999999
 31
0.0
  0
LINE
  8
DETAIL
  6
CONTINUOUS
 62
     5
 10
125.5
 20
174.0000279999999
 30
0.0
 11
159.4999999999994
 21
174.0000279999999
 31
0.0
  0
LINE
  8
DETAIL
  6
CONTINUOUS
 62
     5
 10
122.5
 20
174.0000279999999
 30
0.0
 11
122.5
 21
166.0000279999999
 31
0.0
  0
LINE
  8
DETAIL
  6
CONTINUOUS
 62
     5
 10
159.4999999999994
 20
174.0000279999999
 30
0.0
 11
159.4999999999994
 21
170.5000279999999
 31
0.0
  0
LINE
  8
DETAIL
  6
CONTINUOUS
 62
     5
 10
129.0
 20
170.5000279999999
 30
0.0
 11
159.4999999999994
 21
170.5000279999999
 31
0.0
  0
LINE
  8
NOTE
  6
CONTINUOUS
 62
     4
 10
122.5
 20
174.0000279999999
 30
0.0
 11
162.5
 21
174.0000279999999
 31
0.0
  0
CIRCLE
  8
FIX
  6
CONTINUOUS
 62
    11
 10
142.5
 20
174.05442799999989
 30
0.0
 40
7.5
  0
LINE
  8
NOTE
  6
CONTINUOUS
 62
     4
 10
-142.5
 20
174.0000279999999
 30
0.0
 11
-161.8823940000002
 21
208.99035299999991
 31
0.0
  0
LINE
  8
SIZE
  6
CONTINUOUS
 62
    30
 10
17.0
 20
299.00013538981972
 30
0.0
 11
5.0
 21
299.00013538981972
 31
0.0
  0
CIRCLE
  8
SIZE
  6
CONTINUOUS
 62
    30
 10
17.0
 20
299.00013538981972
 30
0.0
 40
6.0
  0
LINE
  8
SIZE
  6
CONTINUOUS
 62
    30
 10
105.0
 20
435.28815581804201
 30
0.0
 11
93.0
 21
435.28815581804201
 31
0.0
  0
CIRCLE
  8
SIZE
  6
CONTINUOUS
 62
    30
 10
105.0
 20
435.28815581804201
 30
0.0
 40
6.0
  0
LINE
  8
SIZE
  6
CONTINUOUS
 62
    30
 10
142.5
 20
562.62909681804172
 30
0.0
 11
130.49999999999949
 21
562.62909681804172
 31
0.0
  0
CIRCLE
  8
SIZE
  6
CONTINUOUS
 62
    30
 10
142.5
 20
562.62909681804172
 30
0.0
 40
6.0
  0
LINE
  8
SIZE
  6
CONTINUOUS
 62
    30
 10
-213.18339176982681
 20
0.0
 30
0.0
 11
-360.68051929843222
 21
0.0
 31
0.0
  0
LINE
  8
SIZE
  6
CONTINUOUS
 62
    30
 10
-182.5
 20
174.0000279999999
 30
0.0
 11
-360.68051929843199
 21
174.0000279999999
 31
0.0
  0
LINE
  8
SIZE
  6
CONTINUOUS
 62
    30
 10
-340.6805192984321
 20
-12.0
 30
0.0
 11
-340.6805192984321
 21
-24.0
 31
0.0
  0
LINE
  8
SIZE
  6
CONTINUOUS
 62
    30
 10
-340.68051929843199
 20
186.0000279999999
 30
0.0
 11
-340.68051929843199
 21
198.0000279999999
 31
0.0
  0
LINE
  8
SIZE
  6
CONTINUOUS
 62
    30
 10
-340.6805192984321
 20
0.0
 30
0.0
 11
-340.68051929843199
 21
174.0000279999999
 31
0.0
  0
CIRCLE
  8
SIZE
  6
CONTINUOUS
 62
    30
 10
-340.6805192984321
 20
0.0
 30
0.0
 40
6.0
  0
LINE
  8
SIZE
  6
CONTINUOUS
 62
    30
 10
-340.6805192984321
 20
0.0
 30
0.0
 11
-340.6805192984321
 21
-12.0
 31
0.0
  0
CIRCLE
  8
SIZE
  6
CONTINUOUS
 62
    30
 10
-340.68051929843199
 20
174.0000279999999
 30
0.0
 40
6.0
  0
LINE
  8
SIZE
  6
CONTINUOUS
 62
    30
 10
-340.68051929843199
 20
174.0000279999999
 30
0.0
 11
-340.68051929843199
 21
186.0000279999999
 31
0.0
  0
TEXT
  8
SIZE
  6
CONTINUOUS
 62
    30
 10
-365.68051929843222
 20
17.057156857142829
 30
0.0
 40
64.0
  1
174
 50
90.0
 41
0.9
 72
     1
 11
-365.68051929843222
 21
87.000013999999965
 31
0.0
  0
POINT
  8
DEFPOINTS
  6
CONTINUOUS
 62
    30
 10
-193.18339176982681
 20
0.0
 30
0.0
  0
POINT
  8
DEFPOINTS
  6
CONTINUOUS
 62
    30
 10
-162.5
 20
174.0000279999999
 30
0.0
  0
POINT
  8
DEFPOINTS
  6
CONTINUOUS
 62
    30
 10
-340.68051929843199
 20
174.0000279999999
 30
0.0
  0
ENDSEC
  0
EOF
