  0
SECTION
  2
HEADER
  9
$ACADVER
  1
AC1009
  9
$DWGCODEPAGE
  3
dos932
  9
$INSBASE
 10
0.0
 20
0.0
 30
0.0
  9
$EXTMIN
 10
-724.19126773508287
 20
-549.86571107276905
 30
-0.0015258207003583
  9
$EXTMAX
 10
1034.6237298387821
 20
814.22425144610861
 30
0.0000000349246037
  9
$LIMMIN
 10
-2970.0
 20
-2100.0
  9
$LIMMAX
 10
2970.0
 20
2100.0
  9
$ORTHOMODE
 70
     1
  9
$REGENMODE
 70
     1
  9
$FILLMODE
 70
     1
  9
$QTEXTMODE
 70
     0
  9
$MIRRTEXT
 70
     0
  9
$LTSCALE
 40
20.0
  9
$ATTMODE
 70
     1
  9
$TEXTSIZE
 40
64.0
  9
$TRACEWID
 40
0.05
  9
$TEXTSTYLE
  7
STANDARD
  9
$CLAYER
  8
SIZE
  9
$CELTYPE
  6
CONTINUOUS
  9
$CECOLOR
 62
     7
  9
$DIMSCALE
 40
1.0
  9
$DIMASZ
 40
12.0
  9
$DIMEXO
 40
20.0
  9
$DIMDLI
 40
200.0
  9
$DIMRND
 40
0.0
  9
$DIMDLE
 40
0.0
  9
$DIMEXE
 40
20.0
  9
$DIMTP
 40
0.0
  9
$DIMTM
 40
0.0
  9
$DIMTXT
 40
64.0
  9
$DIMCEN
 40
0.09
  9
$DIMTSZ
 40
0.0
  9
$DIMTOL
 70
     0
  9
$DIMLIM
 70
     0
  9
$DIMTIH
 70
     0
  9
$DIMTOH
 70
     0
  9
$DIMSE1
 70
     0
  9
$DIMSE2
 70
     0
  9
$DIMTAD
 70
     1
  9
$DIMZIN
 70
     8
  9
$DIMBLK
  1

  9
$DIMASO
 70
     1
  9
$DIMSHO
 70
     0
  9
$DIMPOST
  1

  9
$DIMAPOST
  1

  9
$DIMALT
 70
     0
  9
$DIMALTD
 70
     2
  9
$DIMALTF
 40
25.399999999999999
  9
$DIMLFAC
 40
1.0
  9
$DIMTOFL
 70
     1
  9
$DIMTVP
 40
0.0
  9
$DIMTIX
 70
     1
  9
$DIMSOXD
 70
     0
  9
$DIMSAH
 70
     0
  9
$DIMBLK1
  1

  9
$DIMBLK2
  1

  9
$DIMSTYLE
  2
STANDARD
  9
$DIMCLRD
 70
     7
  9
$DIMCLRE
 70
     7
  9
$DIMCLRT
 70
     7
  9
$DIMTFAC
 40
1.0
  9
$DIMGAP
 40
25.0
  9
$LUNITS
 70
     2
  9
$LUPREC
 70
     4
  9
$SKETCHINC
 40
0.1
  9
$FILLETRAD
 40
3.0
  9
$AUNITS
 70
     1
  9
$AUPREC
 70
     3
  9
$MENU
  1
ACAD
  9
$ELEVATION
 40
0.0
  9
$PELEVATION
 40
0.0
  9
$THICKNESS
 40
0.0
  9
$LIMCHECK
 70
     0
  9
$CHAMFERA
 40
0.0
  9
$CHAMFERB
 40
0.0
  9
$SKPOLY
 70
     0
  9
$TDCREATE
 40
2453019.62301037
  9
$TDUPDATE
 40
2459025.503967025
  9
$TDINDWG
 40
1.7135345023
  9
$TDUSRTIMER
 40
1.7135345023
  9
$USRTIMER
 70
     1
  9
$ANGBASE
 50
0.0
  9
$ANGDIR
 70
     0
  9
$PDMODE
 70
     3
  9
$PDSIZE
 40
-2.0
  9
$PLINEWID
 40
0.0
  9
$SPLFRAME
 70
     0
  9
$SPLINETYPE
 70
     6
  9
$SPLINESEGS
 70
     8
  9
$SURFTAB1
 70
     6
  9
$SURFTAB2
 70
     6
  9
$SURFTYPE
 70
     6
  9
$SURFU
 70
     6
  9
$SURFV
 70
     6
  9
$UCSNAME
  2

  9
$UCSORG
 10
0.0
 20
0.0
 30
0.0
  9
$UCSXDIR
 10
1.0
 20
0.0
 30
0.0
  9
$UCSYDIR
 10
0.0
 20
1.0
 30
0.0
  9
$PUCSNAME
  2

  9
$PUCSORG
 10
0.0
 20
0.0
 30
0.0
  9
$PUCSXDIR
 10
1.0
 20
0.0
 30
0.0
  9
$PUCSYDIR
 10
0.0
 20
1.0
 30
0.0
  9
$USERI1
 70
     0
  9
$USERI2
 70
     0
  9
$USERI3
 70
     0
  9
$USERI4
 70
     0
  9
$USERI5
 70
     0
  9
$USERR1
 40
20.0
  9
$USERR2
 40
0.0
  9
$USERR3
 40
0.0
  9
$USERR4
 40
0.0
  9
$USERR5
 40
0.0
  9
$WORLDVIEW
 70
     1
  9
$SHADEDGE
 70
     3
  9
$SHADEDIF
 70
    70
  9
$TILEMODE
 70
     1
  9
$MAXACTVP
 70
    48
  9
$PINSBASE
 10
0.0
 20
0.0
 30
0.0
  9
$PLIMCHECK
 70
     0
  9
$PEXTMIN
 10
-100000000000000000000.0
 20
-100000000000000000000.0
 30
-100000000000000000000.0
  9
$PEXTMAX
 10
100000000000000000000.0
 20
100000000000000000000.0
 30
100000000000000000000.0
  9
$PLIMMIN
 10
0.0
 20
0.0
  9
$PLIMMAX
 10
12.0
 20
9.0
  9
$UNITMODE
 70
     0
  9
$VISRETAIN
 70
     0
  9
$PLINEGEN
 70
     0
  9
$PSLTSCALE
 70
     0
  9
$TREEDEPTH
 70
  3020
  9
$ATTDIA
 70
     0
  9
$ATTREQ
 70
     1
  9
$BLIPMODE
 70
     1
  9
$COORDS
 70
     1
  9
$DRAGMODE
 70
     2
  9
$OSMODE
 70
     0
  9
$HANDLING
 70
     0
  9
$HANDSEED
  5
F109
  0
ENDSEC
  0
SECTION
  2
TABLES
  0
TABLE
  2
LTYPE
 70
     2
  0
LTYPE
  2
CONTINUOUS
 70
     0
  3
実線
 72
    65
 73
     0
 40
0.0
  0
LTYPE
  2
DASHDOT
 70
     0
  3
____ _ ____ _ ____ _ ____ _ ____ _ ____ _ ____
 72
    65
 73
     4
 40
5.5
 49
4.0
 49
-0.6
 49
0.3
 49
-0.6
  0
ENDTAB
  0
TABLE
  2
LAYER
 70
    12
  0
LAYER
  2
0
 70
     0
 62
     7
  6
CONTINUOUS
  0
LAYER
  2
BASIS
 70
     0
 62
     6
  6
DASHDOT
  0
LAYER
  2
OUTLINE
 70
     0
 62
     3
  6
CONTINUOUS
  0
LAYER
  2
DETAIL
 70
     0
 62
     5
  6
CONTINUOUS
  0
LAYER
  2
SIZE
 70
     0
 62
    30
  6
CONTINUOUS
  0
LAYER
  2
ARRANGE
 70
     0
 62
     1
  6
CONTINUOUS
  0
LAYER
  2
DEFPOINTS
 70
     0
 62
     7
  6
CONTINUOUS
  0
LAYER
  2
ETC
 70
     0
 62
    61
  6
CONTINUOUS
  0
LAYER
  2
FIX
 70
     0
 62
    11
  6
CONTINUOUS
  0
LAYER
  2
NOTE
 70
     0
 62
     4
  6
CONTINUOUS
  0
LAYER
  2
SERVICESPACE
 70
    64
 62
     2
  6
DASHDOT
  0
LAYER
  2
SYMBOLLINE
 70
    64
 62
    15
  6
CONTINUOUS
  0
ENDTAB
  0
TABLE
  2
STYLE
 70
     1
  0
STYLE
  2
STANDARD
 70
     0
 40
64.0
 41
0.9
 50
0.0
 71
     0
 42
64.0
  3
SIMPLEX.shx
  4
BIGFONT.shx
  0
ENDTAB
  0
TABLE
  2
APPID
 70
    19
  0
APPID
  2
ACAD
 70
     0
  0
APPID
  2
AUTOCAD_POSTSCRIPT_FIGURE
 70
     0
  0
APPID
  2
ACAD_EXEMPT_FROM_CAD_STANDARDS
 70
     0
  0
APPID
  2
ACAD_PSEXT
 70
     0
  0
APPID
  2
ACAUTHENVIRON
 70
     0
  0
APPID
  2
GENIUS_GENOENT_13
 70
     0
  0
APPID
  2
GENIUS_GENCFG_13
 70
     0
  0
APPID
  2
GENIUS_GENCFG0_13
 70
     0
  0
APPID
  2
GENIUS_GENCFG1_13
 70
     0
  0
APPID
  2
GENIUS_GENCFG2_13
 70
     0
  0
APPID
  2
GENIUS_GENCFG3_13
 70
     0
  0
APPID
  2
GENIUS_GENCFG4_13
 70
     0
  0
APPID
  2
GENIUS_GEVCFG0_13
 70
     0
  0
APPID
  2
CONTENTBLOCKICON
 70
     0
  0
APPID
  2
CONTENTBLOCKDESCRIPTION
 70
     0
  0
APPID
  2
ACAD_NAV_VCDISPLAY
 70
     0
  0
APPID
  2
ACAD_MLEADERVER
 70
     0
  0
APPID
  2
ACDBDYNAMICBLOCKTRUENAME
 70
     0
  0
APPID
  2
ACDBDYNAMICBLOCKGUID
 70
     0
  0
ENDTAB
  0
TABLE
  2
DIMSTYLE
 70
     1
  0
DIMSTYLE
  2
STANDARD
 70
     0
  3

  4

  5
_ORIGIN
  6

  7

 40
1.0
 41
12.0
 42
20.0
 43
200.0
 44
20.0
 45
0.0
 46
0.0
 47
0.0
 48
0.0
140
64.0
141
0.09
142
0.0
143
25.399999999999999
144
1.0
145
0.0
146
1.0
147
25.0
 71
     0
 72
     0
 73
     0
 74
     0
 75
     0
 76
     0
 77
     1
 78
     8
170
     0
171
     2
172
     1
173
     0
174
     1
175
     0
176
     7
177
     7
178
     7
  0
ENDTAB
  0
TABLE
  2
VIEW
 70
     1
  0
VIEW
  2
ALL
 70
     0
 40
4282.6198079999986
 10
0.0
 20
41.309904000000003
 41
5940.0
 11
0.0
 21
0.0
 31
1.0
 12
0.0
 22
0.0
 32
0.0
 42
50.0
 43
0.0
 44
0.0
 50
0.0
 71
     0
  0
ENDTAB
  0
TABLE
  2
UCS
 70
     0
  0
ENDTAB
  0
TABLE
  2
VPORT
 70
     1
  0
VPORT
  2
*ACTIVE
 70
     0
 10
0.0
 20
0.0
 11
1.0
 21
1.0
 12
155.2162310518498
 22
132.17927018666981
 13
0.0
 23
0.0
 14
1.0
 24
1.0
 15
0.0
 25
0.0
 16
0.0
 26
0.0
 36
1.0
 17
0.0
 27
0.0
 37
0.0
 40
1373.1336528781189
 41
1.747787610619469
 42
50.0
 43
0.0
 44
0.0
 50
0.0
 51
0.0
 71
     0
 72
  1000
 73
     1
 74
     3
 75
     0
 76
     0
 77
     0
 78
     0
  0
ENDTAB
  0
ENDSEC
  0
SECTION
  2
BLOCKS
  0
BLOCK
  8
0
  2
_ORIGIN
 70
     0
 10
0.0
 20
0.0
 30
0.0
  3
_ORIGIN
  1
_ORIGIN
  0
CIRCLE
  8
0
  6
CONTINUOUS
 62
     7
 10
0.0
 20
0.0
 30
0.0
 40
0.5
  0
LINE
  8
0
  6
CONTINUOUS
 62
     7
 10
0.0
 20
0.0
 30
0.0
 11
-1.0
 21
0.0
 31
0.0
  0
ENDBLK
  8
0
  0
ENDSEC
  0
SECTION
  2
ENTITIES
  0
TEXT
  8
ETC
  6
CONTINUOUS
 62
    61
 10
302.18865625052598
 20
739.24741723439388
 30
0.0
 40
64.0
  1
VD-15ZVX6-X_2
 41
0.9
  0
TEXT
  8
ETC
  6
CONTINUOUS
 62
    61
 10
298.00266225052559
 20
621.29210721956269
 30
0.0
 40
64.0
  1
換気扇
 41
0.9
  0
TEXT
  8
ETC
  6
CONTINUOUS
 62
    61
 10
348.70406049908161
 20
513.14333433333741
 30
0.0
 40
40.0
  1
VD-15ZVX6-X
 41
0.9
  0
POINT
  8
ARRANGE
  6
CONTINUOUS
 62
     1
 10
0.0
 20
0.0
 30
0.0
  0
LINE
  8
OUTLINE
  6
CONTINUOUS
 62
     3
 10
153.99999699999989
 20
0.0
 30
0.0
 11
0.0
 21
0.0
 31
0.0
  0
LINE
  8
OUTLINE
  6
CONTINUOUS
 62
     3
 10
-167.5
 20
0.0
 30
0.0
 11
167.5
 21
0.0
 31
0.0
  0
LINE
  8
OUTLINE
  6
CONTINUOUS
 62
     3
 10
89.832159566199152
 20
166.0000279999999
 30
0.0
 11
125.5
 21
166.0000279999999
 31
0.0
  0
LINE
  8
BASIS
  6
DASHDOT
 62
     6
 10
97.619952000000012
 20
111.0
 30
0.0
 11
-94.187297999999828
 21
111.0
 31
0.0
  0
LINE
  8
DETAIL
  6
CONTINUOUS
 62
     5
 10
-90.616785069095386
 20
-13.0
 30
0.0
 11
90.616785069095386
 21
-13.0
 31
0.0
  0
LINE
  8
DETAIL
  6
CONTINUOUS
 62
     5
 10
-167.5
 20
-7.0
 30
0.0
 11
167.5
 21
-7.0
 31
0.0
  0
LINE
  8
DETAIL
  6
CONTINUOUS
 62
     5
 10
89.945888816373554
 20
-20.0
 30
0.0
 11
0.0
 21
-20.0
 31
0.0
  0
LINE
  8
DETAIL
  6
CONTINUOUS
 62
     5
 10
153.99999699999989
 20
0.0
 30
0.0
 11
0.0
 21
0.0
 31
0.0
  0
LINE
  8
DETAIL
  6
CONTINUOUS
 62
     5
 10
-167.5
 20
0.0
 30
0.0
 11
167.5
 21
0.0
 31
0.0
  0
LINE
  8
DETAIL
  6
CONTINUOUS
 62
     5
 10
2.994555000000219
 20
151.18672199999989
 30
0.0
 11
-8.3949149999998554
 21
157.76243600000001
 31
0.0
  0
LINE
  8
DETAIL
  6
CONTINUOUS
 62
     5
 10
2.1157519999997021
 20
153.0797400000001
 30
0.0
 11
-7.2888210000000981
 21
158.5094730000001
 31
0.0
  0
LINE
  8
DETAIL
  6
CONTINUOUS
 62
     5
 10
3.353530000000319
 20
153.80848400000011
 30
0.0
 11
-7.2992500000000291
 21
159.95886999999991
 31
0.0
  0
LINE
  8
DETAIL
  6
CONTINUOUS
 62
     5
 10
0.3224410000002536
 20
155.55848400000011
 30
0.0
 11
-0.0525589999997464
 21
154.90896500000011
 31
0.0
  0
LINE
  8
DETAIL
  6
CONTINUOUS
 62
     5
 10
3.4776970000002621
 20
156.623548
 30
0.0
 11
-3.071320999999898
 21
160.4046250000001
 31
0.0
  0
ARC
  8
DETAIL
  6
CONTINUOUS
 62
     5
 10
4.3450539999998909
 20
73.24923200000012
 30
0.0
 40
10.0
 50
239.9999999999994
 51
276.56576200000501
  0
CIRCLE
  8
DETAIL
  6
CONTINUOUS
 62
     5
 10
0.0
 20
111.0
 30
0.0
 40
47.0
  0
LINE
  8
DETAIL
  6
CONTINUOUS
 62
     5
 10
26.830127000000179
 20
147.47114300000001
 30
0.0
 11
-18.08005299999968
 21
69.68443000000002
 31
0.0
  0
CIRCLE
  8
DETAIL
  6
CONTINUOUS
 62
     5
 10
0.0
 20
111.0
 30
0.0
 40
49.0
  0
CIRCLE
  8
DETAIL
  6
CONTINUOUS
 62
     5
 10
0.0
 20
111.0
 30
0.0
 40
52.5
  0
LINE
  8
DETAIL
  6
CONTINUOUS
 62
     5
 10
39.5
 20
178.05442799999989
 30
0.0
 11
-39.5
 21
178.05442799999989
 31
0.0
  0
TEXT
  8
SIZE
  6
CONTINUOUS
 62
    30
 10
-110.5371428571429
 20
-504.75024190299291
 30
0.0
 40
64.0
  1
□335
 41
0.9
 72
     1
 11
0.0
 21
-504.75024190299291
 31
0.0
  0
LINE
  8
SIZE
  6
CONTINUOUS
 62
    30
 10
155.5
 20
-529.75024190299291
 30
0.0
 11
-155.5
 21
-529.75024190299291
 31
0.0
  0
LINE
  8
DETAIL
  6
CONTINUOUS
 62
     5
 10
-11.93999799999983
 20
201.97611200000009
 30
0.0
 11
24.000001999999771
 21
201.97611200000009
 31
0.0
  0
LINE
  8
DETAIL
  6
CONTINUOUS
 62
     5
 10
24.000001999999771
 20
204.0000279999999
 30
0.0
 11
-5.4689509999998336
 21
204.0000279999999
 31
0.0
  0
LINE
  8
SIZE
  6
CONTINUOUS
 62
    30
 10
-5.0
 20
324.10137915315232
 30
0.0
 11
53.000001999999768
 21
324.10137915315232
 31
0.0
  0
TEXT
  8
SIZE
  6
CONTINUOUS
 62
    30
 10
-98.194285714285726
 20
604.09684945097979
 30
0.0
 40
64.0
  1
□251
 41
0.9
 72
     1
 11
0.0
 21
604.09684945097979
 31
0.0
  0
LINE
  8
SIZE
  6
CONTINUOUS
 62
    30
 10
-113.5
 20
580.83138119703108
 30
0.0
 11
113.5
 21
580.83138119703108
 31
0.0
  0
TEXT
  8
SIZE
  6
CONTINUOUS
 62
    30
 10
-68.571428571428555
 20
504.00211302261317
 30
0.0
 40
64.0
  1
210
 41
0.9
 72
     1
 11
0.0
 21
504.00211302261317
 31
0.0
  0
LINE
  8
SIZE
  6
CONTINUOUS
 62
    30
 10
93.0
 20
479.00211302261317
 30
0.0
 11
-93.0
 21
479.00211302261317
 31
0.0
  0
LINE
  8
DETAIL
  6
CONTINUOUS
 62
     5
 10
78.0
 20
180.0000279999999
 30
0.0
 11
-92.0
 21
180.0000279999999
 31
0.0
  0
LINE
  8
DETAIL
  6
CONTINUOUS
 62
     5
 10
39.5
 20
44.054427999999923
 30
0.0
 11
0.0
 21
44.054427999999923
 31
0.0
  0
TEXT
  8
SIZE
  6
CONTINUOUS
 62
    30
 10
-74.057142857142821
 20
750.0773062890039
 30
0.0
 40
64.0
  1
285
 41
0.9
 72
     1
 11
0.0
 21
750.0773062890039
 31
0.0
  0
LINE
  8
SIZE
  6
CONTINUOUS
 62
    30
 10
130.5
 20
725.0773062890039
 30
0.0
 11
-130.5
 21
725.0773062890039
 31
0.0
  0
CIRCLE
  8
ARRANGE
  6
CONTINUOUS
 62
     1
 10
0.0
 20
0.0
 30
0.0
 40
40.0
  0
TEXT
  8
SIZE
  6
CONTINUOUS
 62
    30
 10
-79.803834857142547
 20
-372.52803690299288
 30
0.0
 40
64.0
  1
283
 41
0.9
 72
     1
 11
-5.7466919999997117
 21
-372.52803690299288
 31
0.0
  0
LINE
  8
SIZE
  6
CONTINUOUS
 62
    30
 10
-129.5
 20
-397.52803690299288
 30
0.0
 11
129.5
 21
-397.52803690299288
 31
0.0
  0
TEXT
  8
SIZE
  6
CONTINUOUS
 62
    30
 10
-68.571428571428569
 20
-229.74365900000001
 30
0.0
 40
64.0
  1
170
 41
0.9
 72
     1
 11
0.0
 21
-229.74365900000001
 31
0.0
  0
LINE
  8
SIZE
  6
CONTINUOUS
 62
    30
 10
-73.0
 20
-254.74365900000001
 30
0.0
 11
73.0
 21
-254.74365900000001
 31
0.0
  0
TEXT
  8
NOTE
  6
CONTINUOUS
 62
     4
 10
-44.518823999999768
 20
71.719012000000021
 30
0.0
 40
64.0
  1
EA
 41
0.9
  0
LINE
  8
DETAIL
  6
CONTINUOUS
 62
     5
 10
0.0
 20
55.054427999999923
 30
0.0
 11
45.0
 21
55.054427999999923
 31
0.0
  0
LINE
  8
DETAIL
  6
CONTINUOUS
 62
     5
 10
0.0
 20
166.05442799999989
 30
0.0
 11
45.0
 21
166.05442799999989
 31
0.0
  0
LINE
  8
OUTLINE
  6
CONTINUOUS
 62
     3
 10
-125.5
 20
166.0000279999999
 30
0.0
 11
-125.5
 21
0.0
 31
0.0
  0
LINE
  8
SIZE
  6
CONTINUOUS
 62
    30
 10
-481.61351179652411
 20
0.0
 30
0.0
 11
-481.61351179652411
 21
12.0
 31
0.0
  0
CIRCLE
  8
SIZE
  6
CONTINUOUS
 62
    30
 10
-481.61351179652411
 20
0.0
 30
0.0
 40
6.0
  0
LINE
  8
NOTE
  6
CONTINUOUS
 62
     4
 10
-141.5
 20
-20.0
 30
0.0
 11
-141.5
 21
20.0
 31
0.0
  0
CIRCLE
  8
FIX
  6
CONTINUOUS
 62
    11
 10
-141.5
 20
0.0
 30
0.0
 40
2.5
  0
CIRCLE
  8
FIX
  6
CONTINUOUS
 62
    11
 10
-85.0
 20
0.0
 30
0.0
 40
2.5
  0
LINE
  8
NOTE
  6
CONTINUOUS
 62
     4
 10
-85.0
 20
-20.0
 30
0.0
 11
-85.0
 21
20.0
 31
0.0
  0
LINE
  8
DETAIL
  6
CONTINUOUS
 62
     5
 10
-125.5
 20
174.0000279999999
 30
0.0
 11
-125.5
 21
0.0
 31
0.0
  0
LINE
  8
NOTE
  6
CONTINUOUS
 62
     4
 10
-141.5
 20
0.0544279999999162
 30
0.0
 11
-167.42107899999971
 21
-30.41026699999998
 31
0.0
  0
LINE
  8
NOTE
  6
CONTINUOUS
 62
     4
 10
-148.7159649999999
 20
-39.289312000000002
 30
0.0
 11
-141.5
 21
0.0544279999999162
 31
0.0
  0
LINE
  8
NOTE
  6
CONTINUOUS
 62
     4
 10
-141.5
 20
0.0544279999999162
 30
0.0
 11
-289.71553300000011
 21
-321.68111900000008
 31
0.0
  0
LINE
  8
BASIS
  6
DASHDOT
 62
     6
 10
0.0
 20
222.01639
 30
0.0
 11
0.0
 21
-58.610777999999982
 31
0.0
  0
LINE
  8
DETAIL
  6
CONTINUOUS
 62
     5
 10
-62.0
 20
-13.0
 30
0.0
 11
-62.0
 21
-7.0
 31
0.0
  0
LINE
  8
DETAIL
  6
CONTINUOUS
 62
     5
 10
-57.0
 20
-13.0
 30
0.0
 11
-57.0
 21
-7.0
 31
0.0
  0
LINE
  8
DETAIL
  6
CONTINUOUS
 62
     5
 10
-167.5
 20
0.0
 30
0.0
 11
-167.5
 21
-7.0
 31
0.0
  0
CIRCLE
  8
SIZE
  6
CONTINUOUS
 62
    30
 10
-167.5
 20
-529.75024190299291
 30
0.0
 40
6.0
  0
LINE
  8
SIZE
  6
CONTINUOUS
 62
    30
 10
-167.5
 20
-20.0
 30
0.0
 11
-167.5
 21
-549.75024190299291
 31
0.0
  0
LINE
  8
SIZE
  6
CONTINUOUS
 62
    30
 10
-167.5
 20
-529.75024190299291
 30
0.0
 11
-155.5
 21
-529.75024190299291
 31
0.0
  0
TEXT
  8
NOTE
  6
CONTINUOUS
 62
     4
 10
-688.76618900000017
 20
-285.905573
 30
0.0
 40
64.0
  1
8-φ5×8
 41
0.9
  0
LINE
  8
NOTE
  6
CONTINUOUS
 62
     4
 10
-289.71553300000011
 20
-321.68111900000008
 30
0.0
 11
-723.73824800000011
 21
-321.68111900000008
 31
0.0
  0
LINE
  8
SIZE
  6
CONTINUOUS
 62
    30
 10
-125.5
 20
19.94557199999997
 30
0.0
 11
-125.5
 21
600.83138119703108
 31
0.0
  0
LINE
  8
SIZE
  6
CONTINUOUS
 62
    30
 10
-141.5
 20
-40.0
 30
0.0
 11
-141.5
 21
-417.52803690299288
 31
0.0
  0
LINE
  8
SIZE
  6
CONTINUOUS
 62
    30
 10
-141.5
 20
-397.52803690299288
 30
0.0
 11
-129.5
 21
-397.52803690299288
 31
0.0
  0
CIRCLE
  8
SIZE
  6
CONTINUOUS
 62
    30
 10
-141.5
 20
-397.52803690299288
 30
0.0
 40
6.0
  0
LINE
  8
SIZE
  6
CONTINUOUS
 62
    30
 10
-125.5
 20
580.83138119703108
 30
0.0
 11
-113.5
 21
580.83138119703108
 31
0.0
  0
CIRCLE
  8
SIZE
  6
CONTINUOUS
 62
    30
 10
-125.5
 20
580.83138119703108
 30
0.0
 40
6.0
  0
LINE
  8
SIZE
  6
CONTINUOUS
 62
    30
 10
-185.02739100000011
 20
0.0
 30
0.0
 11
-501.61351179652411
 21
0.0
 31
0.0
  0
TEXT
  8
SIZE
  6
CONTINUOUS
 62
    30
 10
-506.61351179652411
 20
1.9948214580264221
 30
0.0
 40
64.0
  1
111
 50
90.0
 41
0.9
 72
     1
 11
-506.61351179652411
 21
52.737678600883562
 31
0.0
  0
LINE
  8
SIZE
  6
CONTINUOUS
 62
    30
 10
-85.0
 20
-40.0
 30
0.0
 11
-85.0
 21
-274.74365899999998
 31
0.0
  0
LINE
  8
SIZE
  6
CONTINUOUS
 62
    30
 10
-85.0
 20
-254.74365900000001
 30
0.0
 11
-73.0
 21
-254.74365900000001
 31
0.0
  0
CIRCLE
  8
SIZE
  6
CONTINUOUS
 62
    30
 10
-85.0
 20
-254.74365900000001
 30
0.0
 40
6.0
  0
LINE
  8
OUTLINE
  6
CONTINUOUS
 62
     3
 10
-153.99999699999989
 20
0.0
 30
0.0
 11
0.0
 21
0.0
 31
0.0
  0
LINE
  8
DETAIL
  6
CONTINUOUS
 62
     5
 10
-153.99999699999989
 20
0.0
 30
0.0
 11
0.0
 21
0.0
 31
0.0
  0
LINE
  8
DETAIL
  6
CONTINUOUS
 62
     5
 10
-167.5
 20
-0.8571230000000014
 30
0.0
 11
-167.5
 21
0.0
 31
0.0
  0
LINE
  8
NOTE
  6
CONTINUOUS
 62
     4
 10
-161.5
 20
0.0
 30
0.0
 11
-121.5
 21
0.0
 31
0.0
  0
LINE
  8
DETAIL
  6
CONTINUOUS
 62
     5
 10
-89.945888816373554
 20
-20.0
 30
0.0
 11
0.0
 21
-20.0
 31
0.0
  0
LINE
  8
NOTE
  6
CONTINUOUS
 62
     4
 10
-105.0
 20
0.0
 30
0.0
 11
-65.0
 21
0.0
 31
0.0
  0
TEXT
  8
NOTE
  6
CONTINUOUS
 62
     4
 10
210.37060978196399
 20
275.93369548846613
 30
0.0
 40
64.0
  1
AH 2
 41
0.9
  0
LINE
  8
NOTE
  6
CONTINUOUS
 62
     4
 10
196.82952233036849
 20
260.43882100235942
 30
0.0
 11
438.39213015592992
 21
260.43882100235942
 31
0.0
  0
LINE
  8
SIZE
  6
CONTINUOUS
 62
    30
 10
-105.0
 20
214.05442799999989
 30
0.0
 11
-105.0
 21
499.00211302261317
 31
0.0
  0
LINE
  8
SIZE
  6
CONTINUOUS
 62
    30
 10
-142.5
 20
214.75058200000009
 30
0.0
 11
-142.5
 21
745.0773062890039
 31
0.0
  0
LINE
  8
SIZE
  6
CONTINUOUS
 62
    30
 10
-17.0
 20
214.39442800000009
 30
0.0
 11
-17.0
 21
344.10137915315232
 31
0.0
  0
LINE
  8
NOTE
  6
CONTINUOUS
 62
     4
 10
142.55077475943219
 20
174.01955448981769
 30
0.0
 11
196.82952233036849
 21
260.43882100235942
 31
0.0
  0
LINE
  8
SIZE
  6
CONTINUOUS
 62
    30
 10
-114.1872979999998
 20
111.0
 30
0.0
 11
-501.61351179652411
 21
111.0
 31
0.0
  0
LINE
  8
SIZE
  6
CONTINUOUS
 62
    30
 10
-481.61351179652411
 20
99.0
 30
0.0
 11
-481.61351179652411
 21
12.0
 31
0.0
  0
LINE
  8
SIZE
  6
CONTINUOUS
 62
    30
 10
-481.61351179652411
 20
111.0
 30
0.0
 11
-481.61351179652411
 21
99.0
 31
0.0
  0
CIRCLE
  8
SIZE
  6
CONTINUOUS
 62
    30
 10
-481.61351179652411
 20
111.0
 30
0.0
 40
6.0
  0
LINE
  8
DETAIL
  6
CONTINUOUS
 62
     5
 10
-129.0
 20
170.5000279999999
 30
0.0
 11
-129.0
 21
22.55442799999992
 31
0.0
  0
ARC
  8
DETAIL
  6
CONTINUOUS
 62
     5
 10
-39.5
 20
143.05442799999989
 30
0.0
 40
35.0
 50
90.0
 51
180.0
  0
LINE
  8
DETAIL
  6
CONTINUOUS
 62
     5
 10
-122.5
 20
174.0000279999999
 30
0.0
 11
-122.5
 21
119.5544279999999
 31
0.0
  0
LINE
  8
DETAIL
  6
CONTINUOUS
 62
     5
 10
-87.5
 20
174.0000279999999
 30
0.0
 11
-87.5
 21
119.5544279999999
 31
0.0
  0
LINE
  8
NOTE
  6
CONTINUOUS
 62
     4
 10
-142.5
 20
154.0000279999999
 30
0.0
 11
-142.5
 21
194.0000279999999
 31
0.0
  0
ARC
  8
DETAIL
  6
CONTINUOUS
 62
     5
 10
-45.0
 20
148.05442799999989
 30
0.0
 40
18.0
 50
90.0
 51
180.0
  0
LINE
  8
NOTE
  6
CONTINUOUS
 62
     4
 10
-105.0
 20
154.0000279999999
 30
0.0
 11
-105.0
 21
194.0000279999999
 31
0.0
  0
LINE
  8
DETAIL
  6
CONTINUOUS
 62
     5
 10
-87.5
 20
119.5544279999999
 30
0.0
 11
-122.5
 21
119.5544279999999
 31
0.0
  0
LINE
  8
DETAIL
  6
CONTINUOUS
 62
     5
 10
-125.5
 20
22.55442799999992
 30
0.0
 11
-129.0
 21
22.55442799999992
 31
0.0
  0
ARC
  8
DETAIL
  6
CONTINUOUS
 62
     5
 10
-34.923393999999917
 20
81.510907999999972
 30
0.0
 40
2.0
 50
150.0000000000025
 51
239.9999999999994
  0
LINE
  8
DETAIL
  6
CONTINUOUS
 62
     5
 10
-90.0
 20
119.5544279999999
 30
0.0
 11
-90.0
 21
0.0000279999999293
 31
0.0
  0
LINE
  8
DETAIL
  6
CONTINUOUS
 62
     5
 10
-74.5
 20
79.054427999999916
 30
0.0
 11
-74.5
 21
143.05442799999989
 31
0.0
  0
LINE
  8
DETAIL
  6
CONTINUOUS
 62
     5
 10
-63.0
 20
74.054427999999916
 30
0.0
 11
-63.0
 21
148.05442799999989
 31
0.0
  0
ARC
  8
DETAIL
  6
CONTINUOUS
 62
     5
 10
-39.5
 20
79.054427999999916
 30
0.0
 40
35.0
 50
180.0
 51
270.0
  0
ARC
  8
DETAIL
  6
CONTINUOUS
 62
     5
 10
-44.123278999999911
 20
73.911321000000044
 30
0.0
 40
18.877262999999999
 50
179.56564199999829
 51
267.33804200000822
  0
LINE
  8
DETAIL
  6
CONTINUOUS
 62
     5
 10
-18.887311999999842
 20
69.943070000000034
 30
0.0
 11
-35.923393999999917
 21
79.778857000000016
 31
0.0
  0
ARC
  8
DETAIL
  6
CONTINUOUS
 62
     5
 10
-12.3334560000003
 20
69.022167999999965
 30
0.0
 40
2.0
 50
59.99999999999946
 51
104.9999999999945
  0
LINE
  8
DETAIL
  6
CONTINUOUS
 62
     5
 10
-11.3334560000003
 20
70.754218000000037
 30
0.0
 11
-0.6549460000001091
 21
64.588977999999997
 31
0.0
  0
ARC
  8
DETAIL
  6
CONTINUOUS
 62
     5
 10
-17.887311999999842
 20
71.67512099999999
 30
0.0
 40
2.0
 50
239.9999999999994
 51
284.99999999999437
  0
LINE
  8
DETAIL
  6
CONTINUOUS
 62
     5
 10
-17.369674000000028
 20
69.743269999999939
 30
0.0
 11
-12.851094000000099
 21
70.954019000000017
 31
0.0
  0
LINE
  8
DETAIL
  6
CONTINUOUS
 62
     5
 10
-39.5
 20
44.054427999999923
 30
0.0
 11
0.0
 21
44.054427999999923
 31
0.0
  0
LINE
  8
DETAIL
  6
CONTINUOUS
 62
     5
 10
0.0
 20
55.054427999999923
 30
0.0
 11
-45.0
 21
55.054427999999923
 31
0.0
  0
POINT
  8
DEFPOINTS
  6
CONTINUOUS
 62
    30
 10
-94.187297999999828
 20
111.0
 30
0.0
  0
ARC
  8
DETAIL
  6
CONTINUOUS
 62
     5
 10
0.0
 20
111.0
 30
0.0
 40
48.0
 50
101.78485399998181
 51
150.0000000000025
  0
ARC
  8
DETAIL
  6
CONTINUOUS
 62
     5
 10
-43.694915000000037
 20
96.621041999999989
 30
0.0
 40
2.0
 50
198.21514600000901
 51
239.9999999999994
  0
LINE
  8
DETAIL
  6
CONTINUOUS
 62
     5
 10
-35.784609999999702
 20
97.019237999999859
 30
0.0
 11
-37.516660000000229
 21
98.019237999999859
 31
0.0
  0
ARC
  8
DETAIL
  6
CONTINUOUS
 62
     5
 10
-36.284609999999702
 20
96.15321199999994
 30
0.0
 40
1.0
 50
330.00000000000239
 51
59.99999999999946
  0
ARC
  8
DETAIL
  6
CONTINUOUS
 62
     5
 10
-38.016660000000229
 20
97.15321199999994
 30
0.0
 40
1.0
 50
59.99999999999946
 51
150.0000000000025
  0
LINE
  8
DETAIL
  6
CONTINUOUS
 62
     5
 10
-42.382685999999921
 20
91.59103499999992
 30
0.0
 11
-38.882685999999921
 21
97.65321199999994
 31
0.0
  0
LINE
  8
DETAIL
  6
CONTINUOUS
 62
     5
 10
-43.623711000000178
 20
91.441515999999865
 30
0.0
 11
-43.248711000000178
 21
92.09103499999992
 31
0.0
  0
LINE
  8
DETAIL
  6
CONTINUOUS
 62
     5
 10
-44.790479000000232
 20
93.558524999999918
 30
0.0
 11
-44.190478999999868
 21
94.597756000000118
 31
0.0
  0
LINE
  8
DETAIL
  6
CONTINUOUS
 62
     5
 10
-45.848492000000078
 20
92.725993000000017
 30
0.0
 11
-44.622640999999931
 21
94.849228999999923
 31
0.0
  0
LINE
  8
DETAIL
  6
CONTINUOUS
 62
     5
 10
-35.384248000000298
 20
88.127835000000005
 30
0.0
 11
-34.784247999999927
 21
89.167065000000093
 31
0.0
  0
LINE
  8
DETAIL
  6
CONTINUOUS
 62
     5
 10
-37.772302999999738
 20
85.176452000000154
 30
0.0
 11
-36.522302999999738
 21
87.341515999999956
 31
0.0
  0
LINE
  8
DETAIL
  6
CONTINUOUS
 62
     5
 10
-37.772302999999738
 20
85.176452000000154
 30
0.0
 11
-42.83880500000032
 21
88.101597999999967
 31
0.0
  0
LINE
  8
DETAIL
  6
CONTINUOUS
 62
     5
 10
-35.280445000000327
 20
84.892476999999872
 30
0.0
 11
-37.272302999999738
 21
86.042476999999963
 31
0.0
  0
ARC
  8
DETAIL
  6
CONTINUOUS
 62
     5
 10
-36.396469999999681
 20
84.959464999999909
 30
0.0
 40
2.0
 50
29.99999999999751
 51
59.99999999999946
  0
LINE
  8
DETAIL
  6
CONTINUOUS
 62
     5
 10
-38.427558999999746
 20
88.441515999999865
 30
0.0
 11
-38.052558999999746
 21
89.09103499999992
 31
0.0
  0
LINE
  8
DETAIL
  6
CONTINUOUS
 62
     5
 10
-33.305444999999963
 20
88.313278000000082
 30
0.0
 11
-44.694915000000037
 21
94.888992000000144
 31
0.0
  0
LINE
  8
DETAIL
  6
CONTINUOUS
 62
     5
 10
-38.91858400000001
 20
89.59103499999992
 30
0.0
 11
-35.41858400000001
 21
95.65321199999994
 31
0.0
  0
LINE
  8
DETAIL
  6
CONTINUOUS
 62
     5
 10
-38.052558999999746
 20
89.09103499999992
 30
0.0
 11
-43.248711000000178
 21
92.09103499999992
 31
0.0
  0
LINE
  8
DETAIL
  6
CONTINUOUS
 62
     5
 10
-35.396469999999681
 20
86.691515999999865
 30
0.0
 11
-46.049250000000029
 21
92.841901000000007
 31
0.0
  0
LINE
  8
DETAIL
  6
CONTINUOUS
 62
     5
 10
-35.384248000000298
 20
88.127835000000005
 30
0.0
 11
-44.788821000000098
 21
93.557567999999947
 31
0.0
  0
LINE
  8
DETAIL
  6
CONTINUOUS
 62
     5
 10
-7.2904790000002322
 20
158.51043000000001
 30
0.0
 11
-7.8904789999996856
 21
157.47120000000001
 31
0.0
  0
ARC
  8
DETAIL
  6
CONTINUOUS
 62
     5
 10
-9.3949149999998554
 20
156.030385
 30
0.0
 40
2.0
 50
59.99999999999946
 51
101.78485399998181
  0
LINE
  8
DETAIL
  6
CONTINUOUS
 62
     5
 10
-5.7846099999997023
 20
148.98076200000011
 30
0.0
 11
-7.516660000000229
 21
149.98076200000011
 31
0.0
  0
LINE
  8
DETAIL
  6
CONTINUOUS
 62
     5
 10
-0.9185840000000098
 20
155.40896500000011
 30
0.0
 11
-4.4185840000000098
 21
149.3467879999998
 31
0.0
  0
ARC
  8
DETAIL
  6
CONTINUOUS
 62
     5
 10
-5.2846099999997023
 20
149.8467879999998
 30
0.0
 40
1.0
 50
239.9999999999994
 51
330.00000000000239
  0
ARC
  8
DETAIL
  6
CONTINUOUS
 62
     5
 10
-7.016660000000229
 20
150.8467879999998
 30
0.0
 40
1.0
 50
150.0000000000025
 51
239.9999999999994
  0
LINE
  8
DETAIL
  6
CONTINUOUS
 62
     5
 10
-4.3826859999999206
 20
157.40896500000011
 30
0.0
 11
-7.8826859999999206
 21
151.3467879999998
 31
0.0
  0
LINE
  8
DETAIL
  6
CONTINUOUS
 62
     5
 10
-0.0525589999997464
 20
154.90896500000011
 30
0.0
 11
-5.2487110000001849
 21
157.90896500000011
 31
0.0
  0
LINE
  8
DETAIL
  6
CONTINUOUS
 62
     5
 10
-4.8737110000001849
 20
158.55848400000011
 30
0.0
 11
-5.2487110000001849
 21
157.90896500000011
 31
0.0
  0
LINE
  8
DETAIL
  6
CONTINUOUS
 62
     5
 10
-7.2992500000000291
 20
159.95886999999991
 30
0.0
 11
-8.5270419999997102
 21
157.8322720000001
 31
0.0
  0
LINE
  8
DETAIL
  6
CONTINUOUS
 62
     5
 10
0.0
 20
159.399666
 30
0.0
 11
0.0
 21
158.79956799999991
 31
0.0
  0
LINE
  8
DETAIL
  6
CONTINUOUS
 62
     5
 10
0.0
 20
159.399666
 30
0.0
 11
0.0
 21
158.79956799999991
 31
0.0
  0
LINE
  8
DETAIL
  6
CONTINUOUS
 62
     5
 10
-33.305444999999963
 20
88.313278000000082
 30
0.0
 11
-36.655445000000327
 21
82.510907999999972
 31
0.0
  0
ARC
  8
DETAIL
  6
CONTINUOUS
 62
     5
 10
0.0
 20
111.0
 30
0.0
 40
48.0
 50
150.0000000000025
 51
198.21514600000901
  0
LINE
  8
NOTE
  6
CONTINUOUS
 62
     4
 10
-85.0
 20
174.0000279999999
 30
0.0
 11
-125.0
 21
174.0000279999999
 31
0.0
  0
LINE
  8
DETAIL
  6
CONTINUOUS
 62
     5
 10
-87.5
 20
174.0000279999999
 30
0.0
 11
-122.5
 21
174.0000279999999
 31
0.0
  0
LINE
  8
DETAIL
  6
CONTINUOUS
 62
     5
 10
-87.5
 20
170.5000279999999
 30
0.0
 11
-122.5
 21
170.5000279999999
 31
0.0
  0
LINE
  8
NOTE
  6
CONTINUOUS
 62
     4
 10
152.97972907541839
 20
212.6360912925264
 30
0.0
 11
142.55077475943219
 21
174.01955448981769
 31
0.0
  0
LINE
  8
DETAIL
  6
CONTINUOUS
 62
     5
 10
-125.5
 20
166.0000279999999
 30
0.0
 11
-122.5
 21
166.0000279999999
 31
0.0
  0
LINE
  8
DETAIL
  6
CONTINUOUS
 62
     5
 10
-125.5
 20
174.0000279999999
 30
0.0
 11
-159.5
 21
174.0000279999999
 31
0.0
  0
LINE
  8
DETAIL
  6
CONTINUOUS
 62
     5
 10
-159.5
 20
174.0000279999999
 30
0.0
 11
-159.5
 21
170.5000279999999
 31
0.0
  0
LINE
  8
DETAIL
  6
CONTINUOUS
 62
     5
 10
-129.0
 20
170.5000279999999
 30
0.0
 11
-159.5
 21
170.5000279999999
 31
0.0
  0
LINE
  8
NOTE
  6
CONTINUOUS
 62
     4
 10
-122.5
 20
174.0000279999999
 30
0.0
 11
-162.5
 21
174.0000279999999
 31
0.0
  0
CIRCLE
  8
FIX
  6
CONTINUOUS
 62
    11
 10
-142.5
 20
174.05442799999989
 30
0.0
 40
7.5
  0
LINE
  8
NOTE
  6
CONTINUOUS
 62
     4
 10
142.55077475943219
 20
174.01955448981769
 30
0.0
 11
170.8907831343013
 21
202.247979199198
 31
0.0
  0
LINE
  8
DETAIL
  6
CONTINUOUS
 62
     5
 10
-92.0
 20
180.0000279999999
 30
0.0
 11
-92.0
 21
174.0000279999999
 31
0.0
  0
CIRCLE
  8
FIX
  6
CONTINUOUS
 62
    11
 10
-105.0
 20
174.05442799999989
 30
0.0
 40
7.5
  0
LINE
  8
DETAIL
  6
CONTINUOUS
 62
     5
 10
-6.6374679999998989
 20
201.97611200000009
 30
0.0
 11
-5.4689600000001519
 21
204.00001399999999
 31
0.0
  0
LINE
  8
DETAIL
  6
CONTINUOUS
 62
     5
 10
-17.0
 20
180.0000279999999
 30
0.0
 11
-17.0
 21
196.91612600000011
 31
0.0
  0
ARC
  8
DETAIL
  6
CONTINUOUS
 62
     5
 10
-11.93999799999983
 20
196.91612600000011
 30
0.0
 40
5.0600019999999999
 50
90.0
 51
179.9999989999921
  0
POINT
  8
DEFPOINTS
  6
CONTINUOUS
 62
    30
 10
0.0
 20
222.01639
 30
0.0
  0
POINT
  8
DEFPOINTS
  6
CONTINUOUS
 62
    30
 10
0.0
 20
222.01639
 30
0.0
  0
LINE
  8
DETAIL
  6
CONTINUOUS
 62
     5
 10
0.0
 20
166.05442799999989
 30
0.0
 11
-45.0
 21
166.05442799999989
 31
0.0
  0
LINE
  8
SIZE
  6
CONTINUOUS
 62
    30
 10
-17.0
 20
324.10137915315232
 30
0.0
 11
-5.0
 21
324.10137915315232
 31
0.0
  0
CIRCLE
  8
SIZE
  6
CONTINUOUS
 62
    30
 10
-17.0
 20
324.10137915315232
 30
0.0
 40
6.0
  0
LINE
  8
SIZE
  6
CONTINUOUS
 62
    30
 10
-105.0
 20
479.00211302261317
 30
0.0
 11
-93.0
 21
479.00211302261317
 31
0.0
  0
CIRCLE
  8
SIZE
  6
CONTINUOUS
 62
    30
 10
-105.0
 20
479.00211302261317
 30
0.0
 40
6.0
  0
LINE
  8
SIZE
  6
CONTINUOUS
 62
    30
 10
-142.5
 20
725.0773062890039
 30
0.0
 11
-130.5
 21
725.0773062890039
 31
0.0
  0
CIRCLE
  8
SIZE
  6
CONTINUOUS
 62
    30
 10
-142.5
 20
725.0773062890039
 30
0.0
 40
6.0
  0
LINE
  8
OUTLINE
  6
CONTINUOUS
 62
     3
 10
125.5
 20
166.0000279999999
 30
0.0
 11
125.5
 21
0.0
 31
0.0
  0
CIRCLE
  8
SIZE
  6
CONTINUOUS
 62
    30
 10
734.98134299999992
 20
0.0000279999999293
 30
0.0
 40
6.0
  0
LINE
  8
SIZE
  6
CONTINUOUS
 62
    30
 10
734.98134299999992
 20
0.0
 30
0.0
 11
734.98134299999992
 21
12.0
 31
0.0
  0
CIRCLE
  8
SIZE
  6
CONTINUOUS
 62
    30
 10
734.98134299999992
 20
0.0
 30
0.0
 40
6.0
  0
CIRCLE
  8
FIX
  6
CONTINUOUS
 62
    11
 10
85.0
 20
0.0
 30
0.0
 40
2.5
  0
CIRCLE
  8
FIX
  6
CONTINUOUS
 62
    11
 10
141.5
 20
0.0
 30
0.0
 40
2.5
  0
LINE
  8
NOTE
  6
CONTINUOUS
 62
     4
 10
141.5
 20
-20.0
 30
0.0
 11
141.5
 21
20.0
 31
0.0
  0
LINE
  8
NOTE
  6
CONTINUOUS
 62
     4
 10
85.0
 20
-20.0
 30
0.0
 11
85.0
 21
20.0
 31
0.0
  0
LINE
  8
DETAIL
  6
CONTINUOUS
 62
     5
 10
125.5
 20
166.05442799999989
 30
0.0
 11
125.5
 21
0.0
 31
0.0
  0
LINE
  8
DETAIL
  6
CONTINUOUS
 62
     5
 10
87.569259792111552
 20
-13.0
 30
0.0
 11
88.009826476729359
 21
-7.0
 31
0.0
  0
LINE
  8
DETAIL
  6
CONTINUOUS
 62
     5
 10
62.0
 20
-13.0
 30
0.0
 11
62.0
 21
-7.0
 31
0.0
  0
LINE
  8
DETAIL
  6
CONTINUOUS
 62
     5
 10
57.0
 20
-13.0
 30
0.0
 11
57.0
 21
-7.0
 31
0.0
  0
LINE
  8
DETAIL
  6
CONTINUOUS
 62
     5
 10
89.945888816373554
 20
-20.0
 30
0.0
 11
91.191839000000073
 21
-7.0
 31
0.0
  0
LINE
  8
DETAIL
  6
CONTINUOUS
 62
     5
 10
167.5
 20
0.0
 30
0.0
 11
167.5
 21
-7.0
 31
0.0
  0
CIRCLE
  8
SIZE
  6
CONTINUOUS
 62
    30
 10
167.5
 20
-529.75024190299291
 30
0.0
 40
6.0
  0
LINE
  8
SIZE
  6
CONTINUOUS
 62
    30
 10
167.5
 20
-20.0
 30
0.0
 11
167.5
 21
-549.75024190299291
 31
0.0
  0
LINE
  8
SIZE
  6
CONTINUOUS
 62
    30
 10
167.5
 20
-529.75024190299291
 30
0.0
 11
155.5
 21
-529.75024190299291
 31
0.0
  0
LINE
  8
SIZE
  6
CONTINUOUS
 62
    30
 10
97.391751999999997
 20
-20.0
 30
0.0
 11
754.98134299999992
 21
-20.0
 31
0.0
  0
LINE
  8
SIZE
  6
CONTINUOUS
 62
    30
 10
187.5
 20
0.0
 30
0.0
 11
754.98134299999992
 21
0.0
 31
0.0
  0
LINE
  8
SIZE
  6
CONTINUOUS
 62
    30
 10
187.5
 20
0.0
 30
0.0
 11
599.97892000000002
 21
0.0
 31
0.0
  0
LINE
  8
SIZE
  6
CONTINUOUS
 62
    30
 10
125.5
 20
19.94557199999997
 30
0.0
 11
125.5
 21
600.83138119703108
 31
0.0
  0
LINE
  8
SIZE
  6
CONTINUOUS
 62
    30
 10
141.5
 20
-40.0
 30
0.0
 11
141.5
 21
-417.52803690299288
 31
0.0
  0
LINE
  8
SIZE
  6
CONTINUOUS
 62
    30
 10
141.5
 20
-397.52803690299288
 30
0.0
 11
129.5
 21
-397.52803690299288
 31
0.0
  0
CIRCLE
  8
SIZE
  6
CONTINUOUS
 62
    30
 10
141.5
 20
-397.52803690299288
 30
0.0
 40
6.0
  0
LINE
  8
SIZE
  6
CONTINUOUS
 62
    30
 10
125.5
 20
580.83138119703108
 30
0.0
 11
113.5
 21
580.83138119703108
 31
0.0
  0
CIRCLE
  8
SIZE
  6
CONTINUOUS
 62
    30
 10
125.5
 20
580.83138119703108
 30
0.0
 40
6.0
  0
LINE
  8
SIZE
  6
CONTINUOUS
 62
    30
 10
85.0
 20
-40.0
 30
0.0
 11
85.0
 21
-274.74365899999998
 31
0.0
  0
LINE
  8
SIZE
  6
CONTINUOUS
 62
    30
 10
85.0
 20
-254.74365900000001
 30
0.0
 11
73.0
 21
-254.74365900000001
 31
0.0
  0
CIRCLE
  8
SIZE
  6
CONTINUOUS
 62
    30
 10
85.0
 20
-254.74365900000001
 30
0.0
 40
6.0
  0
LINE
  8
NOTE
  6
CONTINUOUS
 62
     4
 10
105.0
 20
0.0
 30
0.0
 11
65.0
 21
0.0
 31
0.0
  0
LINE
  8
DETAIL
  6
CONTINUOUS
 62
     5
 10
167.5
 20
-0.8571230000000014
 30
0.0
 11
167.5
 21
0.0
 31
0.0
  0
LINE
  8
NOTE
  6
CONTINUOUS
 62
     4
 10
161.5
 20
0.0
 30
0.0
 11
121.5
 21
0.0
 31
0.0
  0
TEXT
  8
SIZE
  6
CONTINUOUS
 62
    30
 10
709.98134299999992
 20
-162.2571424285714
 30
0.0
 40
64.0
  1
20
 50
90.0
 41
0.9
 72
     1
 11
709.98134299999992
 21
-115.62857099999999
 31
0.0
  0
LINE
  8
SIZE
  6
CONTINUOUS
 62
    30
 10
734.98134299999992
 20
-32.0
 30
0.0
 11
734.98134299999992
 21
-187.25714300000001
 31
0.0
  0
LINE
  8
SIZE
  6
CONTINUOUS
 62
    30
 10
734.98134299999992
 20
-20.0
 30
0.0
 11
734.98134299999992
 21
-32.0
 31
0.0
  0
CIRCLE
  8
SIZE
  6
CONTINUOUS
 62
    30
 10
734.98134299999992
 20
-20.0
 30
0.0
 40
6.0
  0
LINE
  8
SIZE
  6
CONTINUOUS
 62
    30
 10
734.98134299999992
 20
0.0
 30
0.0
 11
734.98134299999992
 21
-20.0
 31
0.0
  0
LINE
  8
SIZE
  6
CONTINUOUS
 62
    30
 10
105.0
 20
214.05442799999989
 30
0.0
 11
105.0
 21
499.00211302261317
 31
0.0
  0
LINE
  8
SIZE
  6
CONTINUOUS
 62
    30
 10
142.5
 20
214.75058200000009
 30
0.0
 11
142.5
 21
745.0773062890039
 31
0.0
  0
LINE
  8
SIZE
  6
CONTINUOUS
 62
    30
 10
69.0
 20
204.0000279999999
 30
0.0
 11
754.98134299999992
 21
204.0000279999999
 31
0.0
  0
LINE
  8
SIZE
  6
CONTINUOUS
 62
    30
 10
187.5
 20
0.0000279999999293
 30
0.0
 11
754.98134299999992
 21
0.0000279999999293
 31
0.0
  0
LINE
  8
SIZE
  6
CONTINUOUS
 62
    30
 10
65.000001999999768
 20
214.39442800000009
 30
0.0
 11
65.000001999999768
 21
344.10137915315232
 31
0.0
  0
LINE
  8
NOTE
  6
CONTINUOUS
 62
     4
 10
105.0
 20
166.0000279999999
 30
0.0
 11
192.79859495299479
 21
407.1209321813717
 31
0.0
  0
LINE
  8
NOTE
  6
CONTINUOUS
 62
     4
 10
105.0
 20
166.0000279999999
 30
0.0
 11
109.8132215238525
 21
205.70938279401091
 31
0.0
  0
LINE
  8
NOTE
  6
CONTINUOUS
 62
     4
 10
129.0230500733642
 20
197.98272683434379
 30
0.0
 11
105.0
 21
166.0000279999999
 31
0.0
  0
LINE
  8
NOTE
  6
CONTINUOUS
 62
     4
 10
105.0
 20
154.0000279999999
 30
0.0
 11
105.0
 21
194.0000279999999
 31
0.0
  0
LINE
  8
DETAIL
  6
CONTINUOUS
 62
     5
 10
129.0
 20
170.5000279999999
 30
0.0
 11
129.0
 21
22.500027999999929
 31
0.0
  0
ARC
  8
DETAIL
  6
CONTINUOUS
 62
     5
 10
39.5
 20
143.05442799999989
 30
0.0
 40
35.0
 50
0.0
 51
90.0
  0
ARC
  8
DETAIL
  6
CONTINUOUS
 62
     5
 10
45.0
 20
148.05442799999989
 30
0.0
 40
18.0
 50
0.0
 51
90.0
  0
LINE
  8
NOTE
  6
CONTINUOUS
 62
     4
 10
142.5
 20
154.0000279999999
 30
0.0
 11
142.5
 21
194.0000279999999
 31
0.0
  0
LINE
  8
NOTE
  6
CONTINUOUS
 62
     4
 10
105.0
 20
146.0000279999999
 30
0.0
 11
105.0
 21
186.0000279999999
 31
0.0
  0
ARC
  8
DETAIL
  6
CONTINUOUS
 62
     5
 10
0.0
 20
111.0
 30
0.0
 40
48.0
 50
276.56576200000501
 51
330.00000000000239
  0
LINE
  8
DETAIL
  6
CONTINUOUS
 62
     5
 10
74.5
 20
79.054427999999916
 30
0.0
 11
74.5
 21
143.05442799999989
 31
0.0
  0
LINE
  8
DETAIL
  6
CONTINUOUS
 62
     5
 10
63.0
 20
74.054427999999916
 30
0.0
 11
63.0
 21
148.05442799999989
 31
0.0
  0
ARC
  8
DETAIL
  6
CONTINUOUS
 62
     5
 10
39.5
 20
79.054427999999916
 30
0.0
 40
35.0
 50
270.0
 51
0.0
  0
ARC
  8
DETAIL
  6
CONTINUOUS
 62
     5
 10
44.123278999999911
 20
73.911321000000044
 30
0.0
 40
18.877262999999999
 50
272.66195799999178
 51
0.4343580000017029
  0
ARC
  8
DETAIL
  6
CONTINUOUS
 62
     5
 10
0.0
 20
111.0
 30
0.0
 40
48.0
 50
330.00000000000239
 51
23.43423799999491
  0
LINE
  8
DETAIL
  6
CONTINUOUS
 62
     5
 10
29.18714099999988
 20
140.937952
 30
0.0
 11
39.865651000000071
 21
134.7727110000001
 31
0.0
  0
ARC
  8
DETAIL
  6
CONTINUOUS
 62
     5
 10
30.18714099999988
 20
142.67000300000001
 30
0.0
 40
2.0
 50
194.9999999999944
 51
239.9999999999994
  0
LINE
  8
DETAIL
  6
CONTINUOUS
 62
     5
 10
27.04453999999987
 20
146.67094399999999
 30
0.0
 11
28.255288999999721
 21
142.15236400000001
 31
0.0
  0
ARC
  8
DETAIL
  6
CONTINUOUS
 62
     5
 10
25.112688000000158
 20
146.1533059999999
 30
0.0
 40
2.0
 50
14.999999999994451
 51
59.99999999999946
  0
ARC
  8
DETAIL
  6
CONTINUOUS
 62
     5
 10
34.865651000000071
 20
126.11245699999991
 30
0.0
 40
10.0
 50
23.43423799999491
 51
59.99999999999946
  0
LINE
  8
DETAIL
  6
CONTINUOUS
 62
     5
 10
2.994555000000219
 20
151.18672199999989
 30
0.0
 11
6.3445549999996729
 21
156.989092
 31
0.0
  0
LINE
  8
DETAIL
  6
CONTINUOUS
 62
     5
 10
2.1157519999997021
 20
153.0797400000001
 30
0.0
 11
1.515752000000248
 21
152.04051000000001
 31
0.0
  0
LINE
  8
DETAIL
  6
CONTINUOUS
 62
     5
 10
3.4776970000002621
 20
156.623548
 30
0.0
 11
2.2276970000002621
 21
154.458484
 31
0.0
  0
ARC
  8
DETAIL
  6
CONTINUOUS
 62
     5
 10
4.353530000000319
 20
155.54053500000009
 30
0.0
 40
2.0
 50
239.9999999999994
 51
270.0
  0
LINE
  8
DETAIL
  6
CONTINUOUS
 62
     5
 10
4.9695549999996729
 20
154.6075230000001
 30
0.0
 11
2.9776970000002621
 21
155.75752299999999
 31
0.0
  0
ARC
  8
DETAIL
  6
CONTINUOUS
 62
     5
 10
8.0766060000000834
 20
155.989092
 30
0.0
 40
2.0
 50
59.99999999999946
 51
150.0000000000025
  0
LINE
  8
DETAIL
  6
CONTINUOUS
 62
     5
 10
26.112688000000158
 20
147.88535700000011
 30
0.0
 11
9.0766060000000834
 21
157.72114300000001
 31
0.0
  0
LINE
  8
DETAIL
  6
CONTINUOUS
 62
     5
 10
129.0
 20
22.55442799999992
 30
0.0
 11
125.5
 21
22.55442799999992
 31
0.0
  0
LINE
  8
DETAIL
  6
CONTINUOUS
 62
     5
 10
90.0
 20
170.05442799999989
 30
0.0
 11
122.5
 21
170.05442799999989
 31
0.0
  0
LINE
  8
DETAIL
  6
CONTINUOUS
 62
     5
 10
122.5
 20
174.0000279999999
 30
0.0
 11
90.0
 21
174.0000279999999
 31
0.0
  0
LINE
  8
NOTE
  6
CONTINUOUS
 62
     4
 10
85.0
 20
174.0000279999999
 30
0.0
 11
125.0
 21
174.0000279999999
 31
0.0
  0
LINE
  8
DETAIL
  6
CONTINUOUS
 62
     5
 10
125.5
 20
166.0000279999999
 30
0.0
 11
90.0
 21
166.0000279999999
 31
0.0
  0
LINE
  8
NOTE
  6
CONTINUOUS
 62
     4
 10
85.0
 20
166.0000279999999
 30
0.0
 11
125.0
 21
166.0000279999999
 31
0.0
  0
LINE
  8
DETAIL
  6
CONTINUOUS
 62
     5
 10
59.939997999999832
 20
201.97611200000009
 30
0.0
 11
23.999998000000229
 21
201.97611200000009
 31
0.0
  0
POINT
  8
DEFPOINTS
  6
CONTINUOUS
 62
    30
 10
24.0
 20
213.7921980000001
 30
0.0
  0
LINE
  8
DETAIL
  6
CONTINUOUS
 62
     5
 10
23.999998000000229
 20
204.0000279999999
 30
0.0
 11
53.468950999999826
 21
204.0000279999999
 31
0.0
  0
LINE
  8
DETAIL
  6
CONTINUOUS
 62
     5
 10
54.637467999999899
 20
201.97611200000009
 30
0.0
 11
53.468960000000152
 21
204.00001399999999
 31
0.0
  0
LINE
  8
BASIS
  6
DASHDOT
 62
     6
 10
24.0
 20
213.7921980000001
 30
0.0
 11
24.0
 21
170.008061
 31
0.0
  0
ARC
  8
DETAIL
  6
CONTINUOUS
 62
     5
 10
78.0
 20
168.0000279999999
 30
0.0
 40
12.0
 50
0.0
 51
90.0
  0
CIRCLE
  8
FIX
  6
CONTINUOUS
 62
    11
 10
105.0
 20
174.05442799999989
 30
0.0
 40
7.5
  0
LINE
  8
DETAIL
  6
CONTINUOUS
 62
     5
 10
90.0
 20
174.0000279999999
 30
0.0
 11
90.0
 21
166.0000279999999
 31
0.0
  0
ARC
  8
DETAIL
  6
CONTINUOUS
 62
     5
 10
59.939997999999832
 20
196.91612600000011
 30
0.0
 40
5.0600019999999999
 50
0.0000009999948896
 51
90.0
  0
LINE
  8
DETAIL
  6
CONTINUOUS
 62
     5
 10
65.0
 20
180.0000279999999
 30
0.0
 11
65.0
 21
196.91612600000011
 31
0.0
  0
LINE
  8
DETAIL
  6
CONTINUOUS
 62
     5
 10
122.5
 20
174.0000279999999
 30
0.0
 11
122.5
 21
166.0000279999999
 31
0.0
  0
LINE
  8
DETAIL
  6
CONTINUOUS
 62
     5
 10
125.5
 20
166.0000279999999
 30
0.0
 11
125.5
 21
174.0000279999999
 31
0.0
  0
LINE
  8
DETAIL
  6
CONTINUOUS
 62
     5
 10
159.5
 20
174.0000279999999
 30
0.0
 11
125.5
 21
174.0000279999999
 31
0.0
  0
CIRCLE
  8
FIX
  6
CONTINUOUS
 62
    11
 10
142.5
 20
174.05442799999989
 30
0.0
 40
7.5
  0
LINE
  8
NOTE
  6
CONTINUOUS
 62
     4
 10
122.5
 20
174.0000279999999
 30
0.0
 11
162.5
 21
174.0000279999999
 31
0.0
  0
LINE
  8
DETAIL
  6
CONTINUOUS
 62
     5
 10
129.0
 20
170.5000279999999
 30
0.0
 11
159.5
 21
170.5000279999999
 31
0.0
  0
LINE
  8
DETAIL
  6
CONTINUOUS
 62
     5
 10
159.5
 20
174.0000279999999
 30
0.0
 11
159.5
 21
170.5000279999999
 31
0.0
  0
LINE
  8
NOTE
  6
CONTINUOUS
 62
     4
 10
192.79859495299479
 20
407.1209321813717
 30
0.0
 11
310.60661595299462
 21
407.1209321813717
 31
0.0
  0
TEXT
  8
NOTE
  6
CONTINUOUS
 62
     4
 10
209.76607500661021
 20
422.6910604363427
 30
0.0
 40
64.0
  1
EL
 41
0.9
  0
TEXT
  8
SIZE
  6
CONTINUOUS
 62
    30
 10
-73.729954541183673
 20
366.56375984139049
 30
0.0
 40
64.0
  1
φ82
 41
0.9
 72
     1
 11
13.21861688738773
 21
366.56375984139049
 31
0.0
  0
LINE
  8
SIZE
  6
CONTINUOUS
 62
    30
 10
65.000001999999768
 20
324.10137915315232
 30
0.0
 11
53.000001999999768
 21
324.10137915315232
 31
0.0
  0
CIRCLE
  8
SIZE
  6
CONTINUOUS
 62
    30
 10
65.000001999999768
 20
324.10137915315232
 30
0.0
 40
6.0
  0
TEXT
  8
SIZE
  6
CONTINUOUS
 62
    30
 10
709.98134299999992
 20
26.571456571428509
 30
0.0
 40
64.0
  1
204
 50
90.0
 41
0.9
 72
     1
 11
709.98134299999992
 21
102.0000279999999
 31
0.0
  0
LINE
  8
SIZE
  6
CONTINUOUS
 62
    30
 10
734.98134299999992
 20
12.000027999999929
 30
0.0
 11
734.98134299999992
 21
192.0000279999999
 31
0.0
  0
LINE
  8
SIZE
  6
CONTINUOUS
 62
    30
 10
734.98134299999992
 20
0.0000279999999293
 30
0.0
 11
734.98134299999992
 21
12.000027999999929
 31
0.0
  0
LINE
  8
SIZE
  6
CONTINUOUS
 62
    30
 10
734.98134299999992
 20
12.0
 30
0.0
 11
734.98134299999992
 21
24.0
 31
0.0
  0
LINE
  8
SIZE
  6
CONTINUOUS
 62
    30
 10
734.98134299999992
 20
204.0000279999999
 30
0.0
 11
734.98134299999992
 21
192.0000279999999
 31
0.0
  0
CIRCLE
  8
SIZE
  6
CONTINUOUS
 62
    30
 10
734.98134299999992
 20
204.0000279999999
 30
0.0
 40
6.0
  0
LINE
  8
SIZE
  6
CONTINUOUS
 62
    30
 10
105.0
 20
479.00211302261317
 30
0.0
 11
93.0
 21
479.00211302261317
 31
0.0
  0
CIRCLE
  8
SIZE
  6
CONTINUOUS
 62
    30
 10
105.0
 20
479.00211302261317
 30
0.0
 40
6.0
  0
LINE
  8
SIZE
  6
CONTINUOUS
 62
    30
 10
142.5
 20
725.0773062890039
 30
0.0
 11
130.5
 21
725.0773062890039
 31
0.0
  0
CIRCLE
  8
SIZE
  6
CONTINUOUS
 62
    30
 10
142.5
 20
725.0773062890039
 30
0.0
 40
6.0
  0
LINE
  8
SIZE
  6
CONTINUOUS
 62
    30
 10
187.5
 20
0.0
 30
0.0
 11
599.70773800000006
 21
0.0
 31
0.0
  0
LINE
  8
SIZE
  6
CONTINUOUS
 62
    30
 10
182.5
 20
174.0000279999999
 30
0.0
 11
599.70773800000006
 21
174.0000279999999
 31
0.0
  0
LINE
  8
SIZE
  6
CONTINUOUS
 62
    30
 10
579.70773800000006
 20
-12.0
 30
0.0
 11
579.70773800000006
 21
-24.0
 31
0.0
  0
LINE
  8
SIZE
  6
CONTINUOUS
 62
    30
 10
579.70773800000006
 20
186.0000279999999
 30
0.0
 11
579.70773800000006
 21
198.0000279999999
 31
0.0
  0
LINE
  8
SIZE
  6
CONTINUOUS
 62
    30
 10
579.70773800000006
 20
0.0
 30
0.0
 11
579.70773800000006
 21
174.0000279999999
 31
0.0
  0
CIRCLE
  8
SIZE
  6
CONTINUOUS
 62
    30
 10
579.70773800000006
 20
0.0
 30
0.0
 40
6.0
  0
LINE
  8
SIZE
  6
CONTINUOUS
 62
    30
 10
579.70773800000006
 20
0.0
 30
0.0
 11
579.70773800000006
 21
-12.0
 31
0.0
  0
CIRCLE
  8
SIZE
  6
CONTINUOUS
 62
    30
 10
579.70773800000006
 20
174.0000279999999
 30
0.0
 40
6.0
  0
LINE
  8
SIZE
  6
CONTINUOUS
 62
    30
 10
579.70773800000006
 20
174.0000279999999
 30
0.0
 11
579.70773800000006
 21
186.0000279999999
 31
0.0
  0
TEXT
  8
SIZE
  6
CONTINUOUS
 62
    30
 10
554.70773800000006
 20
17.057156857142829
 30
0.0
 40
64.0
  1
174
 50
90.0
 41
0.9
 72
     1
 11
554.70773800000006
 21
87.000013999999965
 31
0.0
  0
POINT
  8
DEFPOINTS
  6
CONTINUOUS
 62
    30
 10
167.5
 20
0.0
 30
0.0
  0
POINT
  8
DEFPOINTS
  6
CONTINUOUS
 62
    30
 10
162.5
 20
174.0000279999999
 30
0.0
  0
POINT
  8
DEFPOINTS
  6
CONTINUOUS
 62
    30
 10
579.70773800000006
 20
174.0000279999999
 30
0.0
  0
POINT
  8
DEFPOINTS
  6
CONTINUOUS
 62
    30
 10
-49.514580000000016
 20
128.45154199999999
 30
0.0
  0
POINT
  8
DEFPOINTS
  6
CONTINUOUS
 62
    30
 10
49.514580000000016
 20
93.548457999999982
 30
0.0
  0
POINT
  8
DEFPOINTS
  6
CONTINUOUS
 62
    30
 10
-48.80848799999967
 20
115.3279950000001
 30
0.0
  0
POINT
  8
DEFPOINTS
  6
CONTINUOUS
 62
    30
 10
48.80848799999967
 20
106.6720049999999
 30
0.0
  0
LINE
  8
SIZE
  6
CONTINUOUS
 62
    30
 10
-187.5
 20
0.0
 30
0.0
 11
-381.31321479652399
 21
0.0
 31
0.0
  0
LINE
  8
SIZE
  6
CONTINUOUS
 62
    30
 10
-65.0
 20
55.054427999999923
 30
0.0
 11
-381.31321479652399
 21
55.054427999999923
 31
0.0
  0
LINE
  8
SIZE
  6
CONTINUOUS
 62
    30
 10
-361.31321479652399
 20
67.054427999999916
 30
0.0
 11
-361.31321479652399
 21
79.054427999999916
 31
0.0
  0
LINE
  8
SIZE
  6
CONTINUOUS
 62
    30
 10
-361.31321479652399
 20
-12.0
 30
0.0
 11
-361.31321479652399
 21
-167.25714300000001
 31
0.0
  0
LINE
  8
SIZE
  6
CONTINUOUS
 62
    30
 10
-361.31321479652399
 20
55.054427999999923
 30
0.0
 11
-361.31321479652399
 21
0.0
 31
0.0
  0
CIRCLE
  8
SIZE
  6
CONTINUOUS
 62
    30
 10
-361.31321479652399
 20
55.054427999999923
 30
0.0
 40
6.0
  0
LINE
  8
SIZE
  6
CONTINUOUS
 62
    30
 10
-361.31321479652399
 20
55.054427999999923
 30
0.0
 11
-361.31321479652399
 21
67.054427999999916
 31
0.0
  0
CIRCLE
  8
SIZE
  6
CONTINUOUS
 62
    30
 10
-361.31321479652399
 20
0.0
 30
0.0
 40
6.0
  0
LINE
  8
SIZE
  6
CONTINUOUS
 62
    30
 10
-361.31321479652399
 20
0.0
 30
0.0
 11
-361.31321479652399
 21
-12.0
 31
0.0
  0
TEXT
  8
SIZE
  6
CONTINUOUS
 62
    30
 10
-386.31321479652399
 20
-142.2571424285714
 30
0.0
 40
64.0
  1
55
 50
90.0
 41
0.9
 72
     1
 11
-386.31321479652399
 21
-95.628570999999965
 31
0.0
  0
POINT
  8
DEFPOINTS
  6
CONTINUOUS
 62
    30
 10
-167.5
 20
0.0
 30
0.0
  0
POINT
  8
DEFPOINTS
  6
CONTINUOUS
 62
    30
 10
-45.0
 20
55.054427999999923
 30
0.0
  0
POINT
  8
DEFPOINTS
  6
CONTINUOUS
 62
    30
 10
-361.31321479652399
 20
55.054427999999923
 30
0.0
  0
LINE
  8
SIZE
  6
CONTINUOUS
 62
    30
 10
-382.86575712579997
 20
367.08338946302479
 30
0.0
 11
-53.612922475397681
 21
146.85951120200889
 31
0.0
  0
LINE
  8
SIZE
  6
CONTINUOUS
 62
    30
 10
53.612922475397681
 20
75.140488797991225
 30
0.0
 11
63.587419680122821
 21
68.46895183017557
 31
0.0
  0
TEXT
  8
SIZE
  6
CONTINUOUS
 62
    30
 10
-360.04192165824179
 20
381.89415484785678
 30
0.0
 40
64.0
  1
φ105
 50
326.22303985283799
 41
0.9
 72
     1
 11
-269.53048416622158
 21
321.35472224847848
 31
0.0
  0
LINE
  8
SIZE
  6
CONTINUOUS
 62
    30
 10
43.638425270672542
 20
81.812025765806766
 30
0.0
 11
-43.638425270672542
 21
140.18797423419321
 31
0.0
  0
CIRCLE
  8
SIZE
  6
CONTINUOUS
 62
    30
 10
43.638425270672542
 20
81.812025765806766
 30
0.0
 40
6.0
  0
LINE
  8
SIZE
  6
CONTINUOUS
 62
    30
 10
43.638425270672542
 20
81.812025765806766
 30
0.0
 11
53.612922475397681
 21
75.140488797991111
 31
0.0
  0
CIRCLE
  8
SIZE
  6
CONTINUOUS
 62
    30
 10
-43.638425270672542
 20
140.18797423419321
 30
0.0
 40
6.0
  0
LINE
  8
SIZE
  6
CONTINUOUS
 62
    30
 10
-43.638425270672542
 20
140.18797423419321
 30
0.0
 11
-53.612922475397681
 21
146.85951120200889
 31
0.0
  0
POINT
  8
DEFPOINTS
  6
CONTINUOUS
 62
    30
 10
-43.638425270672542
 20
140.18797423419321
 30
0.0
  0
POINT
  8
DEFPOINTS
  6
CONTINUOUS
 62
    30
 10
43.638425270672542
 20
81.812025765806766
 30
0.0
  0
LINE
  8
SIZE
  6
CONTINUOUS
 62
    30
 10
-390.60714561552368
 20
173.62374646670389
 30
0.0
 11
-60.230829993006637
 21
120.6564547507635
 31
0.0
  0
LINE
  8
SIZE
  6
CONTINUOUS
 62
    30
 10
60.230829993006409
 20
101.3435452492364
 30
0.0
 11
72.079517860483179
 21
99.443914806463226
 31
0.0
  0
TEXT
  8
SIZE
  6
CONTINUOUS
 62
    30
 10
-376.04782766784689
 20
196.60879590396101
 30
0.0
 40
64.0
  1
φ98
 50
350.89161689071432
 41
0.9
 72
     1
 11
-290.19562071950139
 21
182.84461646718171
 31
0.0
  0
LINE
  8
SIZE
  6
CONTINUOUS
 62
    30
 10
48.382142125529747
 20
103.2431756920096
 30
0.0
 11
-48.382142125529981
 21
118.7568243079903
 31
0.0
  0
CIRCLE
  8
SIZE
  6
CONTINUOUS
 62
    30
 10
48.382142125529747
 20
103.2431756920096
 30
0.0
 40
6.0
  0
LINE
  8
SIZE
  6
CONTINUOUS
 62
    30
 10
48.382142125529747
 20
103.2431756920096
 30
0.0
 11
60.230829993006409
 21
101.3435452492364
 31
0.0
  0
CIRCLE
  8
SIZE
  6
CONTINUOUS
 62
    30
 10
-48.382142125529981
 20
118.7568243079903
 30
0.0
 40
6.0
  0
LINE
  8
SIZE
  6
CONTINUOUS
 62
    30
 10
-48.382142125529981
 20
118.7568243079903
 30
0.0
 11
-60.230829993006751
 21
120.6564547507635
 31
0.0
  0
POINT
  8
DEFPOINTS
  6
CONTINUOUS
 62
    30
 10
-48.382142125529981
 20
118.7568243079903
 30
0.0
  0
POINT
  8
DEFPOINTS
  6
CONTINUOUS
 62
    30
 10
48.382142125529747
 20
103.2431756920096
 30
0.0
  0
LINE
  8
OUTLINE
  6
CONTINUOUS
 62
     3
 10
78.0
 20
180.0000279999999
 30
0.0
 11
-92.0
 21
180.0000279999999
 31
0.0
  0
LINE
  8
OUTLINE
  6
CONTINUOUS
 62
     3
 10
-92.0
 20
180.0000279999999
 30
0.0
 11
-92.0
 21
174.0000279999999
 31
0.0
  0
ARC
  8
OUTLINE
  6
CONTINUOUS
 62
     3
 10
78.0
 20
168.0000279999999
 30
0.0
 40
12.0
 50
0.0
 51
90.0
  0
LINE
  8
OUTLINE
  6
CONTINUOUS
 62
     3
 10
90.0
 20
174.0000279999999
 30
0.0
 11
90.0
 21
166.0000279999999
 31
0.0
  0
LINE
  8
OUTLINE
  6
CONTINUOUS
 62
     3
 10
-92.0
 20
174.0000279999999
 30
0.0
 11
-125.5
 21
174.0000279999999
 31
0.0
  0
LINE
  8
DETAIL
  6
CONTINUOUS
 62
     5
 10
-87.569259792111552
 20
-13.0
 30
0.0
 11
-88.009826476729359
 21
-7.0
 31
0.0
  0
LINE
  8
DETAIL
  6
CONTINUOUS
 62
     5
 10
-89.945888816373554
 20
-20.0
 30
0.0
 11
-91.191839000000073
 21
-7.0
 31
0.0
  0
LINE
  8
OUTLINE
  6
CONTINUOUS
 62
     3
 10
90.0
 20
166.0000279999999
 30
0.0
 11
65.929139990548265
 21
166.0000279999999
 31
0.0
  0
LINE
  8
OUTLINE
  6
CONTINUOUS
 62
     3
 10
-87.5
 20
166.00002812534649
 30
0.0
 11
-65.929139814653126
 21
166.000028202599
 31
0.0
  0
POINT
  8
ARRANGE
  6
CONTINUOUS
 62
     1
 10
0.0
 20
0.0
 30
0.0
  0
ENDSEC
  0
EOF
