  0
SECTION
  2
HEADER
  9
$ACADVER
  1
AC1009
  9
$DWGCODEPAGE
  3
dos932
  9
$INSBASE
 10
0.0
 20
0.0
 30
0.0
  9
$EXTMIN
 10
-484.45585485833732
 20
-459.82359671013359
 30
-0.0015258207003583
  9
$EXTMAX
 10
1486.4502074155589
 20
753.34168301585669
 30
0.0000000349246037
  9
$LIMMIN
 10
-2970.0
 20
-2100.0
  9
$LIMMAX
 10
2970.0
 20
2100.0
  9
$ORTHOMODE
 70
     1
  9
$REGENMODE
 70
     1
  9
$FILLMODE
 70
     1
  9
$QTEXTMODE
 70
     0
  9
$MIRRTEXT
 70
     0
  9
$LTSCALE
 40
20.0
  9
$ATTMODE
 70
     1
  9
$TEXTSIZE
 40
64.0
  9
$TRACEWID
 40
0.05
  9
$TEXTSTYLE
  7
STANDARD
  9
$CLAYER
  8
SIZE
  9
$CELTYPE
  6
CONTINUOUS
  9
$CECOLOR
 62
     7
  9
$DIMSCALE
 40
1.0
  9
$DIMASZ
 40
12.0
  9
$DIMEXO
 40
20.0
  9
$DIMDLI
 40
200.0
  9
$DIMRND
 40
0.0
  9
$DIMDLE
 40
0.0
  9
$DIMEXE
 40
20.0
  9
$DIMTP
 40
0.0
  9
$DIMTM
 40
0.0
  9
$DIMTXT
 40
64.0
  9
$DIMCEN
 40
0.09
  9
$DIMTSZ
 40
0.0
  9
$DIMTOL
 70
     0
  9
$DIMLIM
 70
     0
  9
$DIMTIH
 70
     0
  9
$DIMTOH
 70
     0
  9
$DIMSE1
 70
     0
  9
$DIMSE2
 70
     0
  9
$DIMTAD
 70
     1
  9
$DIMZIN
 70
     8
  9
$DIMBLK
  1

  9
$DIMASO
 70
     1
  9
$DIMSHO
 70
     0
  9
$DIMPOST
  1

  9
$DIMAPOST
  1

  9
$DIMALT
 70
     0
  9
$DIMALTD
 70
     2
  9
$DIMALTF
 40
25.399999999999999
  9
$DIMLFAC
 40
1.0
  9
$DIMTOFL
 70
     1
  9
$DIMTVP
 40
0.0
  9
$DIMTIX
 70
     1
  9
$DIMSOXD
 70
     0
  9
$DIMSAH
 70
     0
  9
$DIMBLK1
  1

  9
$DIMBLK2
  1

  9
$DIMSTYLE
  2
STANDARD
  9
$DIMCLRD
 70
     7
  9
$DIMCLRE
 70
     7
  9
$DIMCLRT
 70
     7
  9
$DIMTFAC
 40
1.0
  9
$DIMGAP
 40
25.0
  9
$LUNITS
 70
     2
  9
$LUPREC
 70
     4
  9
$SKETCHINC
 40
0.1
  9
$FILLETRAD
 40
3.0
  9
$AUNITS
 70
     1
  9
$AUPREC
 70
     3
  9
$MENU
  1
ACAD
  9
$ELEVATION
 40
0.0
  9
$PELEVATION
 40
0.0
  9
$THICKNESS
 40
0.0
  9
$LIMCHECK
 70
     0
  9
$CHAMFERA
 40
0.0
  9
$CHAMFERB
 40
0.0
  9
$SKPOLY
 70
     0
  9
$TDCREATE
 40
2453019.62301037
  9
$TDUPDATE
 40
2459025.504331933
  9
$TDINDWG
 40
1.7131525579
  9
$TDUSRTIMER
 40
1.7131525579
  9
$USRTIMER
 70
     1
  9
$ANGBASE
 50
0.0
  9
$ANGDIR
 70
     0
  9
$PDMODE
 70
     3
  9
$PDSIZE
 40
-2.0
  9
$PLINEWID
 40
0.0
  9
$SPLFRAME
 70
     0
  9
$SPLINETYPE
 70
     6
  9
$SPLINESEGS
 70
     8
  9
$SURFTAB1
 70
     6
  9
$SURFTAB2
 70
     6
  9
$SURFTYPE
 70
     6
  9
$SURFU
 70
     6
  9
$SURFV
 70
     6
  9
$UCSNAME
  2

  9
$UCSORG
 10
0.0
 20
0.0
 30
0.0
  9
$UCSXDIR
 10
1.0
 20
0.0
 30
0.0
  9
$UCSYDIR
 10
0.0
 20
1.0
 30
0.0
  9
$PUCSNAME
  2

  9
$PUCSORG
 10
0.0
 20
0.0
 30
0.0
  9
$PUCSXDIR
 10
1.0
 20
0.0
 30
0.0
  9
$PUCSYDIR
 10
0.0
 20
1.0
 30
0.0
  9
$USERI1
 70
     0
  9
$USERI2
 70
     0
  9
$USERI3
 70
     0
  9
$USERI4
 70
     0
  9
$USERI5
 70
     0
  9
$USERR1
 40
20.0
  9
$USERR2
 40
0.0
  9
$USERR3
 40
0.0
  9
$USERR4
 40
0.0
  9
$USERR5
 40
0.0
  9
$WORLDVIEW
 70
     1
  9
$SHADEDGE
 70
     3
  9
$SHADEDIF
 70
    70
  9
$TILEMODE
 70
     1
  9
$MAXACTVP
 70
    48
  9
$PINSBASE
 10
0.0
 20
0.0
 30
0.0
  9
$PLIMCHECK
 70
     0
  9
$PEXTMIN
 10
-100000000000000000000.0
 20
-100000000000000000000.0
 30
-100000000000000000000.0
  9
$PEXTMAX
 10
100000000000000000000.0
 20
100000000000000000000.0
 30
100000000000000000000.0
  9
$PLIMMIN
 10
0.0
 20
0.0
  9
$PLIMMAX
 10
12.0
 20
9.0
  9
$UNITMODE
 70
     0
  9
$VISRETAIN
 70
     0
  9
$PLINEGEN
 70
     0
  9
$PSLTSCALE
 70
     0
  9
$TREEDEPTH
 70
  3020
  9
$ATTDIA
 70
     0
  9
$ATTREQ
 70
     1
  9
$BLIPMODE
 70
     1
  9
$COORDS
 70
     1
  9
$DRAGMODE
 70
     2
  9
$OSMODE
 70
     0
  9
$HANDLING
 70
     0
  9
$HANDSEED
  5
F064
  0
ENDSEC
  0
SECTION
  2
TABLES
  0
TABLE
  2
LTYPE
 70
     3
  0
LTYPE
  2
CONTINUOUS
 70
     0
  3
実線
 72
    65
 73
     0
 40
0.0
  0
LTYPE
  2
DASHDOT
 70
     0
  3
____ _ ____ _ ____ _ ____ _ ____ _ ____ _ ____
 72
    65
 73
     4
 40
5.5
 49
4.0
 49
-0.6
 49
0.3
 49
-0.6
  0
LTYPE
  2
CENTER
 70
     0
  3
Center ____ _ ____ _ ____ _ ____ _ ____ _ ____
 72
    65
 73
     4
 40
1.0
 49
0.5
 49
-0.25
 49
0.0
 49
-0.25
  0
ENDTAB
  0
TABLE
  2
LAYER
 70
    12
  0
LAYER
  2
0
 70
     0
 62
     7
  6
CONTINUOUS
  0
LAYER
  2
BASIS
 70
     0
 62
     6
  6
DASHDOT
  0
LAYER
  2
OUTLINE
 70
     0
 62
     3
  6
CONTINUOUS
  0
LAYER
  2
DETAIL
 70
     0
 62
     5
  6
CONTINUOUS
  0
LAYER
  2
SIZE
 70
     0
 62
    30
  6
CONTINUOUS
  0
LAYER
  2
ARRANGE
 70
     0
 62
     1
  6
CONTINUOUS
  0
LAYER
  2
DEFPOINTS
 70
     0
 62
     7
  6
CONTINUOUS
  0
LAYER
  2
ETC
 70
     0
 62
    61
  6
CONTINUOUS
  0
LAYER
  2
FIX
 70
     0
 62
    11
  6
CONTINUOUS
  0
LAYER
  2
NOTE
 70
     0
 62
     4
  6
CONTINUOUS
  0
LAYER
  2
SERVICESPACE
 70
    64
 62
     2
  6
DASHDOT
  0
LAYER
  2
SYMBOLLINE
 70
    64
 62
    15
  6
CONTINUOUS
  0
ENDTAB
  0
TABLE
  2
STYLE
 70
     1
  0
STYLE
  2
STANDARD
 70
     0
 40
64.0
 41
0.9
 50
0.0
 71
     0
 42
64.0
  3
SIMPLEX.shx
  4
BIGFONT.shx
  0
ENDTAB
  0
TABLE
  2
APPID
 70
    19
  0
APPID
  2
ACAD
 70
     0
  0
APPID
  2
AUTOCAD_POSTSCRIPT_FIGURE
 70
     0
  0
APPID
  2
ACAD_EXEMPT_FROM_CAD_STANDARDS
 70
     0
  0
APPID
  2
ACAD_PSEXT
 70
     0
  0
APPID
  2
ACAUTHENVIRON
 70
     0
  0
APPID
  2
GENIUS_GENOENT_13
 70
     0
  0
APPID
  2
GENIUS_GENCFG_13
 70
     0
  0
APPID
  2
GENIUS_GENCFG0_13
 70
     0
  0
APPID
  2
GENIUS_GENCFG1_13
 70
     0
  0
APPID
  2
GENIUS_GENCFG2_13
 70
     0
  0
APPID
  2
GENIUS_GENCFG3_13
 70
     0
  0
APPID
  2
GENIUS_GENCFG4_13
 70
     0
  0
APPID
  2
GENIUS_GEVCFG0_13
 70
     0
  0
APPID
  2
CONTENTBLOCKICON
 70
     0
  0
APPID
  2
CONTENTBLOCKDESCRIPTION
 70
     0
  0
APPID
  2
ACAD_NAV_VCDISPLAY
 70
     0
  0
APPID
  2
ACAD_MLEADERVER
 70
     0
  0
APPID
  2
ACDBDYNAMICBLOCKTRUENAME
 70
     0
  0
APPID
  2
ACDBDYNAMICBLOCKGUID
 70
     0
  0
ENDTAB
  0
TABLE
  2
DIMSTYLE
 70
     1
  0
DIMSTYLE
  2
STANDARD
 70
     0
  3

  4

  5
_ORIGIN
  6

  7

 40
1.0
 41
12.0
 42
20.0
 43
200.0
 44
20.0
 45
0.0
 46
0.0
 47
0.0
 48
0.0
140
64.0
141
0.09
142
0.0
143
25.399999999999999
144
1.0
145
0.0
146
1.0
147
25.0
 71
     0
 72
     0
 73
     0
 74
     0
 75
     0
 76
     0
 77
     1
 78
     8
170
     0
171
     2
172
     1
173
     0
174
     1
175
     0
176
     7
177
     7
178
     7
  0
ENDTAB
  0
TABLE
  2
VIEW
 70
     1
  0
VIEW
  2
ALL
 70
     0
 40
4282.6198079999986
 10
0.0
 20
41.309904000000003
 41
5940.0
 11
0.0
 21
0.0
 31
1.0
 12
0.0
 22
0.0
 32
0.0
 42
50.0
 43
0.0
 44
0.0
 50
0.0
 71
     0
  0
ENDTAB
  0
TABLE
  2
UCS
 70
     0
  0
ENDTAB
  0
TABLE
  2
VPORT
 70
     1
  0
VPORT
  2
*ACTIVE
 70
     0
 10
0.0
 20
0.0
 11
1.0
 21
1.0
 12
500.99717627861088
 22
146.75904315286149
 13
0.0
 23
0.0
 14
1.0
 24
1.0
 15
0.0
 25
0.0
 16
0.0
 26
0.0
 36
1.0
 17
0.0
 27
0.0
 37
0.0
 40
1221.208364453455
 41
1.747787610619469
 42
50.0
 43
0.0
 44
0.0
 50
0.0
 51
0.0
 71
     0
 72
  1000
 73
     1
 74
     3
 75
     0
 76
     0
 77
     0
 78
     0
  0
ENDTAB
  0
ENDSEC
  0
SECTION
  2
BLOCKS
  0
BLOCK
  8
0
  2
_ORIGIN
 70
     0
 10
0.0
 20
0.0
 30
0.0
  3
_ORIGIN
  1
_ORIGIN
  0
CIRCLE
  8
0
  6
CONTINUOUS
 62
     7
 10
0.0
 20
0.0
 30
0.0
 40
0.5
  0
LINE
  8
0
  6
CONTINUOUS
 62
     7
 10
0.0
 20
0.0
 30
0.0
 11
-1.0
 21
0.0
 31
0.0
  0
ENDBLK
  8
0
  0
ENDSEC
  0
SECTION
  2
ENTITIES
  0
TEXT
  8
ETC
  6
CONTINUOUS
 62
    61
 10
879.88824171402553
 20
689.31608539089257
 30
0.0
 40
64.0
  1
VD-15ZVY6_2
 41
0.9
  0
TEXT
  8
ETC
  6
CONTINUOUS
 62
    61
 10
875.70224771402513
 20
571.36077537606116
 30
0.0
 40
64.0
  1
換気扇
 41
0.9
  0
TEXT
  8
ETC
  6
CONTINUOUS
 62
    61
 10
926.40364596258132
 20
463.21200248983598
 30
0.0
 40
40.0
  1
VD-15ZVY6
 41
0.9
  0
LINE
  8
NOTE
  6
CENTER
 62
     4
 10
-141.5
 20
-7.6895530000000463
 30
0.0
 11
-141.5
 21
12.85108300000002
 31
0.0
  0
LINE
  8
NOTE
  6
CENTER
 62
     4
 10
141.5
 20
-7.6895530000000463
 30
0.0
 11
141.5
 21
12.85108300000002
 31
0.0
  0
LINE
  8
NOTE
  6
CENTER
 62
     4
 10
-85.0
 20
-7.6895530000000463
 30
0.0
 11
-85.0
 21
12.85108300000002
 31
0.0
  0
LINE
  8
NOTE
  6
CENTER
 62
     4
 10
85.0
 20
-7.6895530000000463
 30
0.0
 11
85.0
 21
12.85108300000002
 31
0.0
  0
LINE
  8
NOTE
  6
CENTER
 62
     4
 10
66.638648186124556
 20
110.399902
 30
0.0
 11
-68.350162888543309
 21
110.399902
 31
0.0
  0
LINE
  8
BASIS
  6
DASHDOT
 62
     6
 10
0.0
 20
-71.930066104538128
 30
0.0
 11
0.0
 21
232.41503143259891
 31
0.0
  0
TEXT
  8
NOTE
  6
CONTINUOUS
 62
     4
 10
240.99049745976461
 20
394.10361121966531
 30
0.0
 40
64.0
  1
EL
 41
0.9
  0
LINE
  8
NOTE
  6
CONTINUOUS
 62
     4
 10
389.82084504760218
 20
382.04851360060138
 30
0.0
 11
221.29635352118271
 21
382.04851360055909
 31
0.0
  0
LINE
  8
NOTE
  6
CONTINUOUS
 62
     4
 10
103.99990095698131
 20
166.450098
 30
0.0
 11
221.29635352118271
 21
382.04851360055909
 31
0.0
  0
LINE
  8
NOTE
  6
CONTINUOUS
 62
     4
 10
103.99990095698131
 20
166.450098
 30
0.0
 11
132.07327500109361
 21
193.09404718745009
 31
0.0
  0
LINE
  8
NOTE
  6
CONTINUOUS
 62
     4
 10
111.30246335155969
 20
205.7081477038455
 30
0.0
 11
103.99990095698131
 21
166.450098
 31
0.0
  0
CIRCLE
  8
ARRANGE
  6
CONTINUOUS
 62
     1
 10
0.0
 20
0.0
 30
0.0
 40
40.0
  0
POINT
  8
ARRANGE
  6
CONTINUOUS
 62
     1
 10
0.0
 20
0.0
 30
0.0
 50
90.0
  0
CIRCLE
  8
FIX
  6
CONTINUOUS
 62
    11
 10
-141.5
 20
0.0
 30
0.0
 40
10.0
  0
CIRCLE
  8
FIX
  6
CONTINUOUS
 62
    11
 10
-85.0
 20
0.0
 30
0.0
 40
10.0
  0
CIRCLE
  8
FIX
  6
CONTINUOUS
 62
    11
 10
85.0
 20
0.0
 30
0.0
 40
10.0
  0
CIRCLE
  8
FIX
  6
CONTINUOUS
 62
    11
 10
141.5
 20
0.0
 30
0.0
 40
10.0
  0
LINE
  8
SIZE
  6
CONTINUOUS
 62
    30
 10
-125.5
 20
178.0500000000001
 30
0.0
 11
-125.4999999999999
 21
452.79631281616639
 31
0.0
  0
LINE
  8
SIZE
  6
CONTINUOUS
 62
    30
 10
125.5
 20
178.0500000000001
 30
0.0
 11
125.5
 21
452.79631281616639
 31
0.0
  0
LINE
  8
SIZE
  6
CONTINUOUS
 62
    30
 10
-113.4999999999999
 20
432.79631281616639
 30
0.0
 11
113.5
 21
432.79631281616639
 31
0.0
  0
CIRCLE
  8
SIZE
  6
CONTINUOUS
 62
    30
 10
-125.4999999999999
 20
432.79631281616639
 30
0.0
 40
6.0
  0
LINE
  8
SIZE
  6
CONTINUOUS
 62
    30
 10
-125.4999999999999
 20
432.79631281616639
 30
0.0
 11
-113.4999999999999
 21
432.79631281616639
 31
0.0
  0
CIRCLE
  8
SIZE
  6
CONTINUOUS
 62
    30
 10
125.5
 20
432.79631281616639
 30
0.0
 40
6.0
  0
LINE
  8
SIZE
  6
CONTINUOUS
 62
    30
 10
125.5
 20
432.79631281616639
 30
0.0
 11
113.5
 21
432.79631281616639
 31
0.0
  0
TEXT
  8
SIZE
  6
CONTINUOUS
 62
    30
 10
-98.194285714285726
 20
457.79631281616639
 30
0.0
 40
64.0
  1
□251
 41
0.9
 72
     1
 11
0.0
 21
457.79631281616639
 31
0.0
  0
POINT
  8
DEFPOINTS
  6
CONTINUOUS
 62
    30
 10
-125.5
 20
158.0500000000001
 30
0.0
  0
POINT
  8
DEFPOINTS
  6
CONTINUOUS
 62
    30
 10
125.5
 20
158.0500000000001
 30
0.0
  0
POINT
  8
DEFPOINTS
  6
CONTINUOUS
 62
    30
 10
125.5
 20
432.79631281616639
 30
0.0
  0
POINT
  8
DEFPOINTS
  6
CONTINUOUS
 62
    30
 10
59.500001999999988
 20
204.200186
 30
0.0
  0
POINT
  8
DEFPOINTS
  6
CONTINUOUS
 62
    30
 10
167.0
 20
0.0
 30
0.0
  0
LINE
  8
SIZE
  6
CONTINUOUS
 62
    30
 10
155.0
 20
-15.0
 30
0.0
 11
683.99298074231046
 21
-15.000000000000171
 31
0.0
  0
LINE
  8
SIZE
  6
CONTINUOUS
 62
    30
 10
663.99298074231046
 20
-27.000000000000171
 30
0.0
 11
663.99298074231046
 21
-174.28571428571439
 31
0.0
  0
LINE
  8
SIZE
  6
CONTINUOUS
 62
    30
 10
663.99298074231046
 20
-0.0000000000001137
 30
0.0
 11
663.99298074231046
 21
-15.000000000000171
 31
0.0
  0
CIRCLE
  8
SIZE
  6
CONTINUOUS
 62
    30
 10
663.99298074231046
 20
-15.000000000000171
 30
0.0
 40
6.0
  0
LINE
  8
SIZE
  6
CONTINUOUS
 62
    30
 10
663.99298074231046
 20
-15.000000000000171
 30
0.0
 11
663.99298074231046
 21
-27.000000000000171
 31
0.0
  0
TEXT
  8
SIZE
  6
CONTINUOUS
 62
    30
 10
638.99298074231046
 20
-149.28571428571439
 30
0.0
 40
64.0
  1
15
 50
90.0
 41
0.9
 72
     1
 11
638.99298074231046
 21
-108.1428571428572
 31
0.0
  0
POINT
  8
DEFPOINTS
  6
CONTINUOUS
 62
    30
 10
167.0
 20
0.0
 30
0.0
  0
POINT
  8
DEFPOINTS
  6
CONTINUOUS
 62
    30
 10
135.0
 20
-15.0
 30
0.0
  0
POINT
  8
DEFPOINTS
  6
CONTINUOUS
 62
    30
 10
663.99298074231046
 20
-15.000000000000171
 30
0.0
  0
LINE
  8
SIZE
  6
CONTINUOUS
 62
    30
 10
-85.0
 20
-27.68955300000005
 30
0.0
 11
-85.0
 21
-211.9287530209522
 31
0.0
  0
LINE
  8
SIZE
  6
CONTINUOUS
 62
    30
 10
85.0
 20
-27.68955300000005
 30
0.0
 11
85.0
 21
-211.9287530209522
 31
0.0
  0
LINE
  8
SIZE
  6
CONTINUOUS
 62
    30
 10
-97.0
 20
-191.9287530209522
 30
0.0
 11
-109.0
 21
-191.9287530209522
 31
0.0
  0
LINE
  8
SIZE
  6
CONTINUOUS
 62
    30
 10
97.0
 20
-191.9287530209522
 30
0.0
 11
109.0
 21
-191.9287530209522
 31
0.0
  0
LINE
  8
SIZE
  6
CONTINUOUS
 62
    30
 10
-85.0
 20
-191.9287530209522
 30
0.0
 11
85.0
 21
-191.9287530209522
 31
0.0
  0
CIRCLE
  8
SIZE
  6
CONTINUOUS
 62
    30
 10
-85.0
 20
-191.9287530209522
 30
0.0
 40
6.0
  0
LINE
  8
SIZE
  6
CONTINUOUS
 62
    30
 10
-85.0
 20
-191.9287530209522
 30
0.0
 11
-97.0
 21
-191.9287530209522
 31
0.0
  0
CIRCLE
  8
SIZE
  6
CONTINUOUS
 62
    30
 10
85.0
 20
-191.9287530209522
 30
0.0
 40
6.0
  0
LINE
  8
SIZE
  6
CONTINUOUS
 62
    30
 10
85.0
 20
-191.9287530209522
 30
0.0
 11
97.0
 21
-191.9287530209522
 31
0.0
  0
TEXT
  8
SIZE
  6
CONTINUOUS
 62
    30
 10
-68.571428571428569
 20
-166.9287530209522
 30
0.0
 40
64.0
  1
170
 41
0.9
 72
     1
 11
0.0
 21
-166.9287530209522
 31
0.0
  0
POINT
  8
DEFPOINTS
  6
CONTINUOUS
 62
    30
 10
-85.0
 20
-7.6895530000000463
 30
0.0
  0
POINT
  8
DEFPOINTS
  6
CONTINUOUS
 62
    30
 10
85.0
 20
-7.6895530000000463
 30
0.0
  0
POINT
  8
DEFPOINTS
  6
CONTINUOUS
 62
    30
 10
85.0
 20
-191.9287530209522
 30
0.0
  0
LINE
  8
SIZE
  6
CONTINUOUS
 62
    30
 10
-141.5
 20
-27.68955300000005
 30
0.0
 11
-141.5
 21
-331.59060550404052
 31
0.0
  0
LINE
  8
SIZE
  6
CONTINUOUS
 62
    30
 10
141.5
 20
-27.68955300000005
 30
0.0
 11
141.5
 21
-331.59060550404052
 31
0.0
  0
LINE
  8
SIZE
  6
CONTINUOUS
 62
    30
 10
-129.5
 20
-311.59060550404052
 30
0.0
 11
129.5
 21
-311.59060550404052
 31
0.0
  0
CIRCLE
  8
SIZE
  6
CONTINUOUS
 62
    30
 10
-141.5
 20
-311.59060550404052
 30
0.0
 40
6.0
  0
LINE
  8
SIZE
  6
CONTINUOUS
 62
    30
 10
-141.5
 20
-311.59060550404052
 30
0.0
 11
-129.5
 21
-311.59060550404052
 31
0.0
  0
CIRCLE
  8
SIZE
  6
CONTINUOUS
 62
    30
 10
141.5
 20
-311.59060550404052
 30
0.0
 40
6.0
  0
LINE
  8
SIZE
  6
CONTINUOUS
 62
    30
 10
141.5
 20
-311.59060550404052
 30
0.0
 11
129.5
 21
-311.59060550404052
 31
0.0
  0
TEXT
  8
SIZE
  6
CONTINUOUS
 62
    30
 10
-74.057142857142836
 20
-286.59060550404052
 30
0.0
 40
64.0
  1
283
 41
0.9
 72
     1
 11
0.0
 21
-286.59060550404052
 31
0.0
  0
POINT
  8
DEFPOINTS
  6
CONTINUOUS
 62
    30
 10
-141.5
 20
-7.6895530000000463
 30
0.0
  0
POINT
  8
DEFPOINTS
  6
CONTINUOUS
 62
    30
 10
141.5
 20
-7.6895530000000463
 30
0.0
  0
POINT
  8
DEFPOINTS
  6
CONTINUOUS
 62
    30
 10
141.5
 20
-311.59060550404052
 30
0.0
  0
LINE
  8
SIZE
  6
CONTINUOUS
 62
    30
 10
-167.0
 20
-20.526168000000101
 30
0.0
 11
-167.00000000000011
 21
-459.50709692640442
 31
0.0
  0
LINE
  8
SIZE
  6
CONTINUOUS
 62
    30
 10
167.0
 20
-20.500096999999979
 30
0.0
 11
167.0
 21
-459.50709692640442
 31
0.0
  0
LINE
  8
SIZE
  6
CONTINUOUS
 62
    30
 10
-155.00000000000011
 20
-439.50709692640442
 30
0.0
 11
155.0
 21
-439.50709692640442
 31
0.0
  0
CIRCLE
  8
SIZE
  6
CONTINUOUS
 62
    30
 10
-167.00000000000011
 20
-439.50709692640442
 30
0.0
 40
6.0
  0
LINE
  8
SIZE
  6
CONTINUOUS
 62
    30
 10
-167.00000000000011
 20
-439.50709692640442
 30
0.0
 11
-155.00000000000011
 21
-439.50709692640442
 31
0.0
  0
CIRCLE
  8
SIZE
  6
CONTINUOUS
 62
    30
 10
167.0
 20
-439.50709692640442
 30
0.0
 40
6.0
  0
LINE
  8
SIZE
  6
CONTINUOUS
 62
    30
 10
167.0
 20
-439.50709692640442
 30
0.0
 11
155.0
 21
-439.50709692640442
 31
0.0
  0
TEXT
  8
SIZE
  6
CONTINUOUS
 62
    30
 10
-111.90857142857151
 20
-414.50709692640442
 30
0.0
 40
64.0
  1
□334
 41
0.9
 72
     1
 11
-0.0000000000000568
 21
-414.50709692640442
 31
0.0
  0
POINT
  8
DEFPOINTS
  6
CONTINUOUS
 62
    30
 10
-167.0
 20
-0.5261680000000979
 30
0.0
  0
POINT
  8
DEFPOINTS
  6
CONTINUOUS
 62
    30
 10
167.0
 20
-0.5000969999999825
 30
0.0
  0
POINT
  8
DEFPOINTS
  6
CONTINUOUS
 62
    30
 10
167.0
 20
-439.50709692640442
 30
0.0
  0
LINE
  8
NOTE
  6
CONTINUOUS
 62
     4
 10
141.49999999999821
 20
0.0
 30
0.0
 11
376.78356798458481
 21
264.8116364789787
 31
0.0
  0
LINE
  8
NOTE
  6
CONTINUOUS
 62
     4
 10
141.49999999999821
 20
0.0
 30
0.0
 11
172.81274534757719
 21
22.683422418883421
 31
0.0
  0
LINE
  8
NOTE
  6
CONTINUOUS
 62
     4
 10
160.49527469402159
 20
35.19929633376114
 30
0.0
 11
141.49999999999821
 21
0.0
 31
0.0
  0
LINE
  8
SIZE
  6
CONTINUOUS
 62
    30
 10
-397.36990807329238
 20
340.36531232163969
 30
0.0
 11
-52.796236751026747
 21
140.95407331799771
 31
0.0
  0
LINE
  8
SIZE
  6
CONTINUOUS
 62
    30
 10
52.796236751026981
 20
79.845730682002454
 30
0.0
 11
63.182381685655173
 21
73.835074029281714
 31
0.0
  0
TEXT
  8
SIZE
  6
CONTINUOUS
 62
    30
 10
-375.55457988861627
 20
356.62500767332352
 30
0.0
 40
64.0
  1
φ98
 50
329.9412293816365
 41
0.9
 72
     1
 11
-300.29954116228163
 21
313.07350689818082
 31
0.0
  0
LINE
  8
SIZE
  6
CONTINUOUS
 62
    30
 10
42.41009181639879
 20
85.856387334723308
 30
0.0
 11
-42.410091816398563
 21
134.9434166652768
 31
0.0
  0
CIRCLE
  8
SIZE
  6
CONTINUOUS
 62
    30
 10
42.41009181639879
 20
85.856387334723308
 30
0.0
 40
6.0
  0
LINE
  8
SIZE
  6
CONTINUOUS
 62
    30
 10
42.41009181639879
 20
85.856387334723308
 30
0.0
 11
52.796236751026981
 21
79.845730682002454
 31
0.0
  0
CIRCLE
  8
SIZE
  6
CONTINUOUS
 62
    30
 10
-42.410091816398563
 20
134.9434166652768
 30
0.0
 40
6.0
  0
LINE
  8
SIZE
  6
CONTINUOUS
 62
    30
 10
-42.410091816398563
 20
134.9434166652768
 30
0.0
 11
-52.796236751026747
 21
140.95407331799771
 31
0.0
  0
POINT
  8
DEFPOINTS
  6
CONTINUOUS
 62
    30
 10
-42.410091816398563
 20
134.9434166652768
 30
0.0
  0
POINT
  8
DEFPOINTS
  6
CONTINUOUS
 62
    30
 10
42.41009181639879
 20
85.856387334723308
 30
0.0
  0
TEXT
  8
NOTE
  6
CONTINUOUS
 62
     4
 10
-36.384021390493217
 20
80.635429328613782
 30
0.0
 40
64.0
  1
EA
 41
0.9
  0
LINE
  8
SIZE
  6
CONTINUOUS
 62
    30
 10
86.638648186124556
 20
110.399997
 30
0.0
 11
560.19646697491589
 21
110.3999969999999
 31
0.0
  0
LINE
  8
SIZE
  6
CONTINUOUS
 62
    30
 10
187.0
 20
0.0
 30
0.0
 11
560.19646697491589
 21
-0.0000000000001137
 31
0.0
  0
LINE
  8
SIZE
  6
CONTINUOUS
 62
    30
 10
540.19646697491589
 20
98.399996999999871
 30
0.0
 11
540.19646697491589
 21
11.99999999999989
 31
0.0
  0
LINE
  8
SIZE
  6
CONTINUOUS
 62
    30
 10
540.19646697491589
 20
-0.0000000000001137
 30
0.0
 11
540.19646697491589
 21
-175.82857142857151
 31
0.0
  0
CIRCLE
  8
SIZE
  6
CONTINUOUS
 62
    30
 10
540.19646697491589
 20
110.3999969999999
 30
0.0
 40
6.0
  0
LINE
  8
SIZE
  6
CONTINUOUS
 62
    30
 10
540.19646697491589
 20
110.3999969999999
 30
0.0
 11
540.19646697491589
 21
98.399996999999871
 31
0.0
  0
CIRCLE
  8
SIZE
  6
CONTINUOUS
 62
    30
 10
540.19646697491589
 20
-0.0000000000001137
 30
0.0
 40
6.0
  0
LINE
  8
SIZE
  6
CONTINUOUS
 62
    30
 10
540.19646697491589
 20
-0.0000000000001137
 30
0.0
 11
540.19646697491589
 21
11.99999999999989
 31
0.0
  0
TEXT
  8
SIZE
  6
CONTINUOUS
 62
    30
 10
515.19646697491589
 20
-150.82857142857139
 30
0.0
 40
64.0
  1
111
 50
90.0
 41
0.9
 72
     1
 11
515.19646697491589
 21
-100.0857142857143
 31
0.0
  0
POINT
  8
DEFPOINTS
  6
CONTINUOUS
 62
    30
 10
66.638648186124556
 20
110.399997
 30
0.0
  0
POINT
  8
DEFPOINTS
  6
CONTINUOUS
 62
    30
 10
167.0
 20
0.0
 30
0.0
  0
POINT
  8
DEFPOINTS
  6
CONTINUOUS
 62
    30
 10
540.19646697491589
 20
-0.0000000000001137
 30
0.0
  0
LINE
  8
SIZE
  6
CONTINUOUS
 62
    30
 10
67.5
 20
55.399901999999997
 30
0.0
 11
435.63104259040119
 21
55.399901999999877
 31
0.0
  0
LINE
  8
SIZE
  6
CONTINUOUS
 62
    30
 10
187.0
 20
0.0
 30
0.0
 11
435.63104259040119
 21
-0.0000000000000568
 31
0.0
  0
LINE
  8
SIZE
  6
CONTINUOUS
 62
    30
 10
415.63104259040119
 20
67.399901999999884
 30
0.0
 11
415.63104259040119
 21
79.399901999999884
 31
0.0
  0
LINE
  8
SIZE
  6
CONTINUOUS
 62
    30
 10
415.63104259040119
 20
-12.00000000000006
 30
0.0
 11
415.63104259040108
 21
-167.25714285714301
 31
0.0
  0
LINE
  8
SIZE
  6
CONTINUOUS
 62
    30
 10
415.63104259040119
 20
55.399901999999877
 30
0.0
 11
415.63104259040119
 21
-0.0000000000000568
 31
0.0
  0
CIRCLE
  8
SIZE
  6
CONTINUOUS
 62
    30
 10
415.63104259040119
 20
55.399901999999877
 30
0.0
 40
6.0
  0
LINE
  8
SIZE
  6
CONTINUOUS
 62
    30
 10
415.63104259040119
 20
55.399901999999877
 30
0.0
 11
415.63104259040119
 21
67.399901999999884
 31
0.0
  0
CIRCLE
  8
SIZE
  6
CONTINUOUS
 62
    30
 10
415.63104259040119
 20
-0.0000000000000568
 30
0.0
 40
6.0
  0
LINE
  8
SIZE
  6
CONTINUOUS
 62
    30
 10
415.63104259040119
 20
-0.0000000000000568
 30
0.0
 11
415.63104259040119
 21
-12.00000000000006
 31
0.0
  0
TEXT
  8
SIZE
  6
CONTINUOUS
 62
    30
 10
390.63104259040119
 20
-142.2571428571429
 30
0.0
 40
64.0
  1
55
 50
90.0
 41
0.9
 72
     1
 11
390.63104259040119
 21
-95.62857142857149
 31
0.0
  0
POINT
  8
DEFPOINTS
  6
CONTINUOUS
 62
    30
 10
47.5
 20
55.399901999999997
 30
0.0
  0
POINT
  8
DEFPOINTS
  6
CONTINUOUS
 62
    30
 10
167.0
 20
0.0
 30
0.0
  0
POINT
  8
DEFPOINTS
  6
CONTINUOUS
 62
    30
 10
415.63104259040119
 20
-0.0000000000000568
 30
0.0
  0
LINE
  8
DETAIL
  6
CONTINUOUS
 62
     5
 10
-44.908052000000232
 20
43.399996999999978
 30
0.0
 11
0.0
 21
43.399996999999978
 31
0.0
  0
LINE
  8
DETAIL
  6
CONTINUOUS
 62
     5
 10
-44.908052000000232
 20
178.39999700000001
 30
0.0
 11
0.0
 21
178.39999700000001
 31
0.0
  0
LINE
  8
DETAIL
  6
CONTINUOUS
 62
     5
 10
-91.500015000000076
 20
180.59999400000001
 30
0.0
 11
0.0
 21
180.59999400000001
 31
0.0
  0
ARC
  8
DETAIL
  6
CONTINUOUS
 62
     5
 10
0.5023809523809746
 20
110.899997
 30
0.0
 40
53.002380952380953
 50
90.543083891370088
 51
269.45691610862991
  0
ARC
  8
DETAIL
  6
CONTINUOUS
 62
     5
 10
0.5023655533846068
 20
110.89964092847281
 30
0.0
 40
49.502365679574979
 50
90.519963228555994
 51
269.39884525627281
  0
LINE
  8
DETAIL
  6
CONTINUOUS
 62
     5
 10
-75.0
 20
148.30804900000001
 30
0.0
 11
-75.0
 21
73.491946000000098
 31
0.0
  0
ARC
  8
DETAIL
  6
CONTINUOUS
 62
     5
 10
-30.0
 20
133.39999700000001
 30
0.0
 40
48.5
 50
116.424392000005
 51
153.57560800000229
  0
ARC
  8
DETAIL
  6
CONTINUOUS
 62
     5
 10
-44.908052000000232
 20
163.39999700000001
 30
0.0
 40
15.0
 50
90.0
 51
116.424392000005
  0
ARC
  8
DETAIL
  6
CONTINUOUS
 62
     5
 10
-60.0
 20
148.30804900000001
 30
0.0
 40
15.0
 50
153.57560800000229
 51
180.0
  0
ARC
  8
DETAIL
  6
CONTINUOUS
 62
     5
 10
-30.0
 20
88.399996999999985
 30
0.0
 40
48.5
 50
206.42439199999771
 51
243.57560799999499
  0
ARC
  8
DETAIL
  6
CONTINUOUS
 62
     5
 10
-60.0
 20
73.491946000000098
 30
0.0
 40
15.0
 50
180.0
 51
206.42439199999771
  0
ARC
  8
DETAIL
  6
CONTINUOUS
 62
     5
 10
-44.908052000000232
 20
58.399996999999978
 30
0.0
 40
15.0
 50
243.57560799999499
 51
270.0
  0
LINE
  8
DETAIL
  6
CONTINUOUS
 62
     5
 10
-63.0
 20
70.899996999999985
 30
0.0
 11
-63.0
 21
150.89999700000001
 31
0.0
  0
ARC
  8
DETAIL
  6
CONTINUOUS
 62
     5
 10
-47.5
 20
70.899996999999985
 30
0.0
 40
15.5
 50
180.0
 51
270.0
  0
ARC
  8
DETAIL
  6
CONTINUOUS
 62
     5
 10
-47.5
 20
150.89999700000001
 30
0.0
 40
15.5
 50
90.0
 51
180.0
  0
LINE
  8
DETAIL
  6
CONTINUOUS
 62
     5
 10
-91.500015000000076
 20
180.59999400000001
 30
0.0
 11
-91.500015000000076
 21
0.0
 31
0.0
  0
LINE
  8
DETAIL
  6
CONTINUOUS
 62
     5
 10
-47.5
 20
166.39999700000001
 30
0.0
 11
0.0
 21
166.39999700000001
 31
0.0
  0
LINE
  8
DETAIL
  6
CONTINUOUS
 62
     5
 10
-47.5
 20
55.399996999999978
 30
0.0
 11
0.0
 21
55.399996999999978
 31
0.0
  0
ARC
  8
DETAIL
  6
CONTINUOUS
 62
     5
 10
-11.49999800000001
 20
198.700186
 30
0.0
 40
5.5
 50
90.0
 51
180.0
  0
LINE
  8
DETAIL
  6
CONTINUOUS
 62
     5
 10
-16.999998000000009
 20
198.700186
 30
0.0
 11
-16.999998000000009
 21
180.59999400000001
 31
0.0
  0
ARC
  8
DETAIL
  6
CONTINUOUS
 62
     5
 10
59.500001999999988
 20
198.700186
 30
0.0
 40
5.5
 50
0.0
 51
90.0
  0
LINE
  8
DETAIL
  6
CONTINUOUS
 62
     5
 10
59.500001999999988
 20
204.200186
 30
0.0
 11
-11.49999800000001
 21
204.200186
 31
0.0
  0
ARC
  8
DETAIL
  6
CONTINUOUS
 62
     5
 10
-166.0
 20
-1.500096999999982
 30
0.0
 40
1.0
 50
0.0
 51
90.0
  0
LINE
  8
DETAIL
  6
CONTINUOUS
 62
     5
 10
-167.0
 20
-0.5000969999999825
 30
0.0
 11
0.0
 21
-0.5000969999999825
 31
0.0
  0
LINE
  8
DETAIL
  6
CONTINUOUS
 62
     5
 10
-165.0
 20
-1.500096999999982
 30
0.0
 11
-165.0
 21
-6.9677729999999656
 31
0.0
  0
LINE
  8
DETAIL
  6
CONTINUOUS
 62
     5
 10
-167.0
 20
0.0
 30
0.0
 11
-167.0
 21
-0.5000969999999825
 31
0.0
  0
ARC
  8
DETAIL
  6
CONTINUOUS
 62
     5
 10
-163.0
 20
-6.9677729999999656
 30
0.0
 40
2.0
 50
179.99996300000021
 51
245.68372399999319
  0
ARC
  8
DETAIL
  6
CONTINUOUS
 62
     5
 10
-135.0
 20
55.0
 30
0.0
 40
70.0
 50
245.6843249999998
 51
270.00007199999681
  0
LINE
  8
DETAIL
  6
CONTINUOUS
 62
     5
 10
0.0
 20
0.0
 30
0.0
 11
-167.0
 21
0.0
 31
0.0
  0
LINE
  8
DETAIL
  6
CONTINUOUS
 62
     5
 10
-123.949924
 20
166.45019199999999
 30
0.0
 11
-91.499937000000045
 21
166.45019199999999
 31
0.0
  0
LINE
  8
DETAIL
  6
CONTINUOUS
 62
     5
 10
-125.199924
 20
159.750192
 30
0.0
 11
-125.199924
 21
165.20019199999999
 31
0.0
  0
ARC
  8
DETAIL
  6
CONTINUOUS
 62
     5
 10
-123.949924
 20
165.20019199999999
 30
0.0
 40
1.25
 50
90.0
 51
180.0
  0
ARC
  8
DETAIL
  6
CONTINUOUS
 62
     5
 10
-123.949924
 20
159.750192
 30
0.0
 40
1.25
 50
180.0
 51
270.0
  0
LINE
  8
DETAIL
  6
CONTINUOUS
 62
     5
 10
-125.5
 20
1.000095000000101
 30
0.0
 11
-125.5
 21
158.0500950000002
 31
0.0
  0
ARC
  8
DETAIL
  6
CONTINUOUS
 62
     5
 10
-126.5
 20
1.000095000000101
 30
0.0
 40
1.0
 50
270.0
 51
0.0
  0
ARC
  8
DETAIL
  6
CONTINUOUS
 62
     5
 10
-125.05
 20
158.0500950000002
 30
0.0
 40
0.45
 50
90.0
 51
180.0
  0
LINE
  8
DETAIL
  6
CONTINUOUS
 62
     5
 10
-91.499937000000045
 20
158.50009499999999
 30
0.0
 11
-125.05
 21
158.50009499999999
 31
0.0
  0
LINE
  8
DETAIL
  6
CONTINUOUS
 62
     5
 10
-135.0
 20
-15.0
 30
0.0
 11
0.0
 21
-15.0
 31
0.0
  0
LINE
  8
DETAIL
  6
CONTINUOUS
 62
     5
 10
44.908050999999887
 20
43.399996999999978
 30
0.0
 11
0.0
 21
43.399996999999978
 31
0.0
  0
LINE
  8
DETAIL
  6
CONTINUOUS
 62
     5
 10
44.908050999999887
 20
178.39999700000001
 30
0.0
 11
0.0
 21
178.39999700000001
 31
0.0
  0
ARC
  8
DETAIL
  6
CONTINUOUS
 62
     5
 10
-0.5023809523809746
 20
110.899997
 30
0.0
 40
53.002380952380953
 50
270.54308389137009
 51
89.456916108629912
  0
ARC
  8
DETAIL
  6
CONTINUOUS
 62
     5
 10
-0.5023655533846068
 20
110.89964092847281
 30
0.0
 40
49.502365679574979
 50
270.60115474372719
 51
89.480036771444006
  0
LINE
  8
DETAIL
  6
CONTINUOUS
 62
     5
 10
75.0
 20
148.30804900000001
 30
0.0
 11
75.0
 21
73.491946000000098
 31
0.0
  0
ARC
  8
DETAIL
  6
CONTINUOUS
 62
     5
 10
30.0
 20
133.39999700000001
 30
0.0
 40
48.5
 50
26.424391999997759
 51
63.575607999994958
  0
ARC
  8
DETAIL
  6
CONTINUOUS
 62
     5
 10
44.908050999999887
 20
163.39999700000001
 30
0.0
 40
15.0
 50
63.575607999994958
 51
90.0
  0
ARC
  8
DETAIL
  6
CONTINUOUS
 62
     5
 10
60.0
 20
148.30804900000001
 30
0.0
 40
15.0
 50
0.0
 51
26.424391999997759
  0
ARC
  8
DETAIL
  6
CONTINUOUS
 62
     5
 10
30.0
 20
88.399996999999985
 30
0.0
 40
48.5
 50
296.42439200000501
 51
333.57560800000232
  0
ARC
  8
DETAIL
  6
CONTINUOUS
 62
     5
 10
60.0
 20
73.491946000000098
 30
0.0
 40
15.0
 50
333.57560800000232
 51
0.0
  0
ARC
  8
DETAIL
  6
CONTINUOUS
 62
     5
 10
44.908050999999887
 20
58.399996999999978
 30
0.0
 40
15.0
 50
270.0
 51
296.42439200000501
  0
LINE
  8
DETAIL
  6
CONTINUOUS
 62
     5
 10
63.0
 20
70.899996999999985
 30
0.0
 11
63.0
 21
150.89999700000001
 31
0.0
  0
ARC
  8
DETAIL
  6
CONTINUOUS
 62
     5
 10
47.5
 20
70.899996999999985
 30
0.0
 40
15.5
 50
270.0
 51
0.0
  0
ARC
  8
DETAIL
  6
CONTINUOUS
 62
     5
 10
47.5
 20
150.89999700000001
 30
0.0
 40
15.5
 50
0.0
 51
90.0
  0
LINE
  8
DETAIL
  6
CONTINUOUS
 62
     5
 10
47.5
 20
166.39999700000001
 30
0.0
 11
0.0
 21
166.39999700000001
 31
0.0
  0
LINE
  8
DETAIL
  6
CONTINUOUS
 62
     5
 10
47.5
 20
55.399996999999978
 30
0.0
 11
0.0
 21
55.399996999999978
 31
0.0
  0
ARC
  8
DETAIL
  6
CONTINUOUS
 62
     5
 10
166.0
 20
-1.500096999999982
 30
0.0
 40
1.0
 50
90.0
 51
180.0
  0
LINE
  8
DETAIL
  6
CONTINUOUS
 62
     5
 10
167.0
 20
-0.5000969999999825
 30
0.0
 11
0.0
 21
-0.5000969999999825
 31
0.0
  0
LINE
  8
DETAIL
  6
CONTINUOUS
 62
     5
 10
165.0
 20
-1.500096999999982
 30
0.0
 11
165.0
 21
-6.9677729999999656
 31
0.0
  0
LINE
  8
DETAIL
  6
CONTINUOUS
 62
     5
 10
167.0
 20
0.0
 30
0.0
 11
167.0
 21
-0.5000969999999825
 31
0.0
  0
ARC
  8
DETAIL
  6
CONTINUOUS
 62
     5
 10
163.0
 20
-6.9677729999999656
 30
0.0
 40
2.0
 50
294.31627600000678
 51
0.0000369999998155
  0
ARC
  8
DETAIL
  6
CONTINUOUS
 62
     5
 10
135.0
 20
55.0
 30
0.0
 40
70.0
 50
269.99992800000319
 51
294.31567500000023
  0
LINE
  8
DETAIL
  6
CONTINUOUS
 62
     5
 10
0.0
 20
0.0
 30
0.0
 11
167.0
 21
0.0
 31
0.0
  0
LINE
  8
DETAIL
  6
CONTINUOUS
 62
     5
 10
123.9499239999998
 20
166.45019199999999
 30
0.0
 11
89.0
 21
166.45019199999999
 31
0.0
  0
LINE
  8
DETAIL
  6
CONTINUOUS
 62
     5
 10
125.1999239999998
 20
159.750192
 30
0.0
 11
125.1999239999998
 21
165.20019199999999
 31
0.0
  0
ARC
  8
DETAIL
  6
CONTINUOUS
 62
     5
 10
123.9499239999998
 20
165.20019199999999
 30
0.0
 40
1.25
 50
0.0
 51
90.0
  0
ARC
  8
DETAIL
  6
CONTINUOUS
 62
     5
 10
123.9499239999998
 20
159.750192
 30
0.0
 40
1.25
 50
270.0
 51
0.0
  0
LINE
  8
DETAIL
  6
CONTINUOUS
 62
     5
 10
125.5
 20
1.000095000000101
 30
0.0
 11
125.5
 21
158.0500950000002
 31
0.0
  0
ARC
  8
DETAIL
  6
CONTINUOUS
 62
     5
 10
126.5
 20
1.000095000000101
 30
0.0
 40
1.0
 50
180.0
 51
270.0
  0
ARC
  8
DETAIL
  6
CONTINUOUS
 62
     5
 10
125.05
 20
158.0500950000002
 30
0.0
 40
0.45
 50
0.0
 51
90.0
  0
LINE
  8
DETAIL
  6
CONTINUOUS
 62
     5
 10
89.0
 20
158.50009499999999
 30
0.0
 11
125.05
 21
158.50009499999999
 31
0.0
  0
LINE
  8
DETAIL
  6
CONTINUOUS
 62
     5
 10
135.0
 20
-15.0
 30
0.0
 11
0.0
 21
-15.0
 31
0.0
  0
LINE
  8
DETAIL
  6
CONTINUOUS
 62
     5
 10
65.000001999999995
 20
198.700186
 30
0.0
 11
65.000001999999995
 21
180.59999400000001
 31
0.0
  0
ARC
  8
OUTLINE
  6
CONTINUOUS
 62
     3
 10
-11.49999800000001
 20
198.700186
 30
0.0
 40
5.5
 50
90.0
 51
180.0
  0
ARC
  8
OUTLINE
  6
CONTINUOUS
 62
     3
 10
59.500001999999988
 20
198.700186
 30
0.0
 40
5.5
 50
0.0
 51
90.0
  0
LINE
  8
OUTLINE
  6
CONTINUOUS
 62
     3
 10
59.500001999999988
 20
204.200186
 30
0.0
 11
-11.49999800000001
 21
204.200186
 31
0.0
  0
LINE
  8
OUTLINE
  6
CONTINUOUS
 62
     3
 10
-165.0
 20
-1.500096999999982
 30
0.0
 11
-165.0
 21
-6.9677729999999656
 31
0.0
  0
LINE
  8
OUTLINE
  6
CONTINUOUS
 62
     3
 10
-167.0
 20
0.0
 30
0.0
 11
-167.0
 21
-0.5000969999999825
 31
0.0
  0
ARC
  8
OUTLINE
  6
CONTINUOUS
 62
     3
 10
-163.0
 20
-6.9677729999999656
 30
0.0
 40
2.0
 50
179.99996300000021
 51
245.68372399999319
  0
ARC
  8
OUTLINE
  6
CONTINUOUS
 62
     3
 10
-135.0
 20
55.000000000000107
 30
0.0
 40
70.0
 50
245.6843249999998
 51
270.00007199999681
  0
LINE
  8
OUTLINE
  6
CONTINUOUS
 62
     3
 10
-125.199924
 20
159.750192
 30
0.0
 11
-125.199924
 21
165.20019199999999
 31
0.0
  0
ARC
  8
OUTLINE
  6
CONTINUOUS
 62
     3
 10
-123.949924
 20
165.20019199999999
 30
0.0
 40
1.25
 50
90.0
 51
180.0
  0
ARC
  8
OUTLINE
  6
CONTINUOUS
 62
     3
 10
-123.949924
 20
159.750192
 30
0.0
 40
1.25
 50
180.0
 51
270.0
  0
ARC
  8
OUTLINE
  6
CONTINUOUS
 62
     3
 10
-125.05
 20
158.0500950000002
 30
0.0
 40
0.45
 50
90.0
 51
180.0
  0
LINE
  8
OUTLINE
  6
CONTINUOUS
 62
     3
 10
-135.0
 20
-15.0
 30
0.0
 11
0.0
 21
-15.0
 31
0.0
  0
LINE
  8
OUTLINE
  6
CONTINUOUS
 62
     3
 10
165.0
 20
-1.500096999999982
 30
0.0
 11
165.0
 21
-6.9677729999999656
 31
0.0
  0
LINE
  8
OUTLINE
  6
CONTINUOUS
 62
     3
 10
167.0
 20
0.0
 30
0.0
 11
167.0
 21
-0.5000969999999825
 31
0.0
  0
ARC
  8
OUTLINE
  6
CONTINUOUS
 62
     3
 10
163.0
 20
-6.9677729999999656
 30
0.0
 40
2.0
 50
294.31627600000678
 51
0.0000369999998155
  0
ARC
  8
OUTLINE
  6
CONTINUOUS
 62
     3
 10
135.0
 20
55.000000000000107
 30
0.0
 40
70.0
 50
269.99992800000319
 51
294.31567500000023
  0
LINE
  8
OUTLINE
  6
CONTINUOUS
 62
     3
 10
125.1999239999998
 20
159.750192
 30
0.0
 11
125.1999239999998
 21
165.20019199999999
 31
0.0
  0
ARC
  8
OUTLINE
  6
CONTINUOUS
 62
     3
 10
123.9499239999998
 20
165.20019199999999
 30
0.0
 40
1.25
 50
0.0
 51
90.0
  0
ARC
  8
OUTLINE
  6
CONTINUOUS
 62
     3
 10
123.9499239999998
 20
159.750192
 30
0.0
 40
1.25
 50
270.0
 51
0.0
  0
ARC
  8
OUTLINE
  6
CONTINUOUS
 62
     3
 10
125.05
 20
158.0500950000002
 30
0.0
 40
0.45
 50
0.0
 51
90.0
  0
LINE
  8
OUTLINE
  6
CONTINUOUS
 62
     3
 10
135.0
 20
-15.0
 30
0.0
 11
0.0
 21
-15.0
 31
0.0
  0
LINE
  8
OUTLINE
  6
CONTINUOUS
 62
     3
 10
123.9499239999998
 20
158.50009499999999
 30
0.0
 11
125.05
 21
158.50009499999999
 31
0.0
  0
LINE
  8
OUTLINE
  6
CONTINUOUS
 62
     3
 10
123.9499239999998
 20
166.45019199999999
 30
0.0
 11
89.0
 21
166.450098
 31
0.0
  0
LINE
  8
OUTLINE
  6
CONTINUOUS
 62
     3
 10
-123.949924
 20
166.45019199999999
 30
0.0
 11
-91.500015000000076
 21
166.45019199999999
 31
0.0
  0
LINE
  8
OUTLINE
  6
CONTINUOUS
 62
     3
 10
-91.500015000000076
 20
180.59999400000001
 30
0.0
 11
-91.500015000000076
 21
166.45019199999999
 31
0.0
  0
LINE
  8
OUTLINE
  6
CONTINUOUS
 62
     3
 10
-123.949924
 20
158.50009499999999
 30
0.0
 11
-125.05
 21
158.50009499999999
 31
0.0
  0
LINE
  8
OUTLINE
  6
CONTINUOUS
 62
     3
 10
-167.0
 20
-0.5000969999999825
 30
0.0
 11
-166.0
 21
-0.5000969999999825
 31
0.0
  0
ARC
  8
OUTLINE
  6
CONTINUOUS
 62
     3
 10
-166.0
 20
-1.500096999999982
 30
0.0
 40
1.0
 50
0.0
 51
90.0
  0
LINE
  8
OUTLINE
  6
CONTINUOUS
 62
     3
 10
-125.5
 20
0.0
 30
0.0
 11
-167.0
 21
0.0
 31
0.0
  0
LINE
  8
OUTLINE
  6
CONTINUOUS
 62
     3
 10
-125.5
 20
0.0
 30
0.0
 11
-125.5
 21
158.0500950000002
 31
0.0
  0
LINE
  8
OUTLINE
  6
CONTINUOUS
 62
     3
 10
167.0
 20
-0.5000969999999825
 30
0.0
 11
166.0
 21
-0.5000969999999825
 31
0.0
  0
ARC
  8
OUTLINE
  6
CONTINUOUS
 62
     3
 10
166.0
 20
-1.500096999999982
 30
0.0
 40
1.0
 50
90.0
 51
180.0
  0
LINE
  8
OUTLINE
  6
CONTINUOUS
 62
     3
 10
125.5
 20
0.0
 30
0.0
 11
167.0
 21
0.0
 31
0.0
  0
LINE
  8
OUTLINE
  6
CONTINUOUS
 62
     3
 10
125.5
 20
0.0
 30
0.0
 11
125.5
 21
158.0500950000002
 31
0.0
  0
LINE
  8
OUTLINE
  6
CONTINUOUS
 62
     3
 10
65.000001999999995
 20
198.700186
 30
0.0
 11
65.000001999999995
 21
180.59999400000001
 31
0.0
  0
LINE
  8
OUTLINE
  6
CONTINUOUS
 62
     3
 10
-91.500015000000076
 20
180.59999400000001
 30
0.0
 11
-16.999998000000009
 21
180.59999400000001
 31
0.0
  0
LINE
  8
OUTLINE
  6
CONTINUOUS
 62
     3
 10
-16.999998000000009
 20
198.700186
 30
0.0
 11
-16.999998000000009
 21
180.59999400000001
 31
0.0
  0
LINE
  8
NOTE
  6
CENTER
 62
     4
 10
104.0
 20
154.4695320000001
 30
0.0
 11
104.0
 21
173.38490300000001
 31
0.0
  0
LINE
  8
SIZE
  6
CONTINUOUS
 62
    30
 10
-484.38433241783332
 20
177.20934068970271
 30
0.0
 11
-63.895103693838053
 21
119.21281289241939
 31
0.0
  0
LINE
  8
SIZE
  6
CONTINUOUS
 62
    30
 10
63.895103693838109
 20
101.58718110758061
 30
0.0
 11
75.78256484617998
 21
99.947587453176993
 31
0.0
  0
TEXT
  8
SIZE
  6
CONTINUOUS
 62
    30
 10
-470.33206492103977
 20
200.50783881583189
 30
0.0
 40
64.0
  1
φ105
 50
352.14695232602003
 41
0.9
 72
     1
 11
-362.46184600721671
 21
185.62969754044391
 31
0.0
  0
LINE
  8
SIZE
  6
CONTINUOUS
 62
    30
 10
52.007642541496118
 20
103.2267747619842
 30
0.0
 11
-52.007642541496118
 21
117.5732192380157
 31
0.0
  0
CIRCLE
  8
SIZE
  6
CONTINUOUS
 62
    30
 10
52.007642541496118
 20
103.2267747619842
 30
0.0
 40
6.0
  0
LINE
  8
SIZE
  6
CONTINUOUS
 62
    30
 10
52.007642541496118
 20
103.2267747619842
 30
0.0
 11
63.895103693838109
 21
101.58718110758061
 31
0.0
  0
CIRCLE
  8
SIZE
  6
CONTINUOUS
 62
    30
 10
-52.007642541496118
 20
117.5732192380157
 30
0.0
 40
6.0
  0
LINE
  8
SIZE
  6
CONTINUOUS
 62
    30
 10
-52.007642541496118
 20
117.5732192380157
 30
0.0
 11
-63.895103693838053
 21
119.21281289241929
 31
0.0
  0
POINT
  8
DEFPOINTS
  6
CONTINUOUS
 62
    30
 10
-52.007642541496118
 20
117.5732192380157
 30
0.0
  0
POINT
  8
DEFPOINTS
  6
CONTINUOUS
 62
    30
 10
52.007642541496118
 20
103.2267747619842
 30
0.0
  0
LINE
  8
DETAIL
  6
CONTINUOUS
 62
     5
 10
77.5
 20
180.59989999999991
 30
0.0
 11
0.0
 21
180.59989999999991
 31
0.0
  0
ARC
  8
DETAIL
  6
CONTINUOUS
 62
     5
 10
77.5
 20
169.09989999999991
 30
0.0
 40
11.5
 50
0.0
 51
90.0
  0
LINE
  8
OUTLINE
  6
CONTINUOUS
 62
     3
 10
78.249969499999906
 20
180.59989999999991
 30
0.0
 11
64.999923999999737
 21
180.59989999999991
 31
0.0
  0
LINE
  8
DETAIL
  6
CONTINUOUS
 62
     5
 10
89.0
 20
124.5
 30
0.0
 11
89.0
 21
169.09989999999991
 31
0.0
  0
ARC
  8
DETAIL
  6
CONTINUOUS
 62
     5
 10
99.0
 20
124.5
 30
0.0
 40
10.0
 50
180.0
 51
270.0
  0
LINE
  8
DETAIL
  6
CONTINUOUS
 62
     5
 10
99.0
 20
114.5
 30
0.0
 11
125.5
 21
114.5
 31
0.0
  0
ARC
  8
OUTLINE
  6
CONTINUOUS
 62
     3
 10
77.5
 20
169.09989999999991
 30
0.0
 40
11.5
 50
0.0
 51
90.0
  0
LINE
  8
OUTLINE
  6
CONTINUOUS
 62
     3
 10
89.0
 20
166.450098
 30
0.0
 11
89.0
 21
169.09989999999991
 31
0.0
  0
TEXT
  8
NOTE
  6
CONTINUOUS
 62
     4
 10
405.20927985563958
 20
295.13444388202311
 30
0.0
 40
63.999999999999993
  1
8-φ5×8
 41
0.9
  0
LINE
  8
NOTE
  6
CONTINUOUS
 62
     4
 10
805.67981055010159
 20
264.81163715539572
 30
0.0
 11
376.78356683733051
 21
264.81167363437447
 31
0.0
  0
LINE
  8
SIZE
  6
CONTINUOUS
 62
    30
 10
79.500001999999995
 20
204.200186
 30
0.0
 11
683.99298074231046
 21
204.20018599999989
 31
0.0
  0
LINE
  8
SIZE
  6
CONTINUOUS
 62
    30
 10
187.0
 20
0.0
 30
0.0
 11
683.99298074231046
 21
-0.0000000000001705
 31
0.0
  0
LINE
  8
SIZE
  6
CONTINUOUS
 62
    30
 10
663.99298074231046
 20
192.20018599999989
 30
0.0
 11
663.99298074231046
 21
11.99999999999989
 31
0.0
  0
CIRCLE
  8
SIZE
  6
CONTINUOUS
 62
    30
 10
663.99298074231046
 20
204.20018599999989
 30
0.0
 40
6.0
  0
LINE
  8
SIZE
  6
CONTINUOUS
 62
    30
 10
663.99298074231046
 20
204.20018599999989
 30
0.0
 11
663.99298074231046
 21
192.20018599999989
 31
0.0
  0
CIRCLE
  8
SIZE
  6
CONTINUOUS
 62
    30
 10
663.99298074231046
 20
-0.0000000000001137
 30
0.0
 40
6.0
  0
LINE
  8
SIZE
  6
CONTINUOUS
 62
    30
 10
663.99298074231046
 20
-0.0000000000001137
 30
0.0
 11
663.99298074231046
 21
11.99999999999989
 31
0.0
  0
TEXT
  8
SIZE
  6
CONTINUOUS
 62
    30
 10
638.99298074231046
 20
26.671521571428599
 30
0.0
 40
64.0
  1
204
 50
90.0
 41
0.9
 72
     1
 11
638.99298074231046
 21
102.100093
 31
0.0
  0
POINT
  8
DEFPOINTS
  6
CONTINUOUS
 62
    30
 10
59.500001999999988
 20
204.200186
 30
0.0
  0
POINT
  8
DEFPOINTS
  6
CONTINUOUS
 62
    30
 10
167.0
 20
0.0
 30
0.0
  0
POINT
  8
DEFPOINTS
  6
CONTINUOUS
 62
    30
 10
663.99298074231046
 20
-0.0000000000001137
 30
0.0
  0
ENDSEC
  0
EOF
