  0
SECTION
  2
HEADER
  9
$ACADVER
  1
AC1009
  9
$DWGCODEPAGE
  3
dos932
  9
$INSBASE
 10
0.0
 20
0.0
 30
0.0
  9
$EXTMIN
 10
-787.18412669513418
 20
-419.12840623307062
 30
-0.0015258207003583
  9
$EXTMAX
 10
1254.418957145439
 20
811.66077488062547
 30
0.0000000349246037
  9
$LIMMIN
 10
-2970.0
 20
-2100.0
  9
$LIMMAX
 10
2970.0
 20
2100.0
  9
$ORTHOMODE
 70
     1
  9
$REGENMODE
 70
     1
  9
$FILLMODE
 70
     1
  9
$QTEXTMODE
 70
     0
  9
$MIRRTEXT
 70
     0
  9
$LTSCALE
 40
20.0
  9
$ATTMODE
 70
     1
  9
$TEXTSIZE
 40
64.0
  9
$TRACEWID
 40
0.05
  9
$TEXTSTYLE
  7
STANDARD
  9
$CLAYER
  8
SIZE
  9
$CELTYPE
  6
CONTINUOUS
  9
$CECOLOR
 62
     7
  9
$DIMSCALE
 40
1.0
  9
$DIMASZ
 40
12.0
  9
$DIMEXO
 40
20.0
  9
$DIMDLI
 40
200.0
  9
$DIMRND
 40
0.0
  9
$DIMDLE
 40
0.0
  9
$DIMEXE
 40
20.0
  9
$DIMTP
 40
0.0
  9
$DIMTM
 40
0.0
  9
$DIMTXT
 40
64.0
  9
$DIMCEN
 40
0.09
  9
$DIMTSZ
 40
0.0
  9
$DIMTOL
 70
     0
  9
$DIMLIM
 70
     0
  9
$DIMTIH
 70
     0
  9
$DIMTOH
 70
     0
  9
$DIMSE1
 70
     0
  9
$DIMSE2
 70
     0
  9
$DIMTAD
 70
     1
  9
$DIMZIN
 70
     8
  9
$DIMBLK
  1

  9
$DIMASO
 70
     1
  9
$DIMSHO
 70
     0
  9
$DIMPOST
  1

  9
$DIMAPOST
  1

  9
$DIMALT
 70
     0
  9
$DIMALTD
 70
     2
  9
$DIMALTF
 40
25.399999999999999
  9
$DIMLFAC
 40
1.0
  9
$DIMTOFL
 70
     1
  9
$DIMTVP
 40
0.0
  9
$DIMTIX
 70
     1
  9
$DIMSOXD
 70
     0
  9
$DIMSAH
 70
     0
  9
$DIMBLK1
  1

  9
$DIMBLK2
  1

  9
$DIMSTYLE
  2
STANDARD
  9
$DIMCLRD
 70
     7
  9
$DIMCLRE
 70
     7
  9
$DIMCLRT
 70
     7
  9
$DIMTFAC
 40
1.0
  9
$DIMGAP
 40
25.0
  9
$LUNITS
 70
     2
  9
$LUPREC
 70
     4
  9
$SKETCHINC
 40
0.1
  9
$FILLETRAD
 40
3.0
  9
$AUNITS
 70
     1
  9
$AUPREC
 70
     3
  9
$MENU
  1
ACAD
  9
$ELEVATION
 40
0.0
  9
$PELEVATION
 40
0.0
  9
$THICKNESS
 40
0.0
  9
$LIMCHECK
 70
     0
  9
$CHAMFERA
 40
0.0
  9
$CHAMFERB
 40
0.0
  9
$SKPOLY
 70
     0
  9
$TDCREATE
 40
2453019.62301037
  9
$TDUPDATE
 40
2459025.504453275
  9
$TDINDWG
 40
1.7135460764
  9
$TDUSRTIMER
 40
1.7135460764
  9
$USRTIMER
 70
     1
  9
$ANGBASE
 50
0.0
  9
$ANGDIR
 70
     0
  9
$PDMODE
 70
     3
  9
$PDSIZE
 40
-2.0
  9
$PLINEWID
 40
0.0
  9
$SPLFRAME
 70
     0
  9
$SPLINETYPE
 70
     6
  9
$SPLINESEGS
 70
     8
  9
$SURFTAB1
 70
     6
  9
$SURFTAB2
 70
     6
  9
$SURFTYPE
 70
     6
  9
$SURFU
 70
     6
  9
$SURFV
 70
     6
  9
$UCSNAME
  2

  9
$UCSORG
 10
0.0
 20
0.0
 30
0.0
  9
$UCSXDIR
 10
1.0
 20
0.0
 30
0.0
  9
$UCSYDIR
 10
0.0
 20
1.0
 30
0.0
  9
$PUCSNAME
  2

  9
$PUCSORG
 10
0.0
 20
0.0
 30
0.0
  9
$PUCSXDIR
 10
1.0
 20
0.0
 30
0.0
  9
$PUCSYDIR
 10
0.0
 20
1.0
 30
0.0
  9
$USERI1
 70
     0
  9
$USERI2
 70
     0
  9
$USERI3
 70
     0
  9
$USERI4
 70
     0
  9
$USERI5
 70
     0
  9
$USERR1
 40
20.0
  9
$USERR2
 40
0.0
  9
$USERR3
 40
0.0
  9
$USERR4
 40
0.0
  9
$USERR5
 40
0.0
  9
$WORLDVIEW
 70
     1
  9
$SHADEDGE
 70
     3
  9
$SHADEDIF
 70
    70
  9
$TILEMODE
 70
     1
  9
$MAXACTVP
 70
    48
  9
$PINSBASE
 10
0.0
 20
0.0
 30
0.0
  9
$PLIMCHECK
 70
     0
  9
$PEXTMIN
 10
-100000000000000000000.0
 20
-100000000000000000000.0
 30
-100000000000000000000.0
  9
$PEXTMAX
 10
100000000000000000000.0
 20
100000000000000000000.0
 30
100000000000000000000.0
  9
$PLIMMIN
 10
0.0
 20
0.0
  9
$PLIMMAX
 10
12.0
 20
9.0
  9
$UNITMODE
 70
     0
  9
$VISRETAIN
 70
     0
  9
$PLINEGEN
 70
     0
  9
$PSLTSCALE
 70
     0
  9
$TREEDEPTH
 70
  3020
  9
$ATTDIA
 70
     0
  9
$ATTREQ
 70
     1
  9
$BLIPMODE
 70
     1
  9
$COORDS
 70
     1
  9
$DRAGMODE
 70
     2
  9
$OSMODE
 70
     0
  9
$HANDLING
 70
     0
  9
$HANDSEED
  5
F462
  0
ENDSEC
  0
SECTION
  2
TABLES
  0
TABLE
  2
LTYPE
 70
     3
  0
LTYPE
  2
CONTINUOUS
 70
     0
  3
実線
 72
    65
 73
     0
 40
0.0
  0
LTYPE
  2
DASHDOT
 70
     0
  3
____ _ ____ _ ____ _ ____ _ ____ _ ____ _ ____
 72
    65
 73
     4
 40
5.5
 49
4.0
 49
-0.6
 49
0.3
 49
-0.6
  0
LTYPE
  2
CENTER
 70
     0
  3
Center ____ _ ____ _ ____ _ ____ _ ____ _ ____
 72
    65
 73
     4
 40
1.0
 49
0.5
 49
-0.25
 49
0.0
 49
-0.25
  0
ENDTAB
  0
TABLE
  2
LAYER
 70
    12
  0
LAYER
  2
0
 70
     0
 62
     7
  6
CONTINUOUS
  0
LAYER
  2
BASIS
 70
     0
 62
     6
  6
DASHDOT
  0
LAYER
  2
OUTLINE
 70
     0
 62
     3
  6
CONTINUOUS
  0
LAYER
  2
DETAIL
 70
     0
 62
     5
  6
CONTINUOUS
  0
LAYER
  2
SIZE
 70
     0
 62
    30
  6
CONTINUOUS
  0
LAYER
  2
ARRANGE
 70
     0
 62
     1
  6
CONTINUOUS
  0
LAYER
  2
DEFPOINTS
 70
     0
 62
     7
  6
CONTINUOUS
  0
LAYER
  2
ETC
 70
     0
 62
    61
  6
CONTINUOUS
  0
LAYER
  2
FIX
 70
     0
 62
    11
  6
CONTINUOUS
  0
LAYER
  2
NOTE
 70
     0
 62
     4
  6
CONTINUOUS
  0
LAYER
  2
SERVICESPACE
 70
    64
 62
     2
  6
DASHDOT
  0
LAYER
  2
SYMBOLLINE
 70
    64
 62
    15
  6
CONTINUOUS
  0
ENDTAB
  0
TABLE
  2
STYLE
 70
     1
  0
STYLE
  2
STANDARD
 70
     0
 40
64.0
 41
0.9
 50
0.0
 71
     0
 42
64.0
  3
SIMPLEX.shx
  4
BIGFONT.shx
  0
ENDTAB
  0
TABLE
  2
APPID
 70
    19
  0
APPID
  2
ACAD
 70
     0
  0
APPID
  2
AUTOCAD_POSTSCRIPT_FIGURE
 70
     0
  0
APPID
  2
ACAD_EXEMPT_FROM_CAD_STANDARDS
 70
     0
  0
APPID
  2
ACAD_PSEXT
 70
     0
  0
APPID
  2
ACAUTHENVIRON
 70
     0
  0
APPID
  2
GENIUS_GENOENT_13
 70
     0
  0
APPID
  2
GENIUS_GENCFG_13
 70
     0
  0
APPID
  2
GENIUS_GENCFG0_13
 70
     0
  0
APPID
  2
GENIUS_GENCFG1_13
 70
     0
  0
APPID
  2
GENIUS_GENCFG2_13
 70
     0
  0
APPID
  2
GENIUS_GENCFG3_13
 70
     0
  0
APPID
  2
GENIUS_GENCFG4_13
 70
     0
  0
APPID
  2
GENIUS_GEVCFG0_13
 70
     0
  0
APPID
  2
CONTENTBLOCKICON
 70
     0
  0
APPID
  2
CONTENTBLOCKDESCRIPTION
 70
     0
  0
APPID
  2
ACAD_NAV_VCDISPLAY
 70
     0
  0
APPID
  2
ACAD_MLEADERVER
 70
     0
  0
APPID
  2
ACDBDYNAMICBLOCKTRUENAME
 70
     0
  0
APPID
  2
ACDBDYNAMICBLOCKGUID
 70
     0
  0
ENDTAB
  0
TABLE
  2
DIMSTYLE
 70
     1
  0
DIMSTYLE
  2
STANDARD
 70
     0
  3

  4

  5
_ORIGIN
  6

  7

 40
1.0
 41
12.0
 42
20.0
 43
200.0
 44
20.0
 45
0.0
 46
0.0
 47
0.0
 48
0.0
140
64.0
141
0.09
142
0.0
143
25.399999999999999
144
1.0
145
0.0
146
1.0
147
25.0
 71
     0
 72
     0
 73
     0
 74
     0
 75
     0
 76
     0
 77
     1
 78
     8
170
     0
171
     2
172
     1
173
     0
174
     1
175
     0
176
     7
177
     7
178
     7
  0
ENDTAB
  0
TABLE
  2
VIEW
 70
     1
  0
VIEW
  2
ALL
 70
     0
 40
4282.6198079999986
 10
0.0
 20
41.309904000000003
 41
5940.0
 11
0.0
 21
0.0
 31
1.0
 12
0.0
 22
0.0
 32
0.0
 42
50.0
 43
0.0
 44
0.0
 50
0.0
 71
     0
  0
ENDTAB
  0
TABLE
  2
UCS
 70
     0
  0
ENDTAB
  0
TABLE
  2
VPORT
 70
     1
  0
VPORT
  2
*ACTIVE
 70
     0
 10
0.0
 20
0.0
 11
1.0
 21
1.0
 12
233.6174152251524
 22
196.26618432377751
 13
0.0
 23
0.0
 14
1.0
 24
1.0
 15
0.0
 25
0.0
 16
0.0
 26
0.0
 36
1.0
 17
0.0
 27
0.0
 37
0.0
 40
1238.949109386273
 41
1.747787610619469
 42
50.0
 43
0.0
 44
0.0
 50
0.0
 51
0.0
 71
     0
 72
  1000
 73
     1
 74
     3
 75
     0
 76
     0
 77
     0
 78
     0
  0
ENDTAB
  0
ENDSEC
  0
SECTION
  2
BLOCKS
  0
BLOCK
  8
0
  2
_ORIGIN
 70
     0
 10
0.0
 20
0.0
 30
0.0
  3
_ORIGIN
  1
_ORIGIN
  0
CIRCLE
  8
0
  6
CONTINUOUS
 62
     7
 10
0.0
 20
0.0
 30
0.0
 40
0.5
  0
LINE
  8
0
  6
CONTINUOUS
 62
     7
 10
0.0
 20
0.0
 30
0.0
 11
-1.0
 21
0.0
 31
0.0
  0
ENDBLK
  8
0
  0
ENDSEC
  0
SECTION
  2
ENTITIES
  0
TEXT
  8
ETC
  6
CONTINUOUS
 62
    61
 10
645.36520865281341
 20
747.56965451878955
 30
0.0
 40
64.0
  1
VD-15ZVY6_4
 41
0.9
  0
TEXT
  8
ETC
  6
CONTINUOUS
 62
    61
 10
641.17921465281302
 20
629.61434450395836
 30
0.0
 40
64.0
  1
換気扇
 41
0.9
  0
TEXT
  8
ETC
  6
CONTINUOUS
 62
    61
 10
691.8806129013692
 20
521.46557161773308
 30
0.0
 40
40.0
  1
VD-15ZVY6
 41
0.9
  0
TEXT
  8
NOTE
  6
CONTINUOUS
 62
     4
 10
-776.72148634843541
 20
285.07317325158522
 30
0.0
 40
63.999999999999993
  1
8-φ5×8
 50
0.1492621982627984
 41
0.9
  0
LINE
  8
NOTE
  6
CONTINUOUS
 62
     4
 10
-781.35670394190322
 20
263.4334875012122
 30
0.0
 11
-376.78366448458672
 21
264.3115384789786
 31
0.0
  0
LINE
  8
NOTE
  6
CONTINUOUS
 62
     4
 10
-141.50009650000021
 20
-0.5000980000000936
 30
0.0
 11
-376.78366448458672
 21
264.3115384789786
 31
0.0
  0
LINE
  8
NOTE
  6
CONTINUOUS
 62
     4
 10
-141.50009650000021
 20
-0.5000980000000936
 30
0.0
 11
-172.81284184757919
 21
22.18332441888322
 31
0.0
  0
LINE
  8
NOTE
  6
CONTINUOUS
 62
     4
 10
-160.49537119402359
 20
34.699198333761053
 30
0.0
 11
-141.50009650000021
 21
-0.5000980000000936
 31
0.0
  0
TEXT
  8
NOTE
  6
CONTINUOUS
 62
     4
 10
-389.08336949270068
 20
76.135908881067508
 30
0.0
 40
64.0
  1
EA
 41
0.9
 72
     2
 11
-293.08336949270068
 21
76.135908881067508
 31
0.0
  0
LINE
  8
NOTE
  6
CENTER
 62
     4
 10
141.49990349999979
 20
-7.68955300000016
 30
0.0
 11
141.49990349999979
 21
12.85108300000002
 31
0.0
  0
LINE
  8
NOTE
  6
CENTER
 62
     4
 10
-141.50009650000021
 20
-7.68955300000016
 30
0.0
 11
-141.50009650000021
 21
12.85108300000002
 31
0.0
  0
LINE
  8
NOTE
  6
CENTER
 62
     4
 10
84.999903499999846
 20
-7.68955300000016
 30
0.0
 11
84.999903499999846
 21
12.85108300000002
 31
0.0
  0
LINE
  8
NOTE
  6
CENTER
 62
     4
 10
-85.000096500000154
 20
-7.68955300000016
 30
0.0
 11
-85.000096500000154
 21
12.85108300000002
 31
0.0
  0
LINE
  8
BASIS
  6
DASHDOT
 62
     6
 10
-0.0000965000001543
 20
-49.296064929904333
 30
0.0
 11
-0.0000965000001543
 21
243.8854340296775
 31
0.0
  0
LINE
  8
BASIS
  6
DASHDOT
 62
     6
 10
-247.6064745000001
 20
111.3999020000001
 30
0.0
 11
-81.744968673212497
 21
111.3999020000001
 31
0.0
  0
TEXT
  8
NOTE
  6
CONTINUOUS
 62
     4
 10
358.78965398026531
 20
576.28538375872677
 30
0.0
 40
64.0
  1
EL
 41
0.9
  0
LINE
  8
NOTE
  6
CONTINUOUS
 62
     4
 10
497.83695159225408
 20
549.0195859489271
 30
0.0
 11
213.0086689349009
 21
549.01958594885502
 31
0.0
  0
LINE
  8
NOTE
  6
CONTINUOUS
 62
     4
 10
-104.0000000000002
 20
166.45009699999989
 30
0.0
 11
213.0086689349009
 21
549.01958594885502
 31
0.0
  0
LINE
  8
NOTE
  6
CONTINUOUS
 62
     4
 10
-104.0000000000002
 20
166.45009699999989
 30
0.0
 11
-71.309434089616389
 21
187.17064860904111
 31
0.0
  0
LINE
  8
NOTE
  6
CONTINUOUS
 62
     4
 10
-89.253053188944705
 20
203.5587138406776
 30
0.0
 11
-104.0000000000002
 21
166.45009699999989
 31
0.0
  0
CIRCLE
  8
ARRANGE
  6
CONTINUOUS
 62
     1
 10
0.0
 20
0.0
 30
0.0
 40
40.0
  0
POINT
  8
ARRANGE
  6
CONTINUOUS
 62
     1
 10
0.0
 20
0.0
 30
0.0
 50
90.000000000000014
  0
CIRCLE
  8
FIX
  6
CONTINUOUS
 62
    11
 10
140.83799324353441
 20
0.0
 30
0.0
 40
10.0
  0
CIRCLE
  8
FIX
  6
CONTINUOUS
 62
    11
 10
84.999903499999846
 20
0.0
 30
0.0
 40
10.0
  0
CIRCLE
  8
FIX
  6
CONTINUOUS
 62
    11
 10
-85.000096500000154
 20
0.0
 30
0.0
 40
10.0
  0
CIRCLE
  8
FIX
  6
CONTINUOUS
 62
    11
 10
-141.50009650000021
 20
0.0
 30
0.0
 40
10.0
  0
LINE
  8
SIZE
  6
CONTINUOUS
 62
    30
 10
-125.5001525
 20
198.986175
 30
0.0
 11
-125.5001525
 21
622.73661029570712
 31
0.0
  0
LINE
  8
SIZE
  6
CONTINUOUS
 62
    30
 10
125.4999605
 20
182.73176963189459
 30
0.0
 11
125.4999605
 21
622.73661029570712
 31
0.0
  0
LINE
  8
SIZE
  6
CONTINUOUS
 62
    30
 10
-113.5001525
 20
602.73661029570712
 30
0.0
 11
113.4999605
 21
602.73661029570712
 31
0.0
  0
CIRCLE
  8
SIZE
  6
CONTINUOUS
 62
    30
 10
-125.5001525
 20
602.73661029570712
 30
0.0
 40
6.0
  0
LINE
  8
SIZE
  6
CONTINUOUS
 62
    30
 10
-125.5001525
 20
602.73661029570712
 30
0.0
 11
-113.5001525
 21
602.73661029570712
 31
0.0
  0
CIRCLE
  8
SIZE
  6
CONTINUOUS
 62
    30
 10
125.4999605
 20
602.73661029570712
 30
0.0
 40
6.0
  0
LINE
  8
SIZE
  6
CONTINUOUS
 62
    30
 10
125.4999605
 20
602.73661029570712
 30
0.0
 11
113.4999605
 21
602.73661029570712
 31
0.0
  0
TEXT
  8
SIZE
  6
CONTINUOUS
 62
    30
 10
-98.194381714285711
 20
627.73661029570712
 30
0.0
 40
64.0
  1
□251
 41
0.9
 72
     1
 11
-0.000095999999985
 21
627.73661029570712
 31
0.0
  0
POINT
  8
DEFPOINTS
  6
CONTINUOUS
 62
    30
 10
-125.5001525
 20
178.986175
 30
0.0
  0
POINT
  8
DEFPOINTS
  6
CONTINUOUS
 62
    30
 10
125.4999605
 20
602.73661029570712
 30
0.0
  0
LINE
  8
SIZE
  6
CONTINUOUS
 62
    30
 10
-125.5001530000002
 20
200.09989899999991
 30
0.0
 11
-125.5001530000002
 21
622.73661029570712
 31
0.0
  0
LINE
  8
SIZE
  6
CONTINUOUS
 62
    30
 10
-239.40010099999989
 20
179.90023800000009
 30
0.0
 11
-239.40010099999989
 21
622.73661029570712
 31
0.0
  0
LINE
  8
SIZE
  6
CONTINUOUS
 62
    30
 10
-137.50015300000021
 20
602.73661029570712
 30
0.0
 11
-227.40010099999989
 21
602.73661029570712
 31
0.0
  0
CIRCLE
  8
SIZE
  6
CONTINUOUS
 62
    30
 10
-125.5001530000002
 20
602.73661029570712
 30
0.0
 40
6.0
  0
LINE
  8
SIZE
  6
CONTINUOUS
 62
    30
 10
-125.5001530000002
 20
602.73661029570712
 30
0.0
 11
-137.50015300000021
 21
602.73661029570712
 31
0.0
  0
CIRCLE
  8
SIZE
  6
CONTINUOUS
 62
    30
 10
-239.40010099999989
 20
602.73661029570712
 30
0.0
 40
6.0
  0
LINE
  8
SIZE
  6
CONTINUOUS
 62
    30
 10
-239.40010099999989
 20
602.73661029570712
 30
0.0
 11
-227.40010099999989
 21
602.73661029570712
 31
0.0
  0
TEXT
  8
SIZE
  6
CONTINUOUS
 62
    30
 10
-246.90726985714289
 20
627.73661029570712
 30
0.0
 40
64.0
  1
114
 41
0.9
 72
     1
 11
-182.45012700000009
 21
627.73661029570712
 31
0.0
  0
POINT
  8
DEFPOINTS
  6
CONTINUOUS
 62
    30
 10
-125.5001530000002
 20
180.09989899999991
 30
0.0
  0
POINT
  8
DEFPOINTS
  6
CONTINUOUS
 62
    30
 10
-239.40010099999989
 20
159.90023800000009
 30
0.0
  0
POINT
  8
DEFPOINTS
  6
CONTINUOUS
 62
    30
 10
-239.40010099999989
 20
602.73661029570712
 30
0.0
  0
LINE
  8
SIZE
  6
CONTINUOUS
 62
    30
 10
-212.40010099999989
 20
180.53496799999991
 30
0.0
 11
-212.40010099999989
 21
296.97926488332359
 31
0.0
  0
LINE
  8
SIZE
  6
CONTINUOUS
 62
    30
 10
-239.40010099999989
 20
179.90023800000009
 30
0.0
 11
-239.40010099999989
 21
296.97926488332359
 31
0.0
  0
LINE
  8
SIZE
  6
CONTINUOUS
 62
    30
 10
-200.40010099999989
 20
276.97926488332359
 30
0.0
 11
-188.40010099999989
 21
276.97926488332359
 31
0.0
  0
LINE
  8
SIZE
  6
CONTINUOUS
 62
    30
 10
-251.40010099999989
 20
276.97926488332359
 30
0.0
 11
-406.65724385714287
 21
276.97926488332359
 31
0.0
  0
LINE
  8
SIZE
  6
CONTINUOUS
 62
    30
 10
-212.40010099999989
 20
276.97926488332359
 30
0.0
 11
-239.40010099999989
 21
276.97926488332359
 31
0.0
  0
CIRCLE
  8
SIZE
  6
CONTINUOUS
 62
    30
 10
-212.40010099999989
 20
276.97926488332359
 30
0.0
 40
6.0
  0
LINE
  8
SIZE
  6
CONTINUOUS
 62
    30
 10
-212.40010099999989
 20
276.97926488332359
 30
0.0
 11
-200.40010099999989
 21
276.97926488332359
 31
0.0
  0
CIRCLE
  8
SIZE
  6
CONTINUOUS
 62
    30
 10
-239.40010099999989
 20
276.97926488332359
 30
0.0
 40
6.0
  0
LINE
  8
SIZE
  6
CONTINUOUS
 62
    30
 10
-239.40010099999989
 20
276.97926488332359
 30
0.0
 11
-251.40010099999989
 21
276.97926488332359
 31
0.0
  0
TEXT
  8
SIZE
  6
CONTINUOUS
 62
    30
 10
-381.65724385714282
 20
301.97926488332359
 30
0.0
 40
64.0
  1
27
 41
0.9
 72
     1
 11
-335.02867242857138
 21
301.97926488332359
 31
0.0
  0
POINT
  8
DEFPOINTS
  6
CONTINUOUS
 62
    30
 10
-212.40010099999989
 20
160.53496799999991
 30
0.0
  0
POINT
  8
DEFPOINTS
  6
CONTINUOUS
 62
    30
 10
-239.40010099999989
 20
159.90023800000009
 30
0.0
  0
POINT
  8
DEFPOINTS
  6
CONTINUOUS
 62
    30
 10
-239.40010099999989
 20
276.97926488332359
 30
0.0
  0
LINE
  8
SIZE
  6
CONTINUOUS
 62
    30
 10
-187.40010099999989
 20
184.4134474967417
 30
0.0
 11
-187.40010099999989
 21
402.04851260058012
 31
0.0
  0
LINE
  8
SIZE
  6
CONTINUOUS
 62
    30
 10
-239.40010099999989
 20
179.90023800000009
 30
0.0
 11
-239.40010099999989
 21
402.04851260058012
 31
0.0
  0
LINE
  8
SIZE
  6
CONTINUOUS
 62
    30
 10
-175.40010099999989
 20
382.04851260058012
 30
0.0
 11
-163.40010099999981
 21
382.04851260058012
 31
0.0
  0
LINE
  8
SIZE
  6
CONTINUOUS
 62
    30
 10
-251.40010099999989
 20
382.04851260058012
 30
0.0
 11
-406.65724385714287
 21
382.04851260058012
 31
0.0
  0
LINE
  8
SIZE
  6
CONTINUOUS
 62
    30
 10
-187.40010099999989
 20
382.04851260058012
 30
0.0
 11
-239.40010099999989
 21
382.04851260058012
 31
0.0
  0
CIRCLE
  8
SIZE
  6
CONTINUOUS
 62
    30
 10
-187.40010099999989
 20
382.04851260058012
 30
0.0
 40
6.0
  0
LINE
  8
SIZE
  6
CONTINUOUS
 62
    30
 10
-187.40010099999989
 20
382.04851260058012
 30
0.0
 11
-175.40010099999989
 21
382.04851260058012
 31
0.0
  0
CIRCLE
  8
SIZE
  6
CONTINUOUS
 62
    30
 10
-239.40010099999989
 20
382.04851260058012
 30
0.0
 40
6.0
  0
LINE
  8
SIZE
  6
CONTINUOUS
 62
    30
 10
-239.40010099999989
 20
382.04851260058012
 30
0.0
 11
-251.40010099999989
 21
382.04851260058012
 31
0.0
  0
TEXT
  8
SIZE
  6
CONTINUOUS
 62
    30
 10
-381.65724385714282
 20
407.04851260058012
 30
0.0
 40
64.0
  1
52
 41
0.9
 72
     1
 11
-335.02867242857138
 21
407.04851260058012
 31
0.0
  0
POINT
  8
DEFPOINTS
  6
CONTINUOUS
 62
    30
 10
-187.40010099999989
 20
164.4134474967417
 30
0.0
  0
POINT
  8
DEFPOINTS
  6
CONTINUOUS
 62
    30
 10
-239.40010099999989
 20
159.90023800000009
 30
0.0
  0
POINT
  8
DEFPOINTS
  6
CONTINUOUS
 62
    30
 10
-239.40010099999989
 20
382.04851260058012
 30
0.0
  0
LINE
  8
SIZE
  6
CONTINUOUS
 62
    30
 10
-258.90010099999989
 20
160.4002379999998
 30
0.0
 11
-578.16994530835461
 21
160.40023800000009
 31
0.0
  0
LINE
  8
SIZE
  6
CONTINUOUS
 62
    30
 10
-258.90010099999989
 20
62.399901999999877
 30
0.0
 11
-578.16994530835461
 21
62.399901999999997
 31
0.0
  0
LINE
  8
SIZE
  6
CONTINUOUS
 62
    30
 10
-558.16994530835473
 20
148.4002379999998
 30
0.0
 11
-558.16994530835473
 21
74.399901999999997
 31
0.0
  0
LINE
  8
SIZE
  6
CONTINUOUS
 62
    30
 10
-558.16994530835473
 20
62.399901999999997
 30
0.0
 11
-558.16994530835473
 21
-218.16883095421301
 31
0.0
  0
CIRCLE
  8
SIZE
  6
CONTINUOUS
 62
    30
 10
-558.16994530835473
 20
160.4002379999998
 30
0.0
 40
6.0
  0
LINE
  8
SIZE
  6
CONTINUOUS
 62
    30
 10
-558.16994530835473
 20
160.4002379999998
 30
0.0
 11
-558.16994530835473
 21
148.4002379999998
 31
0.0
  0
CIRCLE
  8
SIZE
  6
CONTINUOUS
 62
    30
 10
-558.16994530835473
 20
62.399901999999997
 30
0.0
 40
6.0
  0
LINE
  8
SIZE
  6
CONTINUOUS
 62
    30
 10
-558.16994530835473
 20
62.399901999999997
 30
0.0
 11
-558.16994530835473
 21
74.399901999999997
 31
0.0
  0
TEXT
  8
SIZE
  6
CONTINUOUS
 62
    30
 10
-593.83661197502147
 20
-203.31740238278451
 30
0.0
 40
64.0
  1
φ98
 50
90.0
 41
0.9
 72
     1
 11
-593.83661197502147
 21
-116.3688309542131
 31
0.0
  0
POINT
  8
DEFPOINTS
  6
CONTINUOUS
 62
    30
 10
-238.90010099999989
 20
160.4002379999998
 30
0.0
  0
POINT
  8
DEFPOINTS
  6
CONTINUOUS
 62
    30
 10
-238.90010099999989
 20
62.399901999999877
 30
0.0
  0
POINT
  8
DEFPOINTS
  6
CONTINUOUS
 62
    30
 10
-558.16994530835473
 20
62.399901999999997
 30
0.0
  0
LINE
  8
SIZE
  6
CONTINUOUS
 62
    30
 10
-228.071674
 20
163.90023800000009
 30
0.0
 11
-707.36745255432265
 21
163.9002380000002
 31
0.0
  0
LINE
  8
SIZE
  6
CONTINUOUS
 62
    30
 10
-228.071674
 20
58.900238000000058
 30
0.0
 11
-707.36745255432265
 21
58.900238000000172
 31
0.0
  0
LINE
  8
SIZE
  6
CONTINUOUS
 62
    30
 10
-687.36745255432265
 20
151.9002380000002
 30
0.0
 11
-687.36745255432265
 21
70.900238000000172
 31
0.0
  0
LINE
  8
SIZE
  6
CONTINUOUS
 62
    30
 10
-687.36745255432265
 20
58.900238000000172
 30
0.0
 11
-687.36745255432299
 21
-261.55740094080898
 31
0.0
  0
CIRCLE
  8
SIZE
  6
CONTINUOUS
 62
    30
 10
-687.36745255432265
 20
163.9002380000002
 30
0.0
 40
6.0
  0
LINE
  8
SIZE
  6
CONTINUOUS
 62
    30
 10
-687.36745255432265
 20
163.9002380000002
 30
0.0
 11
-687.36745255432265
 21
151.9002380000002
 31
0.0
  0
CIRCLE
  8
SIZE
  6
CONTINUOUS
 62
    30
 10
-687.36745255432265
 20
58.900238000000172
 30
0.0
 40
6.0
  0
LINE
  8
SIZE
  6
CONTINUOUS
 62
    30
 10
-687.36745255432265
 20
58.900238000000172
 30
0.0
 11
-687.36745255432265
 21
70.900238000000172
 31
0.0
  0
TEXT
  8
SIZE
  6
CONTINUOUS
 62
    30
 10
-723.0341192209894
 20
-246.70597236938039
 30
0.0
 40
64.0
  1
φ105
 50
90.0
 41
0.9
 72
     1
 11
-723.0341192209894
 21
-137.81454379795181
 31
0.0
  0
POINT
  8
DEFPOINTS
  6
CONTINUOUS
 62
    30
 10
-208.071674
 20
163.90023800000009
 30
0.0
  0
POINT
  8
DEFPOINTS
  6
CONTINUOUS
 62
    30
 10
-208.071674
 20
58.900238000000058
 30
0.0
  0
POINT
  8
DEFPOINTS
  6
CONTINUOUS
 62
    30
 10
-687.36745255432265
 20
58.900238000000172
 30
0.0
  0
LINE
  8
SIZE
  6
CONTINUOUS
 62
    30
 10
167.0
 20
-20.50009800000009
 30
0.0
 11
167.0
 21
-419.00779020482969
 31
0.0
  0
LINE
  8
SIZE
  6
CONTINUOUS
 62
    30
 10
-167.0
 20
-20.50009799999998
 30
0.0
 11
-167.0
 21
-419.00779020482969
 31
0.0
  0
LINE
  8
SIZE
  6
CONTINUOUS
 62
    30
 10
155.0
 20
-399.00779020482969
 30
0.0
 11
-155.0
 21
-399.00779020482969
 31
0.0
  0
CIRCLE
  8
SIZE
  6
CONTINUOUS
 62
    30
 10
167.0
 20
-399.00779020482969
 30
0.0
 40
6.0
  0
LINE
  8
SIZE
  6
CONTINUOUS
 62
    30
 10
167.0
 20
-399.00779020482969
 30
0.0
 11
155.0
 21
-399.00779020482969
 31
0.0
  0
CIRCLE
  8
SIZE
  6
CONTINUOUS
 62
    30
 10
-167.0
 20
-399.00779020482969
 30
0.0
 40
6.0
  0
LINE
  8
SIZE
  6
CONTINUOUS
 62
    30
 10
-167.0
 20
-399.00779020482969
 30
0.0
 11
-155.0
 21
-399.00779020482969
 31
0.0
  0
TEXT
  8
SIZE
  6
CONTINUOUS
 62
    30
 10
-111.90857142857141
 20
-374.00779020482969
 30
0.0
 40
64.0
  1
□334
 41
0.9
 72
     1
 11
0.0
 21
-374.00779020482969
 31
0.0
  0
POINT
  8
DEFPOINTS
  6
CONTINUOUS
 62
    30
 10
167.0
 20
-0.5000980000000936
 30
0.0
  0
POINT
  8
DEFPOINTS
  6
CONTINUOUS
 62
    30
 10
-167.0
 20
-0.50009799999998
 30
0.0
  0
POINT
  8
DEFPOINTS
  6
CONTINUOUS
 62
    30
 10
-167.0
 20
-399.00779020482969
 30
0.0
  0
LINE
  8
SIZE
  6
CONTINUOUS
 62
    30
 10
84.999903499999846
 20
-27.68955300000016
 30
0.0
 11
84.999903499999846
 21
-169.25006914856479
 31
0.0
  0
LINE
  8
SIZE
  6
CONTINUOUS
 62
    30
 10
-85.000096500000154
 20
-27.68955300000016
 30
0.0
 11
-85.000096500000154
 21
-169.25006914856479
 31
0.0
  0
LINE
  8
SIZE
  6
CONTINUOUS
 62
    30
 10
96.999903499999846
 20
-149.25006914856479
 30
0.0
 11
108.9999034999998
 21
-149.25006914856479
 31
0.0
  0
LINE
  8
SIZE
  6
CONTINUOUS
 62
    30
 10
-97.000096500000154
 20
-149.25006914856479
 30
0.0
 11
-109.0000965000002
 21
-149.25006914856479
 31
0.0
  0
LINE
  8
SIZE
  6
CONTINUOUS
 62
    30
 10
84.999903499999846
 20
-149.25006914856479
 30
0.0
 11
-85.000096500000154
 21
-149.25006914856479
 31
0.0
  0
CIRCLE
  8
SIZE
  6
CONTINUOUS
 62
    30
 10
84.999903499999846
 20
-149.25006914856479
 30
0.0
 40
6.0
  0
LINE
  8
SIZE
  6
CONTINUOUS
 62
    30
 10
84.999903499999846
 20
-149.25006914856479
 30
0.0
 11
96.999903499999846
 21
-149.25006914856479
 31
0.0
  0
CIRCLE
  8
SIZE
  6
CONTINUOUS
 62
    30
 10
-85.000096500000154
 20
-149.25006914856479
 30
0.0
 40
6.0
  0
LINE
  8
SIZE
  6
CONTINUOUS
 62
    30
 10
-85.000096500000154
 20
-149.25006914856479
 30
0.0
 11
-97.000096500000154
 21
-149.25006914856479
 31
0.0
  0
TEXT
  8
SIZE
  6
CONTINUOUS
 62
    30
 10
-68.571525071428724
 20
-124.2500691485648
 30
0.0
 40
64.0
  1
170
 41
0.9
 72
     1
 11
-0.0000965000001543
 21
-124.2500691485648
 31
0.0
  0
POINT
  8
DEFPOINTS
  6
CONTINUOUS
 62
    30
 10
84.999903499999846
 20
-7.68955300000016
 30
0.0
  0
POINT
  8
DEFPOINTS
  6
CONTINUOUS
 62
    30
 10
-85.000096500000154
 20
-7.68955300000016
 30
0.0
  0
POINT
  8
DEFPOINTS
  6
CONTINUOUS
 62
    30
 10
-85.000096500000154
 20
-149.25006914856479
 30
0.0
  0
LINE
  8
SIZE
  6
CONTINUOUS
 62
    30
 10
141.49990349999979
 20
-27.68955300000016
 30
0.0
 11
141.49990349999979
 21
-291.61029810248601
 31
0.0
  0
LINE
  8
SIZE
  6
CONTINUOUS
 62
    30
 10
-141.50009650000021
 20
-27.68955300000016
 30
0.0
 11
-141.50009650000021
 21
-291.61029810248601
 31
0.0
  0
LINE
  8
SIZE
  6
CONTINUOUS
 62
    30
 10
129.49990349999979
 20
-271.61029810248601
 30
0.0
 11
-129.50009650000021
 21
-271.61029810248601
 31
0.0
  0
CIRCLE
  8
SIZE
  6
CONTINUOUS
 62
    30
 10
141.49990349999979
 20
-271.61029810248601
 30
0.0
 40
6.0
  0
LINE
  8
SIZE
  6
CONTINUOUS
 62
    30
 10
141.49990349999979
 20
-271.61029810248601
 30
0.0
 11
129.49990349999979
 21
-271.61029810248601
 31
0.0
  0
CIRCLE
  8
SIZE
  6
CONTINUOUS
 62
    30
 10
-141.50009650000021
 20
-271.61029810248601
 30
0.0
 40
6.0
  0
LINE
  8
SIZE
  6
CONTINUOUS
 62
    30
 10
-141.50009650000021
 20
-271.61029810248601
 30
0.0
 11
-129.50009650000021
 21
-271.61029810248601
 31
0.0
  0
TEXT
  8
SIZE
  6
CONTINUOUS
 62
    30
 10
-74.05723935714299
 20
-246.61029810248601
 30
0.0
 40
64.0
  1
283
 41
0.9
 72
     1
 11
-0.0000965000001543
 21
-246.61029810248601
 31
0.0
  0
POINT
  8
DEFPOINTS
  6
CONTINUOUS
 62
    30
 10
141.49990349999979
 20
-7.68955300000016
 30
0.0
  0
POINT
  8
DEFPOINTS
  6
CONTINUOUS
 62
    30
 10
-141.50009650000021
 20
-7.68955300000016
 30
0.0
  0
POINT
  8
DEFPOINTS
  6
CONTINUOUS
 62
    30
 10
-141.50009650000021
 20
-271.61029810248601
 30
0.0
  0
LINE
  8
SIZE
  6
CONTINUOUS
 62
    30
 10
-199.56227400000009
 20
56.400237999999938
 30
0.0
 11
-328.44795919245581
 21
56.400237999999938
 31
0.0
  0
LINE
  8
SIZE
  6
CONTINUOUS
 62
    30
 10
-186.99999999999989
 20
0.0
 30
0.0
 11
-328.44795919245581
 21
0.0000000000000568
 31
0.0
  0
LINE
  8
SIZE
  6
CONTINUOUS
 62
    30
 10
-308.44795919245581
 20
68.400237999999945
 30
0.0
 11
-308.44795919245581
 21
79.400237999999945
 31
0.0
  0
LINE
  8
SIZE
  6
CONTINUOUS
 62
    30
 10
-308.44795919245581
 20
-11.99999999999994
 30
0.0
 11
-308.44795919245581
 21
-167.25714285714281
 31
0.0
  0
LINE
  8
SIZE
  6
CONTINUOUS
 62
    30
 10
-308.44795919245581
 20
56.400237999999938
 30
0.0
 11
-308.44795919245581
 21
0.0000000000000568
 31
0.0
  0
CIRCLE
  8
SIZE
  6
CONTINUOUS
 62
    30
 10
-308.44795919245581
 20
56.400237999999938
 30
0.0
 40
6.0
  0
LINE
  8
SIZE
  6
CONTINUOUS
 62
    30
 10
-308.44795919245581
 20
56.400237999999938
 30
0.0
 11
-308.44795919245581
 21
68.400237999999945
 31
0.0
  0
CIRCLE
  8
SIZE
  6
CONTINUOUS
 62
    30
 10
-308.44795919245581
 20
0.0000000000000568
 30
0.0
 40
6.0
  0
LINE
  8
SIZE
  6
CONTINUOUS
 62
    30
 10
-308.44795919245581
 20
0.0000000000000568
 30
0.0
 11
-308.44795919245581
 21
-11.99999999999994
 31
0.0
  0
TEXT
  8
SIZE
  6
CONTINUOUS
 62
    30
 10
-333.44795919245581
 20
-142.2571428571429
 30
0.0
 40
64.0
  1
55
 50
90.0
 41
0.9
 72
     1
 11
-333.44795919245581
 21
-95.628571428571433
 31
0.0
  0
POINT
  8
DEFPOINTS
  6
CONTINUOUS
 62
    30
 10
-179.56227400000009
 20
56.400237999999938
 30
0.0
  0
POINT
  8
DEFPOINTS
  6
CONTINUOUS
 62
    30
 10
-167.0
 20
0.0
 30
0.0
  0
POINT
  8
DEFPOINTS
  6
CONTINUOUS
 62
    30
 10
-308.44795919245581
 20
0.0000000000000568
 30
0.0
  0
LINE
  8
DETAIL
  6
CONTINUOUS
 62
     5
 10
-125.5001530000002
 20
166.45009699999989
 30
0.0
 11
-125.0001530000002
 21
166.45009699999989
 31
0.0
  0
LINE
  8
DETAIL
  6
CONTINUOUS
 62
     5
 10
-149.50993100000019
 20
0.3975759999999582
 30
0.0
 11
-149.50993100000019
 21
0.0
 31
0.0
  0
LINE
  8
DETAIL
  6
CONTINUOUS
 62
     5
 10
-239.40010099999989
 20
159.9002379999998
 30
0.0
 11
-239.40010099999989
 21
62.899901999999877
 31
0.0
  0
LINE
  8
DETAIL
  6
CONTINUOUS
 62
     5
 10
-189.70208199999999
 20
163.9002379999998
 30
0.0
 11
-208.071674
 21
163.9002379999998
 31
0.0
  0
ARC
  8
DETAIL
  6
CONTINUOUS
 62
     5
 10
-208.071674
 20
60.900237999999938
 30
0.0
 40
2.0
 50
225.00000000000921
 51
270.0
  0
ARC
  8
DETAIL
  6
CONTINUOUS
 62
     5
 10
-213.02142100000009
 20
60.900237999999938
 30
0.0
 40
1.5
 50
45.000000000009223
 51
90.0
  0
ARC
  8
DETAIL
  6
CONTINUOUS
 62
     5
 10
-189.70208199999999
 20
55.900237999999938
 30
0.0
 40
3.0
 50
74.921980000001795
 51
90.0
  0
LINE
  8
DETAIL
  6
CONTINUOUS
 62
     5
 10
-188.92168000000021
 20
58.796954999999912
 30
0.0
 11
-180.47274300000001
 21
56.520733999999948
 31
0.0
  0
ARC
  8
DETAIL
  6
CONTINUOUS
 62
     5
 10
-179.56227400000009
 20
59.900237999999938
 30
0.0
 40
3.5
 50
254.92198000000181
 51
270.0
  0
LINE
  8
DETAIL
  6
CONTINUOUS
 62
     5
 10
-188.92168000000021
 20
164.00352000000001
 30
0.0
 11
-180.47274300000001
 21
166.27974199999991
 31
0.0
  0
ARC
  8
DETAIL
  6
CONTINUOUS
 62
     5
 10
-179.56227400000009
 20
162.9002379999998
 30
0.0
 40
3.5
 50
90.0
 51
105.0780199999982
  0
ARC
  8
DETAIL
  6
CONTINUOUS
 62
     5
 10
-189.70208199999999
 20
166.9002379999998
 30
0.0
 40
3.0
 50
270.0
 51
285.07801999999822
  0
ARC
  8
DETAIL
  6
CONTINUOUS
 62
     5
 10
-208.071674
 20
161.9002379999998
 30
0.0
 40
2.0
 50
90.0
 51
134.99999999999079
  0
ARC
  8
DETAIL
  6
CONTINUOUS
 62
     5
 10
-213.02142100000009
 20
161.9002379999998
 30
0.0
 40
1.5
 50
270.0
 51
314.99999999999079
  0
LINE
  8
DETAIL
  6
CONTINUOUS
 62
     5
 10
-208.90010099999989
 20
163.720597
 30
0.0
 11
-208.90010099999989
 21
59.079878000000008
 31
0.0
  0
LINE
  8
DETAIL
  6
CONTINUOUS
 62
     5
 10
-187.40010099999989
 20
164.4134479999999
 30
0.0
 11
-187.40010099999989
 21
58.387027999999873
 31
0.0
  0
LINE
  8
DETAIL
  6
CONTINUOUS
 62
     5
 10
-125.5001530000002
 20
157.89980799999989
 30
0.0
 11
-125.5001530000002
 21
180.09989899999991
 31
0.0
  0
LINE
  8
DETAIL
  6
CONTINUOUS
 62
     5
 10
-126.6001590000001
 20
178.98617499999989
 30
0.0
 11
-126.6001590000001
 21
43.400237999999938
 31
0.0
  0
ARC
  8
DETAIL
  6
CONTINUOUS
 62
     5
 10
-125.5001530000002
 20
180.09989899999991
 30
0.0
 40
0.5
 50
90.0
 51
180.0
  0
ARC
  8
DETAIL
  6
CONTINUOUS
 62
     5
 10
-125.5001530000002
 20
180.09989899999991
 30
0.0
 40
0.5
 50
0.0
 51
90.0
  0
LINE
  8
DETAIL
  6
CONTINUOUS
 62
     5
 10
-179.56227400000009
 20
56.400237999999938
 30
0.0
 11
-128.6001590000001
 21
56.400237999999938
 31
0.0
  0
ARC
  8
DETAIL
  6
CONTINUOUS
 62
     5
 10
-128.6001590000001
 20
54.400237999999938
 30
0.0
 40
2.0
 50
0.0
 51
90.0
  0
LINE
  8
DETAIL
  6
CONTINUOUS
 62
     5
 10
-179.56227400000009
 20
166.4002379999998
 30
0.0
 11
-128.6001590000001
 21
166.4002379999998
 31
0.0
  0
ARC
  8
DETAIL
  6
CONTINUOUS
 62
     5
 10
-128.6001590000001
 20
168.4002379999998
 30
0.0
 40
2.0
 50
270.0
 51
0.0
  0
LINE
  8
DETAIL
  6
CONTINUOUS
 62
     5
 10
-125.0001530000002
 20
166.45009699999989
 30
0.0
 11
-125.0001530000002
 21
180.09989899999991
 31
0.0
  0
LINE
  8
DETAIL
  6
CONTINUOUS
 62
     5
 10
-126.6001590000001
 20
178.98617499999989
 30
0.0
 11
-126.0001530000002
 21
178.98617499999989
 31
0.0
  0
LINE
  8
DETAIL
  6
CONTINUOUS
 62
     5
 10
-209.48605500000011
 20
59.485855999999899
 30
0.0
 11
-211.9797980000001
 21
61.979598999999887
 31
0.0
  0
LINE
  8
DETAIL
  6
CONTINUOUS
 62
     5
 10
-209.4858879999999
 20
163.31445099999999
 30
0.0
 11
-211.96076099999999
 21
160.83957799999999
 31
0.0
  0
LINE
  8
DETAIL
  6
CONTINUOUS
 62
     5
 10
-189.70208199999999
 20
58.900237999999938
 30
0.0
 11
-208.071674
 21
58.900237999999938
 31
0.0
  0
LINE
  8
DETAIL
  6
CONTINUOUS
 62
     5
 10
-212.40010099999989
 20
160.53496799999991
 30
0.0
 11
-212.40010099999989
 21
62.265506999999957
 31
0.0
  0
LINE
  8
DETAIL
  6
CONTINUOUS
 62
     5
 10
-126.6001590000001
 20
43.400237999999938
 30
0.0
 11
-126.0001530000002
 21
43.400237999999938
 31
0.0
  0
LINE
  8
DETAIL
  6
CONTINUOUS
 62
     5
 10
-149.50993100000019
 20
0.3975759999999582
 30
0.0
 11
-126.6004600000001
 21
0.3858459999999013
 31
0.0
  0
LINE
  8
DETAIL
  6
CONTINUOUS
 62
     5
 10
-126.0001530000002
 20
0.9858459999999241
 30
0.0
 11
-126.0001530000002
 21
180.09989899999991
 31
0.0
  0
ARC
  8
DETAIL
  6
CONTINUOUS
 62
     5
 10
-238.90010099999989
 20
159.9002379999998
 30
0.0
 40
0.5
 50
90.0
 51
180.0
  0
ARC
  8
DETAIL
  6
CONTINUOUS
 62
     5
 10
-238.90010099999989
 20
62.899901999999877
 30
0.0
 40
0.5
 50
180.0
 51
270.0
  0
LINE
  8
DETAIL
  6
CONTINUOUS
 62
     5
 10
-213.02142100000009
 20
160.4002379999998
 30
0.0
 11
-238.90010099999989
 21
160.4002379999998
 31
0.0
  0
LINE
  8
DETAIL
  6
CONTINUOUS
 62
     5
 10
-212.9896890000002
 20
62.399901999999877
 30
0.0
 11
-238.90010099999989
 21
62.399901999999877
 31
0.0
  0
ARC
  8
DETAIL
  6
CONTINUOUS
 62
     5
 10
-126.60015300000001
 20
0.9858459999999241
 30
0.0
 40
0.6
 50
269.97066400000489
 51
0.0
  0
ARC
  8
DETAIL
  6
CONTINUOUS
 62
     5
 10
47.499923000000081
 20
198.7000909999999
 30
0.0
 40
5.5
 50
0.0
 51
90.0
  0
ARC
  8
DETAIL
  6
CONTINUOUS
 62
     5
 10
-23.500076999999919
 20
198.7000909999999
 30
0.0
 40
5.5
 50
90.0
 51
180.0
  0
LINE
  8
DETAIL
  6
CONTINUOUS
 62
     5
 10
52.999923000000081
 20
198.7000909999999
 30
0.0
 11
52.999923000000081
 21
170.4500909999999
 31
0.0
  0
LINE
  8
DETAIL
  6
CONTINUOUS
 62
     5
 10
-23.500076999999919
 20
204.2000909999999
 30
0.0
 11
47.499923000000081
 21
204.2000909999999
 31
0.0
  0
LINE
  8
DETAIL
  6
CONTINUOUS
 62
     5
 10
-29.000076999999919
 20
198.7000909999999
 30
0.0
 11
-29.000076999999919
 21
170.4500909999999
 31
0.0
  0
LINE
  8
DETAIL
  6
CONTINUOUS
 62
     5
 10
167.0
 20
-0.5000980000000936
 30
0.0
 11
-167.0
 21
-0.5000980000000936
 31
0.0
  0
LINE
  8
DETAIL
  6
CONTINUOUS
 62
     5
 10
-167.0
 20
0.0
 30
0.0
 11
167.0
 21
0.0
 31
0.0
  0
ARC
  8
DETAIL
  6
CONTINUOUS
 62
     5
 10
166.0
 20
-1.5000980000000941
 30
0.0
 40
1.0
 50
90.0
 51
180.0
  0
LINE
  8
DETAIL
  6
CONTINUOUS
 62
     5
 10
165.0
 20
-1.5000980000000941
 30
0.0
 11
165.0
 21
-6.9677740000000767
 31
0.0
  0
LINE
  8
DETAIL
  6
CONTINUOUS
 62
     5
 10
167.0
 20
0.0
 30
0.0
 11
167.0
 21
-0.5000980000000936
 31
0.0
  0
ARC
  8
DETAIL
  6
CONTINUOUS
 62
     5
 10
135.0
 20
55.0
 30
0.0
 40
70.0
 50
269.99992800000319
 51
294.31567500000023
  0
LINE
  8
DETAIL
  6
CONTINUOUS
 62
     5
 10
135.0
 20
-15.0
 30
0.0
 11
-135.0
 21
-15.0
 31
0.0
  0
ARC
  8
DETAIL
  6
CONTINUOUS
 62
     5
 10
163.0
 20
-6.9677740000000767
 30
0.0
 40
2.0
 50
294.3162759999924
 51
0.0000369999998155
  0
ARC
  8
DETAIL
  6
CONTINUOUS
 62
     5
 10
-166.0
 20
-1.5000980000000941
 30
0.0
 40
1.0
 50
0.0
 51
90.0
  0
LINE
  8
DETAIL
  6
CONTINUOUS
 62
     5
 10
-167.0
 20
0.0
 30
0.0
 11
-167.0
 21
-0.5000980000000936
 31
0.0
  0
LINE
  8
DETAIL
  6
CONTINUOUS
 62
     5
 10
-165.0
 20
-1.5000980000000941
 30
0.0
 11
-165.0
 21
-6.9677740000000767
 31
0.0
  0
ARC
  8
DETAIL
  6
CONTINUOUS
 62
     5
 10
-163.0
 20
-6.9677740000000767
 30
0.0
 40
2.0
 50
180.00000100000139
 51
245.68368999999839
  0
ARC
  8
DETAIL
  6
CONTINUOUS
 62
     5
 10
-135.0
 20
55.0
 30
0.0
 40
70.0
 50
245.68423599999059
 51
269.99998299999572
  0
LINE
  8
DETAIL
  6
CONTINUOUS
 62
     5
 10
125.1999229999999
 20
159.7500969999999
 30
0.0
 11
125.1999229999999
 21
165.20009699999989
 31
0.0
  0
ARC
  8
DETAIL
  6
CONTINUOUS
 62
     5
 10
123.9499229999999
 20
165.20009699999989
 30
0.0
 40
1.25
 50
0.0
 51
90.0
  0
ARC
  8
DETAIL
  6
CONTINUOUS
 62
     5
 10
123.9499229999999
 20
159.7500969999999
 30
0.0
 40
1.25
 50
270.0
 51
0.0
  0
LINE
  8
DETAIL
  6
CONTINUOUS
 62
     5
 10
125.5
 20
1.0
 30
0.0
 11
125.5
 21
158.05000000000001
 31
0.0
  0
ARC
  8
DETAIL
  6
CONTINUOUS
 62
     5
 10
126.5
 20
1.0
 30
0.0
 40
1.0
 50
180.0
 51
270.0
  0
ARC
  8
DETAIL
  6
CONTINUOUS
 62
     5
 10
-126.49992399999999
 20
1.0
 30
0.0
 40
1.0
 50
270.0
 51
0.0
  0
ARC
  8
DETAIL
  6
CONTINUOUS
 62
     5
 10
125.05
 20
158.05000000000001
 30
0.0
 40
0.45
 50
0.0
 51
90.0
  0
LINE
  8
DETAIL
  6
CONTINUOUS
 62
     5
 10
-125.199924
 20
159.7500969999999
 30
0.0
 11
-125.199924
 21
165.20009699999989
 31
0.0
  0
ARC
  8
DETAIL
  6
CONTINUOUS
 62
     5
 10
-123.949924
 20
165.20009699999989
 30
0.0
 40
1.25
 50
90.0
 51
180.0
  0
ARC
  8
DETAIL
  6
CONTINUOUS
 62
     5
 10
-123.949924
 20
159.7500969999999
 30
0.0
 40
1.25
 50
180.0
 51
270.0
  0
LINE
  8
DETAIL
  6
CONTINUOUS
 62
     5
 10
-125.49992399999999
 20
1.0
 30
0.0
 11
-125.49992399999999
 21
158.05000000000001
 31
0.0
  0
ARC
  8
DETAIL
  6
CONTINUOUS
 62
     5
 10
-125.0499240000001
 20
158.05000000000001
 30
0.0
 40
0.45
 50
90.0
 51
180.0
  0
ARC
  8
DETAIL
  6
CONTINUOUS
 62
     5
 10
-44.411483000000089
 20
168.4500909999999
 30
0.0
 40
2.0
 50
90.0
 51
147.1152420000079
  0
LINE
  8
DETAIL
  6
CONTINUOUS
 62
     5
 10
-125.0499240000001
 20
158.49999999999989
 30
0.0
 11
125.05
 21
158.49999999999989
 31
0.0
  0
LINE
  8
DETAIL
  6
CONTINUOUS
 62
     5
 10
123.9499229999999
 20
166.45009699999989
 30
0.0
 11
-123.949924
 21
166.45009699999989
 31
0.0
  0
LINE
  8
DETAIL
  6
CONTINUOUS
 62
     5
 10
-46.091012000000092
 20
169.53599399999979
 30
0.0
 11
-48.086203000000069
 21
166.45009699999989
 31
0.0
  0
ARC
  8
DETAIL
  6
CONTINUOUS
 62
     5
 10
68.411634999999933
 20
168.4500909999999
 30
0.0
 40
2.0
 50
32.884757999992154
 51
90.0
  0
LINE
  8
DETAIL
  6
CONTINUOUS
 62
     5
 10
70.091163999999935
 20
169.53599399999979
 30
0.0
 11
72.086354999999912
 21
166.45009699999989
 31
0.0
  0
LINE
  8
DETAIL
  6
CONTINUOUS
 62
     5
 10
-44.411483000000089
 20
170.4500909999999
 30
0.0
 11
68.411634999999933
 21
170.4500909999999
 31
0.0
  0
LINE
  8
OUTLINE
  6
CONTINUOUS
 62
     3
 10
-239.40010099999989
 20
159.90023800000009
 30
0.0
 11
-239.40010099999989
 21
62.899901999999997
 31
0.0
  0
LINE
  8
OUTLINE
  6
CONTINUOUS
 62
     3
 10
-189.70208199999999
 20
163.90023800000009
 30
0.0
 11
-208.071674
 21
163.90023800000009
 31
0.0
  0
ARC
  8
OUTLINE
  6
CONTINUOUS
 62
     3
 10
-208.071674
 20
60.900238000000058
 30
0.0
 40
2.0
 50
225.00000000000921
 51
270.0
  0
ARC
  8
OUTLINE
  6
CONTINUOUS
 62
     3
 10
-213.02142100000009
 20
60.900238000000058
 30
0.0
 40
1.5
 50
45.000000000009223
 51
90.0
  0
ARC
  8
OUTLINE
  6
CONTINUOUS
 62
     3
 10
-189.70208199999999
 20
55.900238000000058
 30
0.0
 40
3.0
 50
74.921980000001795
 51
90.0
  0
LINE
  8
OUTLINE
  6
CONTINUOUS
 62
     3
 10
-188.92168000000021
 20
58.796955000000139
 30
0.0
 11
-180.47274300000001
 21
56.520734000000061
 31
0.0
  0
ARC
  8
OUTLINE
  6
CONTINUOUS
 62
     3
 10
-179.56227400000009
 20
59.900238000000058
 30
0.0
 40
3.5
 50
254.92198000000181
 51
270.0
  0
LINE
  8
OUTLINE
  6
CONTINUOUS
 62
     3
 10
-188.92168000000021
 20
164.00352000000009
 30
0.0
 11
-180.47274300000001
 21
166.2797420000002
 31
0.0
  0
ARC
  8
OUTLINE
  6
CONTINUOUS
 62
     3
 10
-179.56227400000009
 20
162.90023800000009
 30
0.0
 40
3.5
 50
90.0
 51
105.0780199999982
  0
ARC
  8
OUTLINE
  6
CONTINUOUS
 62
     3
 10
-189.70208199999999
 20
166.90023800000009
 30
0.0
 40
3.0
 50
270.0
 51
285.07801999999822
  0
ARC
  8
OUTLINE
  6
CONTINUOUS
 62
     3
 10
-208.071674
 20
161.90023800000009
 30
0.0
 40
2.0
 50
90.0
 51
134.99999999999079
  0
ARC
  8
OUTLINE
  6
CONTINUOUS
 62
     3
 10
-213.02142100000009
 20
161.90023800000009
 30
0.0
 40
1.5
 50
270.0
 51
314.99999999999079
  0
LINE
  8
OUTLINE
  6
CONTINUOUS
 62
     3
 10
-208.90010099999989
 20
163.72059700000011
 30
0.0
 11
-208.90010099999989
 21
59.079878000000122
 31
0.0
  0
LINE
  8
OUTLINE
  6
CONTINUOUS
 62
     3
 10
-187.40010099999989
 20
164.41344799999999
 30
0.0
 11
-187.40010099999989
 21
58.387027999999987
 31
0.0
  0
ARC
  8
OUTLINE
  6
CONTINUOUS
 62
     3
 10
-125.5001530000002
 20
180.09989900000011
 30
0.0
 40
0.5
 50
0.0
 51
90.0
  0
LINE
  8
OUTLINE
  6
CONTINUOUS
 62
     3
 10
-179.56227400000009
 20
56.400238000000058
 30
0.0
 11
-128.6001590000001
 21
56.400238000000058
 31
0.0
  0
LINE
  8
OUTLINE
  6
CONTINUOUS
 62
     3
 10
-179.56227400000009
 20
166.40023800000009
 30
0.0
 11
-128.6001590000001
 21
166.40023800000009
 31
0.0
  0
LINE
  8
OUTLINE
  6
CONTINUOUS
 62
     3
 10
-125.0001530000002
 20
166.450097
 30
0.0
 11
-125.0001530000002
 21
180.09989900000011
 31
0.0
  0
LINE
  8
OUTLINE
  6
CONTINUOUS
 62
     3
 10
-209.48605500000011
 20
59.485856000000013
 30
0.0
 11
-211.9797980000001
 21
61.979599000000121
 31
0.0
  0
LINE
  8
OUTLINE
  6
CONTINUOUS
 62
     3
 10
-209.4858879999999
 20
163.3144510000001
 30
0.0
 11
-211.96076099999999
 21
160.8395780000001
 31
0.0
  0
LINE
  8
OUTLINE
  6
CONTINUOUS
 62
     3
 10
-189.70208199999999
 20
58.900238000000058
 30
0.0
 11
-208.071674
 21
58.900238000000058
 31
0.0
  0
LINE
  8
OUTLINE
  6
CONTINUOUS
 62
     3
 10
-212.40010099999989
 20
160.53496799999991
 30
0.0
 11
-212.40010099999989
 21
62.265507000000071
 31
0.0
  0
ARC
  8
OUTLINE
  6
CONTINUOUS
 62
     3
 10
-238.90010099999989
 20
159.90023800000009
 30
0.0
 40
0.5
 50
90.0
 51
180.0
  0
ARC
  8
OUTLINE
  6
CONTINUOUS
 62
     3
 10
-238.90010099999989
 20
62.899901999999997
 30
0.0
 40
0.5
 50
180.0
 51
270.0
  0
LINE
  8
OUTLINE
  6
CONTINUOUS
 62
     3
 10
-213.02142100000009
 20
160.40023800000009
 30
0.0
 11
-238.90010099999989
 21
160.40023800000009
 31
0.0
  0
LINE
  8
OUTLINE
  6
CONTINUOUS
 62
     3
 10
-212.9896890000002
 20
62.399901999999997
 30
0.0
 11
-238.90010099999989
 21
62.399901999999997
 31
0.0
  0
ARC
  8
OUTLINE
  6
CONTINUOUS
 62
     3
 10
47.499923000000081
 20
198.7000909999999
 30
0.0
 40
5.5
 50
0.0
 51
90.0
  0
ARC
  8
OUTLINE
  6
CONTINUOUS
 62
     3
 10
-23.500076999999919
 20
198.7000909999999
 30
0.0
 40
5.5
 50
90.0
 51
180.0
  0
LINE
  8
OUTLINE
  6
CONTINUOUS
 62
     3
 10
52.999923000000081
 20
198.7000909999999
 30
0.0
 11
52.999923000000081
 21
170.4500909999999
 31
0.0
  0
LINE
  8
OUTLINE
  6
CONTINUOUS
 62
     3
 10
-23.500076999999919
 20
204.2000909999999
 30
0.0
 11
47.499923000000081
 21
204.2000909999999
 31
0.0
  0
LINE
  8
OUTLINE
  6
CONTINUOUS
 62
     3
 10
-29.000076999999919
 20
198.7000909999999
 30
0.0
 11
-29.000076999999919
 21
170.4500909999999
 31
0.0
  0
LINE
  8
OUTLINE
  6
CONTINUOUS
 62
     3
 10
165.0
 20
-1.5000979999999799
 30
0.0
 11
165.0
 21
-6.9677739999999631
 31
0.0
  0
LINE
  8
OUTLINE
  6
CONTINUOUS
 62
     3
 10
167.0
 20
0.0
 30
0.0
 11
167.0
 21
-0.50009799999998
 31
0.0
  0
ARC
  8
OUTLINE
  6
CONTINUOUS
 62
     3
 10
135.0
 20
55.0
 30
0.0
 40
70.0
 50
269.99992800000319
 51
294.31567500000023
  0
LINE
  8
OUTLINE
  6
CONTINUOUS
 62
     3
 10
135.0
 20
-15.0
 30
0.0
 11
-135.0
 21
-15.0
 31
0.0
  0
ARC
  8
OUTLINE
  6
CONTINUOUS
 62
     3
 10
163.0
 20
-6.9677739999999631
 30
0.0
 40
2.0
 50
294.3162759999924
 51
0.0000369999998155
  0
LINE
  8
OUTLINE
  6
CONTINUOUS
 62
     3
 10
-167.0
 20
0.0
 30
0.0
 11
-167.0
 21
-0.50009799999998
 31
0.0
  0
LINE
  8
OUTLINE
  6
CONTINUOUS
 62
     3
 10
-165.0
 20
-1.5000979999999799
 30
0.0
 11
-165.0
 21
-6.9677739999999631
 31
0.0
  0
ARC
  8
OUTLINE
  6
CONTINUOUS
 62
     3
 10
-163.0
 20
-6.9677739999999631
 30
0.0
 40
2.0
 50
180.00000100000139
 51
245.68368999999839
  0
ARC
  8
OUTLINE
  6
CONTINUOUS
 62
     3
 10
-135.0
 20
55.0
 30
0.0
 40
70.0
 50
245.68423599999059
 51
269.99998299999572
  0
LINE
  8
OUTLINE
  6
CONTINUOUS
 62
     3
 10
125.1999229999999
 20
159.75009700000001
 30
0.0
 11
125.1999229999999
 21
165.200097
 31
0.0
  0
ARC
  8
OUTLINE
  6
CONTINUOUS
 62
     3
 10
123.9499229999999
 20
165.200097
 30
0.0
 40
1.25
 50
0.0
 51
90.0
  0
ARC
  8
OUTLINE
  6
CONTINUOUS
 62
     3
 10
123.9499229999999
 20
159.75009700000001
 30
0.0
 40
1.25
 50
270.0
 51
0.0
  0
ARC
  8
OUTLINE
  6
CONTINUOUS
 62
     3
 10
125.05
 20
158.0500000000001
 30
0.0
 40
0.45
 50
0.0
 51
90.0
  0
LINE
  8
OUTLINE
  6
CONTINUOUS
 62
     3
 10
-125.199924
 20
159.75009700000001
 30
0.0
 11
-125.199924
 21
165.200097
 31
0.0
  0
ARC
  8
OUTLINE
  6
CONTINUOUS
 62
     3
 10
-123.949924
 20
165.200097
 30
0.0
 40
1.25
 50
90.0
 51
180.0
  0
ARC
  8
OUTLINE
  6
CONTINUOUS
 62
     3
 10
-123.949924
 20
159.75009700000001
 30
0.0
 40
1.25
 50
180.0
 51
270.0
  0
ARC
  8
OUTLINE
  6
CONTINUOUS
 62
     3
 10
-125.0499240000001
 20
158.0500000000001
 30
0.0
 40
0.45
 50
90.0
 51
180.0
  0
ARC
  8
OUTLINE
  6
CONTINUOUS
 62
     3
 10
-44.411483000000089
 20
168.4500909999999
 30
0.0
 40
2.0
 50
90.0
 51
147.1152420000079
  0
LINE
  8
OUTLINE
  6
CONTINUOUS
 62
     3
 10
-46.091012000000092
 20
169.5359940000001
 30
0.0
 11
-48.086203000000069
 21
166.450097
 31
0.0
  0
ARC
  8
OUTLINE
  6
CONTINUOUS
 62
     3
 10
68.411634999999933
 20
168.4500909999999
 30
0.0
 40
2.0
 50
32.884757999992154
 51
90.0
  0
LINE
  8
OUTLINE
  6
CONTINUOUS
 62
     3
 10
70.091163999999935
 20
169.5359940000001
 30
0.0
 11
72.086354999999912
 21
166.450097
 31
0.0
  0
LINE
  8
OUTLINE
  6
CONTINUOUS
 62
     3
 10
-166.0
 20
-0.50009799999998
 30
0.0
 11
-167.0
 21
-0.50009799999998
 31
0.0
  0
ARC
  8
OUTLINE
  6
CONTINUOUS
 62
     3
 10
-166.0
 20
-1.5000979999999799
 30
0.0
 40
1.0
 50
0.0
 51
90.0
  0
LINE
  8
OUTLINE
  6
CONTINUOUS
 62
     3
 10
-167.0
 20
0.0
 30
0.0
 11
-125.49992399999999
 21
0.0
 31
0.0
  0
LINE
  8
OUTLINE
  6
CONTINUOUS
 62
     3
 10
-126.6001590000001
 20
43.400238000000058
 30
0.0
 11
-125.49992399999999
 21
43.400238000000058
 31
0.0
  0
LINE
  8
OUTLINE
  6
CONTINUOUS
 62
     3
 10
-125.49992399999999
 20
0.0
 30
0.0
 11
-125.49992399999999
 21
43.400238000000058
 31
0.0
  0
ARC
  8
OUTLINE
  6
CONTINUOUS
 62
     3
 10
-128.6001590000001
 20
54.400238000000058
 30
0.0
 40
2.0
 50
0.0
 51
90.0
  0
LINE
  8
OUTLINE
  6
CONTINUOUS
 62
     3
 10
-126.6001590000001
 20
54.400238000000058
 30
0.0
 11
-126.6001590000001
 21
43.400238000000058
 31
0.0
  0
LINE
  8
OUTLINE
  6
CONTINUOUS
 62
     3
 10
-126.6001590000001
 20
178.98617500000009
 30
0.0
 11
-126.6001590000001
 21
168.40023800000009
 31
0.0
  0
ARC
  8
OUTLINE
  6
CONTINUOUS
 62
     3
 10
-128.6001590000001
 20
168.40023800000009
 30
0.0
 40
2.0
 50
270.0
 51
0.0
  0
LINE
  8
OUTLINE
  6
CONTINUOUS
 62
     3
 10
-126.6001590000001
 20
178.98617500000009
 30
0.0
 11
-126.0001530000002
 21
178.98617500000009
 31
0.0
  0
LINE
  8
OUTLINE
  6
CONTINUOUS
 62
     3
 10
-126.0001530000002
 20
180.09989900000011
 30
0.0
 11
-126.0001530000002
 21
178.98617500000009
 31
0.0
  0
ARC
  8
OUTLINE
  6
CONTINUOUS
 62
     3
 10
-125.5001530000002
 20
180.09989900000011
 30
0.0
 40
0.5
 50
90.0
 51
180.0
  0
LINE
  8
OUTLINE
  6
CONTINUOUS
 62
     3
 10
-125.5001530000002
 20
166.450097
 30
0.0
 11
-125.0001530000002
 21
166.450097
 31
0.0
  0
LINE
  8
OUTLINE
  6
CONTINUOUS
 62
     3
 10
-125.5001530000002
 20
157.89980800000001
 30
0.0
 11
-125.5001530000002
 21
166.450097
 31
0.0
  0
LINE
  8
OUTLINE
  6
CONTINUOUS
 62
     3
 10
-125.0499240000001
 20
158.5
 30
0.0
 11
-123.949924
 21
158.5
 31
0.0
  0
LINE
  8
OUTLINE
  6
CONTINUOUS
 62
     3
 10
123.9499229999999
 20
166.450097
 30
0.0
 11
72.086354999999912
 21
166.450097
 31
0.0
  0
LINE
  8
OUTLINE
  6
CONTINUOUS
 62
     3
 10
-48.086203000000069
 20
166.450097
 30
0.0
 11
-123.949924
 21
166.450097
 31
0.0
  0
LINE
  8
OUTLINE
  6
CONTINUOUS
 62
     3
 10
-44.411483000000089
 20
170.4500909999999
 30
0.0
 11
-29.000076999999919
 21
170.4500909999999
 31
0.0
  0
LINE
  8
OUTLINE
  6
CONTINUOUS
 62
     3
 10
52.999923000000081
 20
170.4500909999999
 30
0.0
 11
68.411634999999933
 21
170.4500909999999
 31
0.0
  0
LINE
  8
OUTLINE
  6
CONTINUOUS
 62
     3
 10
125.5
 20
0.0
 30
0.0
 11
125.5
 21
158.0500000000001
 31
0.0
  0
LINE
  8
OUTLINE
  6
CONTINUOUS
 62
     3
 10
125.5
 20
0.0
 30
0.0
 11
167.0
 21
0.0
 31
0.0
  0
LINE
  8
OUTLINE
  6
CONTINUOUS
 62
     3
 10
167.0
 20
-0.50009799999998
 30
0.0
 11
166.0
 21
-0.50009799999998
 31
0.0
  0
ARC
  8
OUTLINE
  6
CONTINUOUS
 62
     3
 10
166.0
 20
-1.5000979999999799
 30
0.0
 40
1.0
 50
90.0
 51
180.0
  0
LINE
  8
NOTE
  6
CENTER
 62
     4
 10
-104.0
 20
150.73361199999999
 30
0.0
 11
-104.0
 21
175.847227
 31
0.0
  0
LINE
  8
SIZE
  6
CONTINUOUS
 62
    30
 10
-186.99999999999989
 20
0.0
 30
0.0
 11
-449.88227627599741
 21
0.0000000000000568
 31
0.0
  0
LINE
  8
SIZE
  6
CONTINUOUS
 62
    30
 10
-267.6064745000001
 20
111.3999020000001
 30
0.0
 11
-449.88227627599741
 21
111.3999020000002
 31
0.0
  0
LINE
  8
SIZE
  6
CONTINUOUS
 62
    30
 10
-429.88227627599741
 20
99.399902000000111
 30
0.0
 11
-429.88227627599741
 21
12.00000000000006
 31
0.0
  0
LINE
  8
SIZE
  6
CONTINUOUS
 62
    30
 10
-429.88227627599741
 20
0.0000000000000568
 30
0.0
 11
-429.88227627599741
 21
-163.48571428571421
 31
0.0
  0
CIRCLE
  8
SIZE
  6
CONTINUOUS
 62
    30
 10
-429.88227627599741
 20
111.3999020000002
 30
0.0
 40
6.0
  0
LINE
  8
SIZE
  6
CONTINUOUS
 62
    30
 10
-429.88227627599741
 20
111.3999020000002
 30
0.0
 11
-429.88227627599741
 21
99.399902000000225
 31
0.0
  0
CIRCLE
  8
SIZE
  6
CONTINUOUS
 62
    30
 10
-429.88227627599741
 20
0.0000000000000568
 30
0.0
 40
6.0
  0
LINE
  8
SIZE
  6
CONTINUOUS
 62
    30
 10
-429.88227627599741
 20
0.0000000000000568
 30
0.0
 11
-429.88227627599741
 21
12.00000000000006
 31
0.0
  0
TEXT
  8
SIZE
  6
CONTINUOUS
 62
    30
 10
-454.88227627599741
 20
-138.48571428571429
 30
0.0
 40
64.0
  1
111
 50
90.0
 41
0.9
 72
     1
 11
-454.88227627599741
 21
-87.74285714285719
 31
0.0
  0
POINT
  8
DEFPOINTS
  6
CONTINUOUS
 62
    30
 10
-167.0
 20
0.0
 30
0.0
  0
POINT
  8
DEFPOINTS
  6
CONTINUOUS
 62
    30
 10
-247.6064745000001
 20
111.3999020000001
 30
0.0
  0
POINT
  8
DEFPOINTS
  6
CONTINUOUS
 62
    30
 10
-429.88227627599741
 20
111.3999020000002
 30
0.0
  0
LINE
  8
SIZE
  6
CONTINUOUS
 62
    30
 10
155.0
 20
-15.0
 30
0.0
 11
367.93383484316843
 21
-15.00000000000006
 31
0.0
  0
LINE
  8
SIZE
  6
CONTINUOUS
 62
    30
 10
347.93383484316843
 20
-27.00000000000006
 30
0.0
 11
347.93383484316843
 21
-177.56647518137319
 31
0.0
  0
LINE
  8
SIZE
  6
CONTINUOUS
 62
    30
 10
347.93383484316843
 20
-0.0000000000000568
 30
0.0
 11
347.93383484316843
 21
-15.00000000000006
 31
0.0
  0
CIRCLE
  8
SIZE
  6
CONTINUOUS
 62
    30
 10
347.93383484316843
 20
-15.00000000000006
 30
0.0
 40
6.0
  0
LINE
  8
SIZE
  6
CONTINUOUS
 62
    30
 10
347.93383484316843
 20
-15.00000000000006
 30
0.0
 11
347.93383484316843
 21
-27.00000000000006
 31
0.0
  0
TEXT
  8
SIZE
  6
CONTINUOUS
 62
    30
 10
322.93383484316843
 20
-152.56647518137311
 30
0.0
 40
64.0
  1
15
 50
90.0
 41
0.9
 72
     1
 11
322.93383484316843
 21
-111.423618038516
 31
0.0
  0
POINT
  8
DEFPOINTS
  6
CONTINUOUS
 62
    30
 10
135.0
 20
-15.0
 30
0.0
  0
POINT
  8
DEFPOINTS
  6
CONTINUOUS
 62
    30
 10
167.0
 20
0.0
 30
0.0
  0
POINT
  8
DEFPOINTS
  6
CONTINUOUS
 62
    30
 10
167.0
 20
0.0
 30
0.0
  0
POINT
  8
DEFPOINTS
  6
CONTINUOUS
 62
    30
 10
47.499923000000081
 20
204.2000909999999
 30
0.0
  0
LINE
  8
DETAIL
  6
CONTINUOUS
 62
     5
 10
-106.000153
 20
0.0
 30
0.0
 11
-106.000153
 21
115.5
 31
0.0
  0
LINE
  8
DETAIL
  6
CONTINUOUS
 62
     5
 10
-125.49992400000021
 20
115.5
 30
0.0
 11
-106.000153
 21
115.5
 31
0.0
  0
LINE
  8
SIZE
  6
CONTINUOUS
 62
    30
 10
67.499923000000081
 20
204.2000909999999
 30
0.0
 11
367.93383484316843
 21
204.2000909999997
 31
0.0
  0
LINE
  8
SIZE
  6
CONTINUOUS
 62
    30
 10
187.0
 20
0.0
 30
0.0
 11
367.93383484316843
 21
-0.0000000000000568
 31
0.0
  0
LINE
  8
SIZE
  6
CONTINUOUS
 62
    30
 10
347.93383484316843
 20
192.2000909999997
 30
0.0
 11
347.93383484316843
 21
11.99999999999994
 31
0.0
  0
CIRCLE
  8
SIZE
  6
CONTINUOUS
 62
    30
 10
347.93383484316843
 20
204.2000909999997
 30
0.0
 40
6.0
  0
LINE
  8
SIZE
  6
CONTINUOUS
 62
    30
 10
347.93383484316843
 20
204.2000909999997
 30
0.0
 11
347.93383484316843
 21
192.2000909999997
 31
0.0
  0
CIRCLE
  8
SIZE
  6
CONTINUOUS
 62
    30
 10
347.93383484316843
 20
-0.0000000000000568
 30
0.0
 40
6.0
  0
LINE
  8
SIZE
  6
CONTINUOUS
 62
    30
 10
347.93383484316843
 20
-0.0000000000000568
 30
0.0
 11
347.93383484316843
 21
11.99999999999994
 31
0.0
  0
TEXT
  8
SIZE
  6
CONTINUOUS
 62
    30
 10
322.93383484316843
 20
26.671474071428548
 30
0.0
 40
64.0
  1
204
 50
90.0
 41
0.9
 72
     1
 11
322.93383484316843
 21
102.10004549999999
 31
0.0
  0
POINT
  8
DEFPOINTS
  6
CONTINUOUS
 62
    30
 10
47.499923000000081
 20
204.2000909999999
 30
0.0
  0
POINT
  8
DEFPOINTS
  6
CONTINUOUS
 62
    30
 10
167.0
 20
0.0
 30
0.0
  0
POINT
  8
DEFPOINTS
  6
CONTINUOUS
 62
    30
 10
347.93383484316843
 20
-0.0000000000000568
 30
0.0
  0
ENDSEC
  0
EOF
