  0
SECTION
  2
HEADER
  9
$ACADVER
  1
AC1009
  9
$DWGCODEPAGE
  3
dos932
  9
$INSBASE
 10
0.0
 20
0.0
 30
0.0
  9
$EXTMIN
 10
-724.19126773508287
 20
-553.07005677962479
 30
-0.0015258207003583
  9
$EXTMAX
 10
1122.995006797129
 20
901.38245467257548
 30
0.0000000349246037
  9
$LIMMIN
 10
-2970.0
 20
-2100.0
  9
$LIMMAX
 10
2970.0
 20
2100.0
  9
$ORTHOMODE
 70
     1
  9
$REGENMODE
 70
     1
  9
$FILLMODE
 70
     1
  9
$QTEXTMODE
 70
     0
  9
$MIRRTEXT
 70
     0
  9
$LTSCALE
 40
20.0
  9
$ATTMODE
 70
     1
  9
$TEXTSIZE
 40
64.0
  9
$TRACEWID
 40
0.05
  9
$TEXTSTYLE
  7
STANDARD
  9
$CLAYER
  8
SIZE
  9
$CELTYPE
  6
CONTINUOUS
  9
$CECOLOR
 62
     7
  9
$DIMSCALE
 40
1.0
  9
$DIMASZ
 40
12.0
  9
$DIMEXO
 40
20.0
  9
$DIMDLI
 40
200.0
  9
$DIMRND
 40
0.0
  9
$DIMDLE
 40
0.0
  9
$DIMEXE
 40
20.0
  9
$DIMTP
 40
0.0
  9
$DIMTM
 40
0.0
  9
$DIMTXT
 40
64.0
  9
$DIMCEN
 40
0.09
  9
$DIMTSZ
 40
0.0
  9
$DIMTOL
 70
     0
  9
$DIMLIM
 70
     0
  9
$DIMTIH
 70
     0
  9
$DIMTOH
 70
     0
  9
$DIMSE1
 70
     0
  9
$DIMSE2
 70
     0
  9
$DIMTAD
 70
     1
  9
$DIMZIN
 70
     8
  9
$DIMBLK
  1

  9
$DIMASO
 70
     1
  9
$DIMSHO
 70
     0
  9
$DIMPOST
  1

  9
$DIMAPOST
  1

  9
$DIMALT
 70
     0
  9
$DIMALTD
 70
     2
  9
$DIMALTF
 40
25.399999999999999
  9
$DIMLFAC
 40
1.0
  9
$DIMTOFL
 70
     1
  9
$DIMTVP
 40
0.0
  9
$DIMTIX
 70
     1
  9
$DIMSOXD
 70
     0
  9
$DIMSAH
 70
     0
  9
$DIMBLK1
  1

  9
$DIMBLK2
  1

  9
$DIMSTYLE
  2
STANDARD
  9
$DIMCLRD
 70
     7
  9
$DIMCLRE
 70
     7
  9
$DIMCLRT
 70
     7
  9
$DIMTFAC
 40
1.0
  9
$DIMGAP
 40
25.0
  9
$LUNITS
 70
     2
  9
$LUPREC
 70
     4
  9
$SKETCHINC
 40
0.1
  9
$FILLETRAD
 40
3.0
  9
$AUNITS
 70
     1
  9
$AUPREC
 70
     3
  9
$MENU
  1
ACAD
  9
$ELEVATION
 40
0.0
  9
$PELEVATION
 40
0.0
  9
$THICKNESS
 40
0.0
  9
$LIMCHECK
 70
     0
  9
$CHAMFERA
 40
0.0
  9
$CHAMFERB
 40
0.0
  9
$SKPOLY
 70
     0
  9
$TDCREATE
 40
2453019.62301037
  9
$TDUPDATE
 40
2459025.504695232
  9
$TDINDWG
 40
1.7131409838
  9
$TDUSRTIMER
 40
1.7131409838
  9
$USRTIMER
 70
     1
  9
$ANGBASE
 50
0.0
  9
$ANGDIR
 70
     0
  9
$PDMODE
 70
     3
  9
$PDSIZE
 40
-2.0
  9
$PLINEWID
 40
0.0
  9
$SPLFRAME
 70
     0
  9
$SPLINETYPE
 70
     6
  9
$SPLINESEGS
 70
     8
  9
$SURFTAB1
 70
     6
  9
$SURFTAB2
 70
     6
  9
$SURFTYPE
 70
     6
  9
$SURFU
 70
     6
  9
$SURFV
 70
     6
  9
$UCSNAME
  2

  9
$UCSORG
 10
0.0
 20
0.0
 30
0.0
  9
$UCSXDIR
 10
1.0
 20
0.0
 30
0.0
  9
$UCSYDIR
 10
0.0
 20
1.0
 30
0.0
  9
$PUCSNAME
  2

  9
$PUCSORG
 10
0.0
 20
0.0
 30
0.0
  9
$PUCSXDIR
 10
1.0
 20
0.0
 30
0.0
  9
$PUCSYDIR
 10
0.0
 20
1.0
 30
0.0
  9
$USERI1
 70
     0
  9
$USERI2
 70
     0
  9
$USERI3
 70
     0
  9
$USERI4
 70
     0
  9
$USERI5
 70
     0
  9
$USERR1
 40
20.0
  9
$USERR2
 40
0.0
  9
$USERR3
 40
0.0
  9
$USERR4
 40
0.0
  9
$USERR5
 40
0.0
  9
$WORLDVIEW
 70
     1
  9
$SHADEDGE
 70
     3
  9
$SHADEDIF
 70
    70
  9
$TILEMODE
 70
     1
  9
$MAXACTVP
 70
    48
  9
$PINSBASE
 10
0.0
 20
0.0
 30
0.0
  9
$PLIMCHECK
 70
     0
  9
$PEXTMIN
 10
-100000000000000000000.0
 20
-100000000000000000000.0
 30
-100000000000000000000.0
  9
$PEXTMAX
 10
100000000000000000000.0
 20
100000000000000000000.0
 30
100000000000000000000.0
  9
$PLIMMIN
 10
0.0
 20
0.0
  9
$PLIMMAX
 10
12.0
 20
9.0
  9
$UNITMODE
 70
     0
  9
$VISRETAIN
 70
     0
  9
$PLINEGEN
 70
     0
  9
$PSLTSCALE
 70
     0
  9
$TREEDEPTH
 70
  3020
  9
$ATTDIA
 70
     0
  9
$ATTREQ
 70
     1
  9
$BLIPMODE
 70
     1
  9
$COORDS
 70
     1
  9
$DRAGMODE
 70
     2
  9
$OSMODE
 70
     0
  9
$HANDLING
 70
     0
  9
$HANDSEED
  5
F151
  0
ENDSEC
  0
SECTION
  2
TABLES
  0
TABLE
  2
LTYPE
 70
     3
  0
LTYPE
  2
CONTINUOUS
 70
     0
  3
実線
 72
    65
 73
     0
 40
0.0
  0
LTYPE
  2
DASHDOT
 70
     0
  3
____ _ ____ _ ____ _ ____ _ ____ _ ____ _ ____
 72
    65
 73
     4
 40
5.5
 49
4.0
 49
-0.6
 49
0.3
 49
-0.6
  0
LTYPE
  2
DASHED
 70
     0
  3
-- -- -- -- -- -- -- -- -- -- -- -- -- -- --
 72
    65
 73
     2
 40
0.75
 49
0.5
 49
-0.25
  0
ENDTAB
  0
TABLE
  2
LAYER
 70
    12
  0
LAYER
  2
0
 70
     0
 62
     7
  6
CONTINUOUS
  0
LAYER
  2
BASIS
 70
     0
 62
     6
  6
DASHDOT
  0
LAYER
  2
OUTLINE
 70
     0
 62
     3
  6
CONTINUOUS
  0
LAYER
  2
DETAIL
 70
     0
 62
     5
  6
CONTINUOUS
  0
LAYER
  2
SIZE
 70
     0
 62
    30
  6
CONTINUOUS
  0
LAYER
  2
ARRANGE
 70
     0
 62
     1
  6
CONTINUOUS
  0
LAYER
  2
DEFPOINTS
 70
     0
 62
     7
  6
CONTINUOUS
  0
LAYER
  2
ETC
 70
     0
 62
    61
  6
CONTINUOUS
  0
LAYER
  2
FIX
 70
     0
 62
    11
  6
CONTINUOUS
  0
LAYER
  2
NOTE
 70
     0
 62
     4
  6
CONTINUOUS
  0
LAYER
  2
SERVICESPACE
 70
    64
 62
     2
  6
DASHDOT
  0
LAYER
  2
SYMBOLLINE
 70
    64
 62
    15
  6
CONTINUOUS
  0
ENDTAB
  0
TABLE
  2
STYLE
 70
     1
  0
STYLE
  2
STANDARD
 70
     0
 40
64.0
 41
0.9
 50
0.0
 71
     0
 42
64.0
  3
SIMPLEX.shx
  4
BIGFONT.shx
  0
ENDTAB
  0
TABLE
  2
APPID
 70
    19
  0
APPID
  2
ACAD
 70
     0
  0
APPID
  2
AUTOCAD_POSTSCRIPT_FIGURE
 70
     0
  0
APPID
  2
ACAD_EXEMPT_FROM_CAD_STANDARDS
 70
     0
  0
APPID
  2
ACAD_PSEXT
 70
     0
  0
APPID
  2
ACAUTHENVIRON
 70
     0
  0
APPID
  2
GENIUS_GENOENT_13
 70
     0
  0
APPID
  2
GENIUS_GENCFG_13
 70
     0
  0
APPID
  2
GENIUS_GENCFG0_13
 70
     0
  0
APPID
  2
GENIUS_GENCFG1_13
 70
     0
  0
APPID
  2
GENIUS_GENCFG2_13
 70
     0
  0
APPID
  2
GENIUS_GENCFG3_13
 70
     0
  0
APPID
  2
GENIUS_GENCFG4_13
 70
     0
  0
APPID
  2
GENIUS_GEVCFG0_13
 70
     0
  0
APPID
  2
CONTENTBLOCKICON
 70
     0
  0
APPID
  2
CONTENTBLOCKDESCRIPTION
 70
     0
  0
APPID
  2
ACAD_NAV_VCDISPLAY
 70
     0
  0
APPID
  2
ACAD_MLEADERVER
 70
     0
  0
APPID
  2
ACDBDYNAMICBLOCKTRUENAME
 70
     0
  0
APPID
  2
ACDBDYNAMICBLOCKGUID
 70
     0
  0
ENDTAB
  0
TABLE
  2
DIMSTYLE
 70
     1
  0
DIMSTYLE
  2
STANDARD
 70
     0
  3

  4

  5
_ORIGIN
  6

  7

 40
1.0
 41
12.0
 42
20.0
 43
200.0
 44
20.0
 45
0.0
 46
0.0
 47
0.0
 48
0.0
140
64.0
141
0.09
142
0.0
143
25.399999999999999
144
1.0
145
0.0
146
1.0
147
25.0
 71
     0
 72
     0
 73
     0
 74
     0
 75
     0
 76
     0
 77
     1
 78
     8
170
     0
171
     2
172
     1
173
     0
174
     1
175
     0
176
     7
177
     7
178
     7
  0
ENDTAB
  0
TABLE
  2
VIEW
 70
     1
  0
VIEW
  2
ALL
 70
     0
 40
4282.6198079999986
 10
0.0
 20
41.309904000000003
 41
5940.0
 11
0.0
 21
0.0
 31
1.0
 12
0.0
 22
0.0
 32
0.0
 42
50.0
 43
0.0
 44
0.0
 50
0.0
 71
     0
  0
ENDTAB
  0
TABLE
  2
UCS
 70
     0
  0
ENDTAB
  0
TABLE
  2
VPORT
 70
     1
  0
VPORT
  2
*ACTIVE
 70
     0
 10
0.0
 20
0.0
 11
1.0
 21
1.0
 12
199.40186953102329
 22
174.15619894647531
 13
0.0
 23
0.0
 14
1.0
 24
1.0
 15
0.0
 25
0.0
 16
0.0
 26
0.0
 36
1.0
 17
0.0
 27
0.0
 37
0.0
 40
1464.095290533651
 41
1.747787610619469
 42
50.0
 43
0.0
 44
0.0
 50
0.0
 51
0.0
 71
     0
 72
  1000
 73
     1
 74
     3
 75
     0
 76
     0
 77
     0
 78
     0
  0
ENDTAB
  0
ENDSEC
  0
SECTION
  2
BLOCKS
  0
BLOCK
  8
0
  2
_ORIGIN
 70
     0
 10
0.0
 20
0.0
 30
0.0
  3
_ORIGIN
  1
_ORIGIN
  0
CIRCLE
  8
0
  6
CONTINUOUS
 62
     7
 10
0.0
 20
0.0
 30
0.0
 40
0.5
  0
LINE
  8
0
  6
CONTINUOUS
 62
     7
 10
0.0
 20
0.0
 30
0.0
 11
-1.0
 21
0.0
 31
0.0
  0
ENDBLK
  8
0
  0
ENDSEC
  0
SECTION
  2
ENTITIES
  0
LINE
  8
OUTLINE
  6
CONTINUOUS
 62
     3
 10
167.5
 20
0.0
 30
0.0
 11
-167.5
 21
0.0
 31
0.0
  0
POINT
  8
ARRANGE
  6
CONTINUOUS
 62
     1
 10
0.0
 20
0.0
 30
0.0
  0
LINE
  8
DETAIL
  6
CONTINUOUS
 62
     5
 10
167.5
 20
0.0
 30
0.0
 11
-167.5
 21
0.0
 31
0.0
  0
ARC
  8
DETAIL
  6
CONTINUOUS
 62
     5
 10
0.0
 20
2181.0
 30
0.0
 40
2194.0
 50
266.4720240000018
 51
273.5279759999982
  0
ARC
  8
DETAIL
  6
CONTINUOUS
 62
     5
 10
0.0
 20
2181.0
 30
0.0
 40
2200.0
 50
266.4720240000018
 51
273.5279759999982
  0
ARC
  8
DETAIL
  6
CONTINUOUS
 62
     5
 10
0.0
 20
2181.0
 30
0.0
 40
2200.0
 50
266.4720240000018
 51
273.5279759999982
  0
ARC
  8
DETAIL
  6
CONTINUOUS
 62
     5
 10
0.0
 20
2181.0
 30
0.0
 40
2194.0
 50
266.4720240000018
 51
273.5279759999982
  0
LINE
  8
DETAIL
  6
CONTINUOUS
 62
     5
 10
167.5
 20
0.0
 30
0.0
 11
-167.5
 21
0.0
 31
0.0
  0
LINE
  8
OUTLINE
  6
DASHED
 62
     3
 10
90.0
 20
166.0000279999999
 30
0.0
 11
-87.5
 21
166.0000279999999
 31
0.0
  0
LINE
  8
BASIS
  6
DASHDOT
 62
     6
 10
95.903625000000034
 20
111.0
 30
0.0
 11
-95.903625000000034
 21
111.0
 31
0.0
  0
LINE
  8
DETAIL
  6
CONTINUOUS
 62
     5
 10
45.0
 20
166.0
 30
0.0
 11
-45.0
 21
166.0
 31
0.0
  0
LINE
  8
DETAIL
  6
CONTINUOUS
 62
     5
 10
45.0
 20
56.0
 30
0.0
 11
-45.0
 21
56.0
 31
0.0
  0
ARC
  8
DETAIL
  6
CONTINUOUS
 62
     5
 10
0.0
 20
111.0
 30
0.0
 40
48.0
 50
329.99999999999909
 51
23.43423800000172
  0
ARC
  8
DETAIL
  6
CONTINUOUS
 62
     5
 10
0.0
 20
111.0
 30
0.0
 40
48.0
 50
101.7848540000017
 51
149.99999999999989
  0
CIRCLE
  8
DETAIL
  6
CONTINUOUS
 62
     5
 10
0.0
 20
111.0
 30
0.0
 40
47.0
  0
LINE
  8
DETAIL
  6
CONTINUOUS
 62
     5
 10
26.830127018922209
 20
147.47114317029971
 30
0.0
 11
-18.080052481077811
 21
69.684430499261452
 31
0.0
  0
CIRCLE
  8
DETAIL
  6
CONTINUOUS
 62
     5
 10
0.0
 20
111.0
 30
0.0
 40
49.0
  0
CIRCLE
  8
DETAIL
  6
CONTINUOUS
 62
     5
 10
0.0
 20
111.0
 30
0.0
 40
52.5
  0
LINE
  8
DETAIL
  6
CONTINUOUS
 62
     5
 10
39.5
 20
178.0544279999998
 30
0.0
 11
-39.5
 21
178.0544279999998
 31
0.0
  0
TEXT
  8
SIZE
  6
CONTINUOUS
 62
    30
 10
-110.5371428571429
 20
-507.77386336045919
 30
0.0
 40
64.0
  1
□335
 41
0.9
 72
     1
 11
0.0
 21
-507.77386336045919
 31
0.0
  0
LINE
  8
SIZE
  6
CONTINUOUS
 62
    30
 10
155.4999999999998
 20
-532.77386336045925
 30
0.0
 11
-155.4999999999998
 21
-532.77386336045925
 31
0.0
  0
LINE
  8
DETAIL
  6
CONTINUOUS
 62
     5
 10
-11.939996000000059
 20
201.97611200000009
 30
0.0
 11
24.00000399999999
 21
201.97611200000009
 31
0.0
  0
LINE
  8
DETAIL
  6
CONTINUOUS
 62
     5
 10
24.00000399999999
 20
204.0000279999999
 30
0.0
 11
-5.4689499999999498
 21
204.0000279999999
 31
0.0
  0
LINE
  8
SIZE
  6
CONTINUOUS
 62
    30
 10
-5.0
 20
477.69610532568908
 30
0.0
 11
53.000001999999988
 21
477.69610532568908
 31
0.0
  0
TEXT
  8
SIZE
  6
CONTINUOUS
 62
    30
 10
-98.194285714285726
 20
723.09367499515974
 30
0.0
 40
64.0
  1
□251
 41
0.9
 72
     1
 11
0.0
 21
723.09367499515974
 31
0.0
  0
LINE
  8
SIZE
  6
CONTINUOUS
 62
    30
 10
-113.5
 20
690.18457897443295
 30
0.0
 11
113.5
 21
690.18457897443295
 31
0.0
  0
TEXT
  8
SIZE
  6
CONTINUOUS
 62
    30
 10
-68.571428571428555
 20
600.8912980451687
 30
0.0
 40
64.0
  1
210
 41
0.9
 72
     1
 11
0.0
 21
600.8912980451687
 31
0.0
  0
LINE
  8
SIZE
  6
CONTINUOUS
 62
    30
 10
93.0
 20
575.8912980451687
 30
0.0
 11
-93.0
 21
575.8912980451687
 31
0.0
  0
LINE
  8
DETAIL
  6
CONTINUOUS
 62
     5
 10
78.0
 20
180.0000279999999
 30
0.0
 11
-92.0
 21
180.0000279999999
 31
0.0
  0
LINE
  8
DETAIL
  6
CONTINUOUS
 62
     5
 10
39.5
 20
44.05442800000003
 30
0.0
 11
0.0
 21
44.05442800000003
 31
0.0
  0
TEXT
  8
SIZE
  6
CONTINUOUS
 62
    30
 10
-74.057142857142821
 20
837.14180883020254
 30
0.0
 40
64.0
  1
285
 41
0.9
 72
     1
 11
0.0
 21
837.14180883020254
 31
0.0
  0
LINE
  8
SIZE
  6
CONTINUOUS
 62
    30
 10
130.4999999999998
 20
812.14180883020254
 30
0.0
 11
-130.4999999999998
 21
812.14180883020254
 31
0.0
  0
CIRCLE
  8
ARRANGE
  6
CONTINUOUS
 62
     1
 10
0.0
 20
0.0
 30
0.0
 40
40.0
  0
TEXT
  8
SIZE
  6
CONTINUOUS
 62
    30
 10
-79.803834857142775
 20
-375.55165836045887
 30
0.0
 40
64.0
  1
283
 41
0.9
 72
     1
 11
-5.7466919999999391
 21
-375.55165836045887
 31
0.0
  0
LINE
  8
SIZE
  6
CONTINUOUS
 62
    30
 10
-129.4999999999998
 20
-400.55165836045887
 30
0.0
 11
129.4999999999998
 21
-400.55165836045887
 31
0.0
  0
TEXT
  8
SIZE
  6
CONTINUOUS
 62
    30
 10
-68.571428571428569
 20
-229.74365899999981
 30
0.0
 40
64.0
  1
170
 41
0.9
 72
     1
 11
0.0
 21
-229.74365899999981
 31
0.0
  0
LINE
  8
SIZE
  6
CONTINUOUS
 62
    30
 10
-73.0
 20
-254.74365899999981
 30
0.0
 11
73.0
 21
-254.74365899999981
 31
0.0
  0
TEXT
  8
NOTE
  6
CONTINUOUS
 62
     4
 10
-42.964580416517947
 20
73.527641506548321
 30
0.0
 40
64.0
  1
EA
 41
0.9
  0
LINE
  8
DETAIL
  6
CONTINUOUS
 62
     5
 10
0.0
 20
166.054428
 30
0.0
 11
45.0
 21
166.054428
 31
0.0
  0
CIRCLE
  8
FIX
  6
CONTINUOUS
 62
    11
 10
-85.0
 20
0.0
 30
0.0
 40
2.5
  0
CIRCLE
  8
FIX
  6
CONTINUOUS
 62
    11
 10
-141.5
 20
0.0
 30
0.0
 40
2.5
  0
LINE
  8
OUTLINE
  6
CONTINUOUS
 62
     3
 10
-125.5
 20
166.0000279999999
 30
0.0
 11
-125.5
 21
0.0
 31
0.0
  0
LINE
  8
SIZE
  6
CONTINUOUS
 62
    30
 10
-466.26239552644262
 20
0.0
 30
0.0
 11
-466.26239552644262
 21
12.0
 31
0.0
  0
CIRCLE
  8
SIZE
  6
CONTINUOUS
 62
    30
 10
-466.26239552644262
 20
0.0
 30
0.0
 40
6.0
  0
LINE
  8
NOTE
  6
CONTINUOUS
 62
     4
 10
-141.5
 20
-20.0
 30
0.0
 11
-141.5
 21
20.0
 31
0.0
  0
LINE
  8
NOTE
  6
CONTINUOUS
 62
     4
 10
-85.0
 20
-20.0
 30
0.0
 11
-85.0
 21
20.0
 31
0.0
  0
LINE
  8
DETAIL
  6
CONTINUOUS
 62
     5
 10
-125.5
 20
174.0000279999999
 30
0.0
 11
-125.5
 21
0.0
 31
0.0
  0
LINE
  8
NOTE
  6
CONTINUOUS
 62
     4
 10
-141.5
 20
0.0544280000000299
 30
0.0
 11
-167.42107899999999
 21
-30.41026699999998
 31
0.0
  0
LINE
  8
NOTE
  6
CONTINUOUS
 62
     4
 10
-148.7159649999999
 20
-39.289312000000002
 30
0.0
 11
-141.5
 21
0.0544280000000299
 31
0.0
  0
LINE
  8
NOTE
  6
CONTINUOUS
 62
     4
 10
-141.5
 20
0.0544280000000299
 30
0.0
 11
-289.71553300000011
 21
-321.68111899999991
 31
0.0
  0
LINE
  8
BASIS
  6
DASHDOT
 62
     6
 10
0.0
 20
222.01639
 30
0.0
 11
0.0
 21
-58.610777999999982
 31
0.0
  0
CIRCLE
  8
SIZE
  6
CONTINUOUS
 62
    30
 10
-167.5
 20
-532.77386336045925
 30
0.0
 40
6.0
  0
LINE
  8
SIZE
  6
CONTINUOUS
 62
    30
 10
-167.5
 20
-20.0
 30
0.0
 11
-167.5
 21
-552.77386336045925
 31
0.0
  0
LINE
  8
SIZE
  6
CONTINUOUS
 62
    30
 10
-167.5
 20
-532.77386336045925
 30
0.0
 11
-155.4999999999998
 21
-532.77386336045925
 31
0.0
  0
TEXT
  8
NOTE
  6
CONTINUOUS
 62
     4
 10
-688.76618900000017
 20
-285.905573
 30
0.0
 40
64.0
  1
8-φ5×8
 41
0.9
  0
LINE
  8
NOTE
  6
CONTINUOUS
 62
     4
 10
-289.71553300000011
 20
-321.68111899999991
 30
0.0
 11
-723.738248
 21
-321.68111899999991
 31
0.0
  0
LINE
  8
SIZE
  6
CONTINUOUS
 62
    30
 10
-125.5
 20
195.55970278393991
 30
0.0
 11
-125.5
 21
711.22565641035271
 31
0.0
  0
LINE
  8
SIZE
  6
CONTINUOUS
 62
    30
 10
-141.5
 20
-40.0
 30
0.0
 11
-141.5
 21
-420.55165836045887
 31
0.0
  0
LINE
  8
SIZE
  6
CONTINUOUS
 62
    30
 10
-141.5
 20
-400.55165836045887
 30
0.0
 11
-129.4999999999998
 21
-400.55165836045887
 31
0.0
  0
CIRCLE
  8
SIZE
  6
CONTINUOUS
 62
    30
 10
-141.5
 20
-400.55165836045887
 30
0.0
 40
6.0
  0
LINE
  8
SIZE
  6
CONTINUOUS
 62
    30
 10
-125.5
 20
690.18457897443295
 30
0.0
 11
-113.5
 21
690.18457897443295
 31
0.0
  0
CIRCLE
  8
SIZE
  6
CONTINUOUS
 62
    30
 10
-125.5
 20
690.18457897443295
 30
0.0
 40
6.0
  0
LINE
  8
SIZE
  6
CONTINUOUS
 62
    30
 10
-185.02739100000011
 20
0.0
 30
0.0
 11
-486.26239552644262
 21
0.0
 31
0.0
  0
TEXT
  8
SIZE
  6
CONTINUOUS
 62
    30
 10
-491.26239552644262
 20
1.270990009850834
 30
0.0
 40
64.0
  1
111
 50
90.0
 41
0.9
 72
     1
 11
-491.26239552644262
 21
52.013847152707967
 31
0.0
  0
LINE
  8
SIZE
  6
CONTINUOUS
 62
    30
 10
-85.0
 20
-40.0
 30
0.0
 11
-85.0
 21
-274.74365899999998
 31
0.0
  0
LINE
  8
SIZE
  6
CONTINUOUS
 62
    30
 10
-85.0
 20
-254.74365899999981
 30
0.0
 11
-73.0
 21
-254.74365899999981
 31
0.0
  0
CIRCLE
  8
SIZE
  6
CONTINUOUS
 62
    30
 10
-85.0
 20
-254.74365899999981
 30
0.0
 40
6.0
  0
LINE
  8
DETAIL
  6
CONTINUOUS
 62
     5
 10
-135.3789689999999
 20
-14.83071599999994
 30
0.0
 11
-159.90202799999969
 21
-14.196499000000021
 31
0.0
  0
LINE
  8
DETAIL
  6
CONTINUOUS
 62
     5
 10
-135.22384899999969
 20
-8.8327219999999897
 30
0.0
 11
-167.25603599999999
 21
-8.0043029999999362
 31
0.0
  0
LINE
  8
DETAIL
  6
CONTINUOUS
 62
     5
 10
-135.22384899999969
 20
-8.8327219999999897
 30
0.0
 11
-167.25603599999999
 21
-8.0043029999999362
 31
0.0
  0
LINE
  8
DETAIL
  6
CONTINUOUS
 62
     5
 10
-135.3789689999999
 20
-14.83071599999994
 30
0.0
 11
-159.90202799999969
 21
-14.196499000000021
 31
0.0
  0
LINE
  8
DETAIL
  6
CONTINUOUS
 62
     5
 10
-167.5
 20
0.0
 30
0.0
 11
-167.5
 21
-6.5427439999999706
 31
0.0
  0
ARC
  8
DETAIL
  6
CONTINUOUS
 62
     5
 10
-159.78568799999991
 20
-9.6980029999999715
 30
0.0
 40
4.5
 50
232.92509499999909
 51
268.51854300000099
  0
ARC
  8
DETAIL
  6
CONTINUOUS
 62
     5
 10
-149.23566199999979
 20
4.2643379999999516
 30
0.0
 40
22.0
 50
218.13726199999701
 51
232.92509499999909
  0
ARC
  8
DETAIL
  6
CONTINUOUS
 62
     5
 10
-163.0
 20
-6.5427439999999706
 30
0.0
 40
4.5
 50
180.0
 51
218.13726199999701
  0
ARC
  8
DETAIL
  6
CONTINUOUS
 62
     5
 10
-163.0
 20
-6.5427439999999706
 30
0.0
 40
4.5
 50
180.0
 51
218.13726199999701
  0
ARC
  8
DETAIL
  6
CONTINUOUS
 62
     5
 10
-149.23566199999979
 20
4.2643379999999516
 30
0.0
 40
22.0
 50
218.13726199999701
 51
232.92509499999909
  0
ARC
  8
DETAIL
  6
CONTINUOUS
 62
     5
 10
-159.78568799999991
 20
-9.6980029999999715
 30
0.0
 40
4.5
 50
232.92509499999909
 51
268.51854300000099
  0
LINE
  8
DETAIL
  6
CONTINUOUS
 62
     5
 10
-167.5
 20
-1.0
 30
0.0
 11
-167.5
 21
-6.5427439999999706
 31
0.0
  0
LINE
  8
NOTE
  6
CONTINUOUS
 62
     4
 10
-161.5
 20
0.0
 30
0.0
 11
-121.5
 21
0.0
 31
0.0
  0
LINE
  8
NOTE
  6
CONTINUOUS
 62
     4
 10
-105.0
 20
0.0
 30
0.0
 11
-65.0
 21
0.0
 31
0.0
  0
POINT
  8
DEFPOINTS
  6
CONTINUOUS
 62
    30
 10
0.0
 20
-19.0
 30
0.0
  0
POINT
  8
DEFPOINTS
  6
CONTINUOUS
 62
    30
 10
0.0
 20
-58.610777999999982
 30
0.0
  0
LINE
  8
NOTE
  6
CONTINUOUS
 62
     4
 10
-521.05934396916746
 20
360.82751411709398
 30
0.0
 11
-283.80924398545397
 21
360.82751411709398
 31
0.0
  0
TEXT
  8
NOTE
  6
CONTINUOUS
 62
     4
 10
-499.77609607061208
 20
384.82362632287487
 30
0.0
 40
64.0
  1
AH 4
 41
0.9
  0
LINE
  8
SIZE
  6
CONTINUOUS
 62
    30
 10
-105.0
 20
214.0544279999998
 30
0.0
 11
-105.0
 21
595.8912980451687
 31
0.0
  0
LINE
  8
SIZE
  6
CONTINUOUS
 62
    30
 10
-142.5
 20
214.75058199999981
 30
0.0
 11
-142.5
 21
832.14180883020254
 31
0.0
  0
LINE
  8
SIZE
  6
CONTINUOUS
 62
    30
 10
-17.0
 20
214.39442799999981
 30
0.0
 11
-17.0
 21
497.69610532568908
 31
0.0
  0
LINE
  8
NOTE
  6
CONTINUOUS
 62
     4
 10
-142.49999999999989
 20
174.0000279999999
 30
0.0
 11
-283.80924398545397
 21
360.77311411709388
 31
0.0
  0
LINE
  8
SIZE
  6
CONTINUOUS
 62
    30
 10
-114.1872980000001
 20
111.0
 30
0.0
 11
-486.26239552644262
 21
111.0
 31
0.0
  0
LINE
  8
SIZE
  6
CONTINUOUS
 62
    30
 10
-466.26239552644262
 20
99.0
 30
0.0
 11
-466.26239552644262
 21
12.0
 31
0.0
  0
LINE
  8
SIZE
  6
CONTINUOUS
 62
    30
 10
-466.26239552644262
 20
111.0
 30
0.0
 11
-466.26239552644262
 21
99.0
 31
0.0
  0
CIRCLE
  8
SIZE
  6
CONTINUOUS
 62
    30
 10
-466.26239552644262
 20
111.0
 30
0.0
 40
6.0
  0
LINE
  8
DETAIL
  6
CONTINUOUS
 62
     5
 10
-129.0
 20
170.5000279999999
 30
0.0
 11
-129.0
 21
22.55442800000003
 31
0.0
  0
ARC
  8
DETAIL
  6
CONTINUOUS
 62
     5
 10
-39.5
 20
143.054428
 30
0.0
 40
35.0
 50
90.0
 51
180.0
  0
LINE
  8
DETAIL
  6
CONTINUOUS
 62
     5
 10
-122.5
 20
174.0000279999999
 30
0.0
 11
-122.5
 21
119.554428
 31
0.0
  0
LINE
  8
DETAIL
  6
CONTINUOUS
 62
     5
 10
-87.5
 20
174.0000279999999
 30
0.0
 11
-87.5
 21
119.554428
 31
0.0
  0
LINE
  8
NOTE
  6
CONTINUOUS
 62
     4
 10
-142.5
 20
154.0000279999999
 30
0.0
 11
-142.5
 21
194.0000279999999
 31
0.0
  0
ARC
  8
DETAIL
  6
CONTINUOUS
 62
     5
 10
-45.0
 20
148.0544279999998
 30
0.0
 40
18.0
 50
90.0
 51
180.0
  0
LINE
  8
NOTE
  6
CONTINUOUS
 62
     4
 10
-105.0
 20
154.0000279999999
 30
0.0
 11
-105.0
 21
194.0000279999999
 31
0.0
  0
LINE
  8
DETAIL
  6
CONTINUOUS
 62
     5
 10
-87.5
 20
119.554428
 30
0.0
 11
-122.5
 21
119.554428
 31
0.0
  0
LINE
  8
DETAIL
  6
CONTINUOUS
 62
     5
 10
-125.5
 20
22.55442800000003
 30
0.0
 11
-129.0
 21
22.55442800000003
 31
0.0
  0
LINE
  8
DETAIL
  6
CONTINUOUS
 62
     5
 10
-89.0
 20
119.554428
 30
0.0
 11
-89.0
 21
1.0
 31
0.0
  0
ARC
  8
DETAIL
  6
CONTINUOUS
 62
     5
 10
0.0
 20
111.0
 30
0.0
 40
48.0
 50
276.56576199999841
 51
329.99999999999909
  0
LINE
  8
DETAIL
  6
CONTINUOUS
 62
     5
 10
-90.0
 20
119.554428
 30
0.0
 11
-90.0
 21
0.000028000000043
 31
0.0
  0
LINE
  8
DETAIL
  6
CONTINUOUS
 62
     5
 10
-74.5
 20
79.05442800000003
 30
0.0
 11
-74.5
 21
143.054428
 31
0.0
  0
LINE
  8
DETAIL
  6
CONTINUOUS
 62
     5
 10
-63.0
 20
74.0
 30
0.0
 11
-63.0
 21
148.0
 31
0.0
  0
ARC
  8
DETAIL
  6
CONTINUOUS
 62
     5
 10
-39.5
 20
79.05442800000003
 30
0.0
 40
35.0
 50
180.0
 51
270.0
  0
ARC
  8
DETAIL
  6
CONTINUOUS
 62
     5
 10
-45.0
 20
74.0
 30
0.0
 40
18.0
 50
180.0
 51
270.0
  0
POINT
  8
DEFPOINTS
  6
CONTINUOUS
 62
    30
 10
0.0
 20
58.5
 30
0.0
  0
POINT
  8
DEFPOINTS
  6
CONTINUOUS
 62
    30
 10
0.0
 20
62.0
 30
0.0
  0
LINE
  8
DETAIL
  6
CONTINUOUS
 62
     5
 10
-39.5
 20
44.05442800000003
 30
0.0
 11
0.0
 21
44.05442800000003
 31
0.0
  0
POINT
  8
DEFPOINTS
  6
CONTINUOUS
 62
    30
 10
-94.187298000000055
 20
111.0
 30
0.0
  0
POINT
  8
DEFPOINTS
  6
CONTINUOUS
 62
    30
 10
0.0
 20
163.4999999999998
 30
0.0
  0
POINT
  8
DEFPOINTS
  6
CONTINUOUS
 62
    30
 10
0.0
 20
160.0
 30
0.0
  0
ARC
  8
DETAIL
  6
CONTINUOUS
 62
     5
 10
-43.694914444244198
 20
96.62104215019383
 30
0.0
 40
2.0
 50
198.21514600000179
 51
239.9999999999998
  0
LINE
  8
DETAIL
  6
CONTINUOUS
 62
     5
 10
-35.784609690826528
 20
97.01923788646684
 30
0.0
 11
-37.516660498395368
 21
98.01923788646684
 31
0.0
  0
ARC
  8
DETAIL
  6
CONTINUOUS
 62
     5
 10
-36.284609690826528
 20
96.15321248268242
 30
0.0
 40
1.0
 50
329.99999999999909
 51
59.999999999999858
  0
ARC
  8
DETAIL
  6
CONTINUOUS
 62
     5
 10
-38.016660498395368
 20
97.15321248268242
 30
0.0
 40
1.0
 50
59.999999999999858
 51
149.99999999999989
  0
LINE
  8
DETAIL
  6
CONTINUOUS
 62
     5
 10
-42.382685902179901
 20
91.591034656191368
 30
0.0
 11
-38.882685902179901
 21
97.65321248268242
 31
0.0
  0
LINE
  8
DETAIL
  6
CONTINUOUS
 62
     5
 10
-43.623711305964321
 20
91.441515603352968
 30
0.0
 11
-43.248711305964321
 21
92.091034656191368
 31
0.0
  0
LINE
  8
DETAIL
  6
CONTINUOUS
 62
     5
 10
-44.790478895251113
 20
93.558524858083501
 30
0.0
 11
-44.19047889525109
 21
94.597755342624851
 31
0.0
  0
LINE
  8
DETAIL
  6
CONTINUOUS
 62
     5
 10
-45.848491597143273
 20
92.725993103352948
 30
0.0
 11
-44.622641097143287
 21
94.849228451836666
 31
0.0
  0
LINE
  8
DETAIL
  6
CONTINUOUS
 62
     5
 10
-35.384247895094859
 20
88.127834858083475
 30
0.0
 11
-34.784247895094843
 21
89.167065342624824
 31
0.0
  0
LINE
  8
DETAIL
  6
CONTINUOUS
 62
     5
 10
-37.772302994931813
 20
85.176452093891839
 30
0.0
 11
-36.522302994931813
 21
87.341515603352946
 31
0.0
  0
LINE
  8
DETAIL
  6
CONTINUOUS
 62
     5
 10
-37.772302994931813
 20
85.176452093891839
 30
0.0
 11
-42.838804486488577
 21
88.101598093891766
 31
0.0
  0
LINE
  8
DETAIL
  6
CONTINUOUS
 62
     5
 10
-35.280444566227523
 20
84.892477497676282
 30
0.0
 11
-37.272302994931813
 21
86.042477497676373
 31
0.0
  0
ARC
  8
DETAIL
  6
CONTINUOUS
 62
     5
 10
-36.396469970011943
 20
84.959464795784015
 30
0.0
 40
2.0
 50
30.000000000000941
 51
59.999999999999858
  0
LINE
  8
DETAIL
  6
CONTINUOUS
 62
     5
 10
-38.427558883257689
 20
88.441515603352968
 30
0.0
 11
-38.052558883257689
 21
89.091034656191368
 31
0.0
  0
LINE
  8
DETAIL
  6
CONTINUOUS
 62
     5
 10
-33.305444566227493
 20
88.313277842624757
 30
0.0
 11
-44.694914444244198
 21
94.888991342624877
 31
0.0
  0
LINE
  8
DETAIL
  6
CONTINUOUS
 62
     5
 10
-38.918584287042108
 20
89.591034656191368
 30
0.0
 11
-35.418584287042108
 21
95.65321248268242
 31
0.0
  0
LINE
  8
DETAIL
  6
CONTINUOUS
 62
     5
 10
-38.052558883257689
 20
89.091034656191368
 30
0.0
 11
-43.248711305964321
 21
92.091034656191368
 31
0.0
  0
LINE
  8
DETAIL
  6
CONTINUOUS
 62
     5
 10
-35.396469970011943
 20
86.691515603352855
 30
0.0
 11
-46.049250142147002
 21
92.841901103352939
 31
0.0
  0
LINE
  8
DETAIL
  6
CONTINUOUS
 62
     5
 10
-35.384247895094859
 20
88.127834858083475
 30
0.0
 11
-44.788820456602707
 21
93.557567358083475
 31
0.0
  0
LINE
  8
DETAIL
  6
CONTINUOUS
 62
     5
 10
-18.887311808258801
 20
69.943070329700276
 30
0.0
 11
-35.92339375865879
 21
79.778856829700317
 31
0.0
  0
ARC
  8
DETAIL
  6
CONTINUOUS
 62
     5
 10
-34.92339375865879
 20
81.510907637269156
 30
0.0
 40
2.0
 50
149.99999999999989
 51
239.9999999999998
  0
ARC
  8
DETAIL
  6
CONTINUOUS
 62
     5
 10
-12.33345586210862
 20
69.022167813919623
 30
0.0
 40
2.0
 50
59.999999999999858
 51
105.00000000000119
  0
LINE
  8
DETAIL
  6
CONTINUOUS
 62
     5
 10
-11.33345586210862
 20
70.754218621488462
 30
0.0
 11
-0.654946075227258
 21
64.588978121488481
 31
0.0
  0
ARC
  8
DETAIL
  6
CONTINUOUS
 62
     5
 10
4.345053924772742
 20
73.249232159332905
 30
0.0
 40
10.0
 50
239.9999999999998
 51
276.56576199999841
  0
ARC
  8
DETAIL
  6
CONTINUOUS
 62
     5
 10
-17.887311808258801
 20
71.675121137269116
 30
0.0
 40
2.0
 50
239.9999999999998
 51
285.00000000000119
  0
LINE
  8
DETAIL
  6
CONTINUOUS
 62
     5
 10
-17.369674423896409
 20
69.743269386881593
 30
0.0
 11
-12.85109461249613
 21
70.954019198281799
 31
0.0
  0
LINE
  8
DETAIL
  6
CONTINUOUS
 62
     5
 10
-33.305444566227493
 20
88.313277842624757
 30
0.0
 11
-36.655444566227523
 21
82.510907637269042
 31
0.0
  0
ARC
  8
DETAIL
  6
CONTINUOUS
 62
     5
 10
0.0
 20
111.0
 30
0.0
 40
48.0
 50
149.99999999999989
 51
198.21514600000179
  0
LINE
  8
OUTLINE
  6
CONTINUOUS
 62
     3
 10
-125.5
 20
166.0000279999999
 30
0.0
 11
-87.5
 21
166.0000279999999
 31
0.0
  0
LINE
  8
NOTE
  6
CONTINUOUS
 62
     4
 10
-85.0
 20
174.0000279999999
 30
0.0
 11
-125.0
 21
174.0000279999999
 31
0.0
  0
LINE
  8
DETAIL
  6
CONTINUOUS
 62
     5
 10
-87.5
 20
174.0000279999999
 30
0.0
 11
-122.5
 21
174.0000279999999
 31
0.0
  0
LINE
  8
DETAIL
  6
CONTINUOUS
 62
     5
 10
-87.5
 20
170.5000279999999
 30
0.0
 11
-122.5
 21
170.5000279999999
 31
0.0
  0
LINE
  8
NOTE
  6
CONTINUOUS
 62
     4
 10
-174.79971499999991
 20
197.59512100000009
 30
0.0
 11
-142.5
 21
174.0000279999999
 31
0.0
  0
LINE
  8
DETAIL
  6
CONTINUOUS
 62
     5
 10
-125.5
 20
166.0000279999999
 30
0.0
 11
-122.5
 21
166.0000279999999
 31
0.0
  0
LINE
  8
DETAIL
  6
CONTINUOUS
 62
     5
 10
-125.5
 20
174.0000279999999
 30
0.0
 11
-159.4999999999998
 21
174.0000279999999
 31
0.0
  0
LINE
  8
DETAIL
  6
CONTINUOUS
 62
     5
 10
-159.4999999999998
 20
174.0000279999999
 30
0.0
 11
-159.4999999999998
 21
170.5000279999999
 31
0.0
  0
LINE
  8
DETAIL
  6
CONTINUOUS
 62
     5
 10
-129.0
 20
170.5000279999999
 30
0.0
 11
-159.4999999999998
 21
170.5000279999999
 31
0.0
  0
LINE
  8
NOTE
  6
CONTINUOUS
 62
     4
 10
-122.5
 20
174.0000279999999
 30
0.0
 11
-162.5
 21
174.0000279999999
 31
0.0
  0
CIRCLE
  8
FIX
  6
CONTINUOUS
 62
    11
 10
-142.5
 20
174.0544279999998
 30
0.0
 40
7.5
  0
LINE
  8
NOTE
  6
CONTINUOUS
 62
     4
 10
-142.5
 20
174.0000279999999
 30
0.0
 11
-158.67482700000019
 21
210.58383599999991
 31
0.0
  0
LINE
  8
DETAIL
  6
CONTINUOUS
 62
     5
 10
-89.0
 20
180.0000279999999
 30
0.0
 11
-89.0
 21
174.0000279999999
 31
0.0
  0
LINE
  8
DETAIL
  6
CONTINUOUS
 62
     5
 10
-92.0
 20
180.0000279999999
 30
0.0
 11
-92.0
 21
174.0000279999999
 31
0.0
  0
CIRCLE
  8
FIX
  6
CONTINUOUS
 62
    11
 10
-105.0
 20
174.0544279999998
 30
0.0
 40
7.5
  0
LINE
  8
DETAIL
  6
CONTINUOUS
 62
     5
 10
-6.6374659999999039
 20
201.97611200000009
 30
0.0
 11
-5.4689590000000408
 21
204.00001399999999
 31
0.0
  0
LINE
  8
DETAIL
  6
CONTINUOUS
 62
     5
 10
-16.999998000000009
 20
180.0000279999999
 30
0.0
 11
-16.999998000000009
 21
196.91612599999999
 31
0.0
  0
ARC
  8
DETAIL
  6
CONTINUOUS
 62
     5
 10
-11.939996000000059
 20
196.91612599999999
 30
0.0
 40
5.060001999999999
 50
90.0
 51
179.99999899999861
  0
POINT
  8
DEFPOINTS
  6
CONTINUOUS
 62
    30
 10
0.0
 20
222.01639
 30
0.0
  0
POINT
  8
DEFPOINTS
  6
CONTINUOUS
 62
    30
 10
0.0
 20
222.01639
 30
0.0
  0
LINE
  8
SIZE
  6
CONTINUOUS
 62
    30
 10
-17.0
 20
477.69610532568908
 30
0.0
 11
-5.0
 21
477.69610532568908
 31
0.0
  0
CIRCLE
  8
SIZE
  6
CONTINUOUS
 62
    30
 10
-17.0
 20
477.69610532568908
 30
0.0
 40
6.0
  0
LINE
  8
SIZE
  6
CONTINUOUS
 62
    30
 10
-105.0
 20
575.8912980451687
 30
0.0
 11
-93.0
 21
575.8912980451687
 31
0.0
  0
CIRCLE
  8
SIZE
  6
CONTINUOUS
 62
    30
 10
-105.0
 20
575.8912980451687
 30
0.0
 40
6.0
  0
POINT
  8
DEFPOINTS
  6
CONTINUOUS
 62
    30
 10
-142.5
 20
812.14180883020254
 30
0.0
  0
LINE
  8
SIZE
  6
CONTINUOUS
 62
    30
 10
-142.5
 20
812.14180883020254
 30
0.0
 11
-130.4999999999998
 21
812.14180883020254
 31
0.0
  0
CIRCLE
  8
SIZE
  6
CONTINUOUS
 62
    30
 10
-142.5
 20
812.14180883020254
 30
0.0
 40
6.0
  0
LINE
  8
SIZE
  6
CONTINUOUS
 62
    30
 10
735.17336655561758
 20
-0.0000000000001137
 30
0.0
 11
735.17336655561758
 21
11.999999999999771
 31
0.0
  0
CIRCLE
  8
FIX
  6
CONTINUOUS
 62
    11
 10
141.5
 20
0.0
 30
0.0
 40
2.5
  0
CIRCLE
  8
FIX
  6
CONTINUOUS
 62
    11
 10
85.0
 20
0.0
 30
0.0
 40
2.5
  0
LINE
  8
OUTLINE
  6
CONTINUOUS
 62
     3
 10
125.5
 20
166.0000279999999
 30
0.0
 11
125.5
 21
0.0
 31
0.0
  0
LINE
  8
SIZE
  6
CONTINUOUS
 62
    30
 10
-324.37367245276249
 20
1.0
 30
0.0
 11
-324.37367245276249
 21
-11.0
 31
0.0
  0
CIRCLE
  8
SIZE
  6
CONTINUOUS
 62
    30
 10
-324.37367245276249
 20
1.0
 30
0.0
 40
6.0
  0
LINE
  8
SIZE
  6
CONTINUOUS
 62
    30
 10
-324.37367245276249
 20
-167.59160399999999
 30
0.0
 11
-324.37367245276249
 21
1.0
 31
0.0
  0
LINE
  8
SIZE
  6
CONTINUOUS
 62
    30
 10
734.98134299999992
 20
0.0
 30
0.0
 11
734.98134299999992
 21
12.0
 31
0.0
  0
CIRCLE
  8
SIZE
  6
CONTINUOUS
 62
    30
 10
734.98134299999992
 20
0.0
 30
0.0
 40
6.0
  0
LINE
  8
NOTE
  6
CONTINUOUS
 62
     4
 10
141.5
 20
-20.0
 30
0.0
 11
141.5
 21
20.0
 31
0.0
  0
LINE
  8
NOTE
  6
CONTINUOUS
 62
     4
 10
85.0
 20
-20.0
 30
0.0
 11
85.0
 21
20.0
 31
0.0
  0
LINE
  8
DETAIL
  6
CONTINUOUS
 62
     5
 10
125.5
 20
166.054428
 30
0.0
 11
125.5
 21
0.0
 31
0.0
  0
CIRCLE
  8
SIZE
  6
CONTINUOUS
 62
    30
 10
735.17336655561758
 20
-19.000000000000231
 30
0.0
 40
6.0
  0
CIRCLE
  8
SIZE
  6
CONTINUOUS
 62
    30
 10
167.5
 20
-532.77386336045925
 30
0.0
 40
6.0
  0
LINE
  8
SIZE
  6
CONTINUOUS
 62
    30
 10
167.5
 20
-20.0
 30
0.0
 11
167.5
 21
-552.77386336045925
 31
0.0
  0
LINE
  8
SIZE
  6
CONTINUOUS
 62
    30
 10
167.5
 20
-532.77386336045925
 30
0.0
 11
155.4999999999998
 21
-532.77386336045925
 31
0.0
  0
LINE
  8
SIZE
  6
CONTINUOUS
 62
    30
 10
20.0
 20
-19.0
 30
0.0
 11
755.17336655561758
 21
-19.000000000000231
 31
0.0
  0
LINE
  8
SIZE
  6
CONTINUOUS
 62
    30
 10
207.5
 20
0.0
 30
0.0
 11
755.17336655561758
 21
-0.0000000000001137
 31
0.0
  0
LINE
  8
SIZE
  6
CONTINUOUS
 62
    30
 10
187.5
 20
0.0
 30
0.0
 11
754.98134299999992
 21
0.0
 31
0.0
  0
LINE
  8
SIZE
  6
CONTINUOUS
 62
    30
 10
187.5
 20
0.0
 30
0.0
 11
599.97892000000002
 21
0.0
 31
0.0
  0
LINE
  8
SIZE
  6
CONTINUOUS
 62
    30
 10
125.5
 20
191.94389534329139
 30
0.0
 11
125.5
 21
711.22565641035271
 31
0.0
  0
LINE
  8
SIZE
  6
CONTINUOUS
 62
    30
 10
141.5
 20
-40.0
 30
0.0
 11
141.5
 21
-420.55165836045887
 31
0.0
  0
LINE
  8
SIZE
  6
CONTINUOUS
 62
    30
 10
141.5
 20
-400.55165836045887
 30
0.0
 11
129.4999999999998
 21
-400.55165836045887
 31
0.0
  0
CIRCLE
  8
SIZE
  6
CONTINUOUS
 62
    30
 10
141.5
 20
-400.55165836045887
 30
0.0
 40
6.0
  0
LINE
  8
SIZE
  6
CONTINUOUS
 62
    30
 10
125.5
 20
690.18457897443295
 30
0.0
 11
113.5
 21
690.18457897443295
 31
0.0
  0
CIRCLE
  8
SIZE
  6
CONTINUOUS
 62
    30
 10
125.5
 20
690.18457897443295
 30
0.0
 40
6.0
  0
LINE
  8
SIZE
  6
CONTINUOUS
 62
    30
 10
85.0
 20
-40.0
 30
0.0
 11
85.0
 21
-274.74365899999998
 31
0.0
  0
LINE
  8
SIZE
  6
CONTINUOUS
 62
    30
 10
85.0
 20
-254.74365899999981
 30
0.0
 11
73.0
 21
-254.74365899999981
 31
0.0
  0
CIRCLE
  8
SIZE
  6
CONTINUOUS
 62
    30
 10
85.0
 20
-254.74365899999981
 30
0.0
 40
6.0
  0
LINE
  8
NOTE
  6
CONTINUOUS
 62
     4
 10
105.0
 20
0.0
 30
0.0
 11
65.0
 21
0.0
 31
0.0
  0
LINE
  8
DETAIL
  6
CONTINUOUS
 62
     5
 10
135.3789689999999
 20
-14.83071599999994
 30
0.0
 11
159.90202799999969
 21
-14.196499000000021
 31
0.0
  0
LINE
  8
DETAIL
  6
CONTINUOUS
 62
     5
 10
135.22384899999969
 20
-8.8327219999999897
 30
0.0
 11
167.25603599999999
 21
-8.0043029999999362
 31
0.0
  0
LINE
  8
DETAIL
  6
CONTINUOUS
 62
     5
 10
135.22384899999969
 20
-8.8327219999999897
 30
0.0
 11
167.25603599999999
 21
-8.0043029999999362
 31
0.0
  0
LINE
  8
DETAIL
  6
CONTINUOUS
 62
     5
 10
135.3789689999999
 20
-14.83071599999994
 30
0.0
 11
159.90202799999969
 21
-14.196499000000021
 31
0.0
  0
LINE
  8
DETAIL
  6
CONTINUOUS
 62
     5
 10
167.5
 20
0.0
 30
0.0
 11
167.5
 21
-6.5427439999999706
 31
0.0
  0
ARC
  8
DETAIL
  6
CONTINUOUS
 62
     5
 10
163.0
 20
-6.5427439999999706
 30
0.0
 40
4.5
 50
321.86273800000299
 51
0.0
  0
ARC
  8
DETAIL
  6
CONTINUOUS
 62
     5
 10
149.23566199999979
 20
4.2643379999999516
 30
0.0
 40
22.0
 50
307.07490500000091
 51
321.86273800000299
  0
ARC
  8
DETAIL
  6
CONTINUOUS
 62
     5
 10
159.78568799999991
 20
-9.6980029999999715
 30
0.0
 40
4.5
 50
271.48145699999901
 51
307.07490500000091
  0
ARC
  8
DETAIL
  6
CONTINUOUS
 62
     5
 10
159.78568799999991
 20
-9.6980029999999715
 30
0.0
 40
4.5
 50
271.48145699999901
 51
307.07490500000091
  0
ARC
  8
DETAIL
  6
CONTINUOUS
 62
     5
 10
149.23566199999979
 20
4.2643379999999516
 30
0.0
 40
22.0
 50
307.07490500000091
 51
321.86273800000299
  0
ARC
  8
DETAIL
  6
CONTINUOUS
 62
     5
 10
163.0
 20
-6.5427439999999706
 30
0.0
 40
4.5
 50
321.86273800000299
 51
0.0
  0
LINE
  8
DETAIL
  6
CONTINUOUS
 62
     5
 10
167.5
 20
-1.0
 30
0.0
 11
167.5
 21
-6.5427439999999706
 31
0.0
  0
LINE
  8
NOTE
  6
CONTINUOUS
 62
     4
 10
161.5
 20
0.0
 30
0.0
 11
121.5
 21
0.0
 31
0.0
  0
TEXT
  8
SIZE
  6
CONTINUOUS
 62
    30
 10
-356.16143279856692
 20
-142.5916034285714
 30
0.0
 40
64.0
  1
55
 50
90.0
 41
0.9
 72
     1
 11
-356.16143279856692
 21
-95.963031999999998
 31
0.0
  0
TEXT
  8
SIZE
  6
CONTINUOUS
 62
    30
 10
713.79089507035042
 20
-132.00612053316661
 30
0.0
 40
64.0
  1
19
 50
90.0
 41
0.9
  0
LINE
  8
SIZE
  6
CONTINUOUS
 62
    30
 10
-324.37367245276249
 20
-11.0
 30
0.0
 11
-324.37367245276249
 21
-23.0
 31
0.0
  0
LINE
  8
SIZE
  6
CONTINUOUS
 62
    30
 10
735.17336655561758
 20
-0.0000000000001137
 30
0.0
 11
735.17336655561758
 21
-133.73915868228221
 31
0.0
  0
LINE
  8
SIZE
  6
CONTINUOUS
 62
    30
 10
105.0
 20
214.0544279999998
 30
0.0
 11
105.0
 21
595.8912980451687
 31
0.0
  0
LINE
  8
SIZE
  6
CONTINUOUS
 62
    30
 10
142.5
 20
214.75058199999981
 30
0.0
 11
142.5
 21
832.14180883020254
 31
0.0
  0
CIRCLE
  8
SIZE
  6
CONTINUOUS
 62
    30
 10
-324.37367245276249
 20
56.0
 30
0.0
 40
6.0
  0
LINE
  8
SIZE
  6
CONTINUOUS
 62
    30
 10
-65.0
 20
56.0
 30
0.0
 11
-344.37367245276249
 21
56.0
 31
0.0
  0
LINE
  8
SIZE
  6
CONTINUOUS
 62
    30
 10
73.468953000000056
 20
204.0000279999999
 30
0.0
 11
754.98134299999992
 21
204.0000279999999
 31
0.0
  0
LINE
  8
SIZE
  6
CONTINUOUS
 62
    30
 10
187.5
 20
0.000028000000043
 30
0.0
 11
754.98134299999992
 21
0.000028000000043
 31
0.0
  0
LINE
  8
SIZE
  6
CONTINUOUS
 62
    30
 10
65.000001999999995
 20
214.39442799999981
 30
0.0
 11
65.000001999999995
 21
497.69610532568908
 31
0.0
  0
LINE
  8
NOTE
  6
CONTINUOUS
 62
     4
 10
105.0
 20
154.0000279999999
 30
0.0
 11
105.0
 21
194.0000279999999
 31
0.0
  0
LINE
  8
DETAIL
  6
CONTINUOUS
 62
     5
 10
129.0
 20
170.5000279999999
 30
0.0
 11
129.0
 21
22.500028000000039
 31
0.0
  0
ARC
  8
DETAIL
  6
CONTINUOUS
 62
     5
 10
39.5
 20
143.054428
 30
0.0
 40
35.0
 50
0.0
 51
90.0
  0
LINE
  8
DETAIL
  6
CONTINUOUS
 62
     5
 10
90.0
 20
168.0000279999999
 30
0.0
 11
90.0
 21
129.554428
 31
0.0
  0
ARC
  8
DETAIL
  6
CONTINUOUS
 62
     5
 10
45.0
 20
148.0544279999998
 30
0.0
 40
18.0
 50
0.0
 51
90.0
  0
LINE
  8
NOTE
  6
CONTINUOUS
 62
     4
 10
142.5
 20
154.0000279999999
 30
0.0
 11
142.5
 21
194.0000279999999
 31
0.0
  0
LINE
  8
NOTE
  6
CONTINUOUS
 62
     4
 10
105.0
 20
146.0000279999999
 30
0.0
 11
105.0
 21
186.0000279999999
 31
0.0
  0
LINE
  8
DETAIL
  6
CONTINUOUS
 62
     5
 10
100.0
 20
119.554428
 30
0.0
 11
125.5
 21
119.554428
 31
0.0
  0
LINE
  8
DETAIL
  6
CONTINUOUS
 62
     5
 10
125.5
 20
159.0000279999999
 30
0.0
 11
90.0
 21
159.0000279999999
 31
0.0
  0
LINE
  8
DETAIL
  6
CONTINUOUS
 62
     5
 10
74.5
 20
79.05442800000003
 30
0.0
 11
74.5
 21
143.054428
 31
0.0
  0
LINE
  8
DETAIL
  6
CONTINUOUS
 62
     5
 10
63.0
 20
74.0
 30
0.0
 11
63.0
 21
148.0
 31
0.0
  0
ARC
  8
DETAIL
  6
CONTINUOUS
 62
     5
 10
39.5
 20
79.05442800000003
 30
0.0
 40
35.0
 50
270.0
 51
0.0
  0
ARC
  8
DETAIL
  6
CONTINUOUS
 62
     5
 10
45.0
 20
74.0
 30
0.0
 40
18.0
 50
270.0
 51
0.0
  0
LINE
  8
DETAIL
  6
CONTINUOUS
 62
     5
 10
29.187141137891331
 20
140.9379513785116
 30
0.0
 11
39.865650924772687
 21
134.77271087851139
 31
0.0
  0
ARC
  8
DETAIL
  6
CONTINUOUS
 62
     5
 10
30.187141137891331
 20
142.6700021860803
 30
0.0
 40
2.0
 50
195.00000000000071
 51
239.9999999999998
  0
LINE
  8
DETAIL
  6
CONTINUOUS
 62
     5
 10
27.044539576103489
 20
146.67094461311831
 30
0.0
 11
28.255289387503812
 21
142.15236480171799
 31
0.0
  0
ARC
  8
DETAIL
  6
CONTINUOUS
 62
     5
 10
43.0
 20
106.828427
 30
0.0
 40
2.0
 50
315.00000000000023
 51
0.0
  0
ARC
  8
DETAIL
  6
CONTINUOUS
 62
     5
 10
34.865650924772687
 20
126.11245684066709
 30
0.0
 40
10.0
 50
23.43423800000172
 51
59.999999999999858
  0
LINE
  8
DETAIL
  6
CONTINUOUS
 62
     5
 10
-7.2904788952511126
 20
158.51043014191649
 30
0.0
 11
-7.8904788952511353
 21
157.47119965737511
 31
0.0
  0
LINE
  8
DETAIL
  6
CONTINUOUS
 62
     5
 10
2.994555433772462
 20
151.18672215737499
 30
0.0
 11
6.3445554337724843
 21
156.9890923627307
 31
0.0
  0
ARC
  8
DETAIL
  6
CONTINUOUS
 62
     5
 10
-9.3949144442442503
 20
156.03038484980621
 30
0.0
 40
2.0
 50
59.999999999999858
 51
101.7848540000017
  0
LINE
  8
DETAIL
  6
CONTINUOUS
 62
     5
 10
2.1157521049051411
 20
153.0797401419164
 30
0.0
 11
1.5157521049051179
 21
152.040509657375
 31
0.0
  0
LINE
  8
DETAIL
  6
CONTINUOUS
 62
     5
 10
-5.7846096908265281
 20
148.98076211353319
 30
0.0
 11
-7.5166604983953684
 21
149.98076211353319
 31
0.0
  0
LINE
  8
DETAIL
  6
CONTINUOUS
 62
     5
 10
-0.9185842870421084
 20
155.4089653438086
 30
0.0
 11
-4.4185842870421084
 21
149.34678751731761
 31
0.0
  0
ARC
  8
DETAIL
  6
CONTINUOUS
 62
     5
 10
-5.2846096908265281
 20
149.84678751731761
 30
0.0
 40
1.0
 50
239.9999999999998
 51
329.99999999999909
  0
ARC
  8
DETAIL
  6
CONTINUOUS
 62
     5
 10
-7.0166604983953684
 20
150.84678751731761
 30
0.0
 40
1.0
 50
149.99999999999989
 51
239.9999999999998
  0
LINE
  8
DETAIL
  6
CONTINUOUS
 62
     5
 10
-4.3826859021799009
 20
157.4089653438086
 30
0.0
 11
-7.8826859021799009
 21
151.34678751731761
 31
0.0
  0
LINE
  8
DETAIL
  6
CONTINUOUS
 62
     5
 10
-0.0525588832576886
 20
154.9089653438086
 30
0.0
 11
-5.2487113059643207
 21
157.9089653438086
 31
0.0
  0
LINE
  8
DETAIL
  6
CONTINUOUS
 62
     5
 10
2.994555433772462
 20
151.18672215737499
 30
0.0
 11
-8.3949144442442503
 21
157.76243565737511
 31
0.0
  0
LINE
  8
DETAIL
  6
CONTINUOUS
 62
     5
 10
2.1157521049051411
 20
153.0797401419164
 30
0.0
 11
-7.2888204566027071
 21
158.50947264191629
 31
0.0
  0
LINE
  8
DETAIL
  6
CONTINUOUS
 62
     5
 10
3.353530029988065
 20
153.80848439664689
 30
0.0
 11
-7.2992501421470024
 21
159.958869896647
 31
0.0
  0
LINE
  8
DETAIL
  6
CONTINUOUS
 62
     5
 10
3.4776970050681939
 20
156.62354790610809
 30
0.0
 11
2.2276970050681939
 21
154.45848439664701
 31
0.0
  0
LINE
  8
DETAIL
  6
CONTINUOUS
 62
     5
 10
-4.8737113059643207
 20
158.55848439664689
 30
0.0
 11
-5.2487113059643207
 21
157.9089653438086
 31
0.0
  0
LINE
  8
DETAIL
  6
CONTINUOUS
 62
     5
 10
0.3224411167423114
 20
155.55848439664689
 30
0.0
 11
-0.0525588832576886
 21
154.9089653438086
 31
0.0
  0
LINE
  8
DETAIL
  6
CONTINUOUS
 62
     5
 10
3.4776970050681939
 20
156.62354790610809
 30
0.0
 11
-3.0713213322871979
 21
160.4046254061079
 31
0.0
  0
LINE
  8
DETAIL
  6
CONTINUOUS
 62
     5
 10
-7.2992501421470024
 20
159.958869896647
 30
0.0
 11
-8.5270421421470246
 21
157.83227177152031
 31
0.0
  0
ARC
  8
DETAIL
  6
CONTINUOUS
 62
     5
 10
4.3535300299880646
 20
155.54053520421579
 30
0.0
 40
2.0
 50
239.9999999999998
 51
270.0
  0
LINE
  8
DETAIL
  6
CONTINUOUS
 62
     5
 10
4.9695554337724843
 20
154.60752250232349
 30
0.0
 11
2.9776970050681939
 21
155.75752250232361
 31
0.0
  0
LINE
  8
DETAIL
  6
CONTINUOUS
 62
     5
 10
-0.000000145341005
 20
159.39966574826209
 30
0.0
 11
-0.00000008896086
 21
158.79956784591511
 31
0.0
  0
LINE
  8
DETAIL
  6
CONTINUOUS
 62
     5
 10
-0.000000145341005
 20
159.39966574826209
 30
0.0
 11
-0.00000008896086
 21
158.79956784591511
 31
0.0
  0
ARC
  8
DETAIL
  6
CONTINUOUS
 62
     5
 10
8.0766062413412101
 20
155.98909236273079
 30
0.0
 40
2.0
 50
59.999999999999858
 51
149.99999999999989
  0
LINE
  8
DETAIL
  6
CONTINUOUS
 62
     5
 10
26.112688191741199
 20
147.8853566702999
 30
0.0
 11
9.0766062413412101
 21
157.72114317029971
 31
0.0
  0
ARC
  8
DETAIL
  6
CONTINUOUS
 62
     5
 10
100.0
 20
129.554428
 30
0.0
 40
10.0
 50
180.0
 51
270.0
  0
LINE
  8
DETAIL
  6
CONTINUOUS
 62
     5
 10
129.0
 20
22.55442800000003
 30
0.0
 11
125.5
 21
22.55442800000003
 31
0.0
  0
LINE
  8
OUTLINE
  6
CONTINUOUS
 62
     3
 10
90.0
 20
166.0000279999999
 30
0.0
 11
125.5
 21
166.0000279999999
 31
0.0
  0
LINE
  8
DETAIL
  6
CONTINUOUS
 62
     5
 10
90.0
 20
170.054428
 30
0.0
 11
122.5
 21
170.054428
 31
0.0
  0
LINE
  8
DETAIL
  6
CONTINUOUS
 62
     5
 10
122.5
 20
174.0000279999999
 30
0.0
 11
90.0
 21
174.0000279999999
 31
0.0
  0
LINE
  8
NOTE
  6
CONTINUOUS
 62
     4
 10
85.0
 20
174.0000279999999
 30
0.0
 11
125.0
 21
174.0000279999999
 31
0.0
  0
LINE
  8
DETAIL
  6
CONTINUOUS
 62
     5
 10
125.5
 20
166.0000279999999
 30
0.0
 11
90.0
 21
166.0000279999999
 31
0.0
  0
LINE
  8
NOTE
  6
CONTINUOUS
 62
     4
 10
85.0
 20
166.0000279999999
 30
0.0
 11
125.0
 21
166.0000279999999
 31
0.0
  0
LINE
  8
DETAIL
  6
CONTINUOUS
 62
     5
 10
59.940000000000047
 20
201.97611200000009
 30
0.0
 11
24.0
 21
201.97611200000009
 31
0.0
  0
POINT
  8
DEFPOINTS
  6
CONTINUOUS
 62
    30
 10
24.0
 20
213.7921979999999
 30
0.0
  0
LINE
  8
DETAIL
  6
CONTINUOUS
 62
     5
 10
24.0
 20
204.0000279999999
 30
0.0
 11
53.468953000000063
 21
204.0000279999999
 31
0.0
  0
LINE
  8
DETAIL
  6
CONTINUOUS
 62
     5
 10
54.637469999999887
 20
201.97611200000009
 30
0.0
 11
53.468961999999919
 21
204.00001399999999
 31
0.0
  0
LINE
  8
BASIS
  6
DASHDOT
 62
     6
 10
24.0
 20
213.7921979999999
 30
0.0
 11
24.0
 21
170.008061
 31
0.0
  0
ARC
  8
DETAIL
  6
CONTINUOUS
 62
     5
 10
78.0
 20
168.0000279999999
 30
0.0
 40
12.0
 50
0.0
 51
90.0
  0
CIRCLE
  8
FIX
  6
CONTINUOUS
 62
    11
 10
105.0
 20
174.0544279999998
 30
0.0
 40
7.5
  0
LINE
  8
DETAIL
  6
CONTINUOUS
 62
     5
 10
90.0
 20
174.0000279999999
 30
0.0
 11
90.0
 21
170.054428
 31
0.0
  0
ARC
  8
DETAIL
  6
CONTINUOUS
 62
     5
 10
59.940000000000047
 20
196.91612599999999
 30
0.0
 40
5.060001999999999
 50
0.0000010000014034
 51
90.0
  0
LINE
  8
DETAIL
  6
CONTINUOUS
 62
     5
 10
65.000001999999995
 20
180.0000279999999
 30
0.0
 11
65.000001999999995
 21
196.91612599999999
 31
0.0
  0
LINE
  8
DETAIL
  6
CONTINUOUS
 62
     5
 10
122.5
 20
174.0000279999999
 30
0.0
 11
122.5
 21
166.0000279999999
 31
0.0
  0
LINE
  8
DETAIL
  6
CONTINUOUS
 62
     5
 10
125.5
 20
166.0000279999999
 30
0.0
 11
125.5
 21
174.0000279999999
 31
0.0
  0
LINE
  8
DETAIL
  6
CONTINUOUS
 62
     5
 10
159.4999999999998
 20
174.0000279999999
 30
0.0
 11
125.5
 21
174.0000279999999
 31
0.0
  0
CIRCLE
  8
FIX
  6
CONTINUOUS
 62
    11
 10
142.5
 20
174.0544279999998
 30
0.0
 40
7.5
  0
LINE
  8
NOTE
  6
CONTINUOUS
 62
     4
 10
122.5
 20
174.0000279999999
 30
0.0
 11
162.5
 21
174.0000279999999
 31
0.0
  0
LINE
  8
DETAIL
  6
CONTINUOUS
 62
     5
 10
129.0
 20
170.5000279999999
 30
0.0
 11
159.4999999999998
 21
170.5000279999999
 31
0.0
  0
LINE
  8
DETAIL
  6
CONTINUOUS
 62
     5
 10
159.4999999999998
 20
174.0000279999999
 30
0.0
 11
159.4999999999998
 21
170.5000279999999
 31
0.0
  0
TEXT
  8
NOTE
  6
CONTINUOUS
 62
     4
 10
209.13293688741319
 20
374.97026012086008
 30
0.0
 40
64.0
  1
EL
 41
0.9
  0
TEXT
  8
SIZE
  6
CONTINUOUS
 62
    30
 10
158.43210157142869
 20
502.69610532568908
 30
0.0
 40
64.0
  1
φ82
 41
0.9
 72
     1
 11
245.38067300000009
 21
502.69610532568908
 31
0.0
  0
LINE
  8
SIZE
  6
CONTINUOUS
 62
    30
 10
65.000001999999995
 20
477.69610532568908
 30
0.0
 11
345.80924399999998
 21
477.69610532568908
 31
0.0
  0
LINE
  8
SIZE
  6
CONTINUOUS
 62
    30
 10
65.000001999999995
 20
477.69610532568908
 30
0.0
 11
53.000001999999988
 21
477.69610532568908
 31
0.0
  0
CIRCLE
  8
SIZE
  6
CONTINUOUS
 62
    30
 10
65.000001999999995
 20
477.69610532568908
 30
0.0
 40
6.0
  0
TEXT
  8
SIZE
  6
CONTINUOUS
 62
    30
 10
709.98134299999992
 20
26.57145657142863
 30
0.0
 40
64.0
  1
204
 50
90.0
 41
0.9
 72
     1
 11
709.98134299999992
 21
102.000028
 31
0.0
  0
LINE
  8
SIZE
  6
CONTINUOUS
 62
    30
 10
-324.37367245276249
 20
56.0
 30
0.0
 11
-324.37367245276249
 21
68.0
 31
0.0
  0
LINE
  8
SIZE
  6
CONTINUOUS
 62
    30
 10
-324.37367245276249
 20
1.0
 30
0.0
 11
-324.37367245276249
 21
56.0
 31
0.0
  0
LINE
  8
SIZE
  6
CONTINUOUS
 62
    30
 10
-324.37367245276249
 20
1.0
 30
0.0
 11
-324.37367245276249
 21
56.0
 31
0.0
  0
LINE
  8
SIZE
  6
CONTINUOUS
 62
    30
 10
-324.37367245276249
 20
68.0
 30
0.0
 11
-324.37367245276249
 21
80.0
 31
0.0
  0
LINE
  8
SIZE
  6
CONTINUOUS
 62
    30
 10
734.98134299999992
 20
12.000028000000039
 30
0.0
 11
734.98134299999992
 21
192.0000279999999
 31
0.0
  0
LINE
  8
SIZE
  6
CONTINUOUS
 62
    30
 10
734.98134299999992
 20
0.000028000000043
 30
0.0
 11
734.98134299999992
 21
12.000028000000039
 31
0.0
  0
LINE
  8
SIZE
  6
CONTINUOUS
 62
    30
 10
734.98134299999992
 20
12.0
 30
0.0
 11
734.98134299999992
 21
24.0
 31
0.0
  0
LINE
  8
SIZE
  6
CONTINUOUS
 62
    30
 10
734.98134299999992
 20
204.0000279999999
 30
0.0
 11
734.98134299999992
 21
192.0000279999999
 31
0.0
  0
CIRCLE
  8
SIZE
  6
CONTINUOUS
 62
    30
 10
734.98134299999992
 20
204.0000279999999
 30
0.0
 40
6.0
  0
LINE
  8
SIZE
  6
CONTINUOUS
 62
    30
 10
105.0
 20
575.8912980451687
 30
0.0
 11
93.0
 21
575.8912980451687
 31
0.0
  0
CIRCLE
  8
SIZE
  6
CONTINUOUS
 62
    30
 10
105.0
 20
575.8912980451687
 30
0.0
 40
6.0
  0
LINE
  8
SIZE
  6
CONTINUOUS
 62
    30
 10
142.5
 20
812.14180883020254
 30
0.0
 11
130.4999999999998
 21
812.14180883020254
 31
0.0
  0
CIRCLE
  8
SIZE
  6
CONTINUOUS
 62
    30
 10
142.5
 20
812.14180883020254
 30
0.0
 40
6.0
  0
LINE
  8
SIZE
  6
CONTINUOUS
 62
    30
 10
187.5
 20
0.0
 30
0.0
 11
618.97607911635896
 21
-0.0000000000001137
 31
0.0
  0
LINE
  8
SIZE
  6
CONTINUOUS
 62
    30
 10
179.4999999999998
 20
174.0000279999999
 30
0.0
 11
618.97607911635896
 21
174.00002799999979
 31
0.0
  0
LINE
  8
SIZE
  6
CONTINUOUS
 62
    30
 10
598.97607911635896
 20
-12.00000000000011
 30
0.0
 11
598.97607911635896
 21
-24.00000000000011
 31
0.0
  0
LINE
  8
SIZE
  6
CONTINUOUS
 62
    30
 10
598.97607911635896
 20
186.0000279999997
 30
0.0
 11
598.97607911635896
 21
198.0000279999997
 31
0.0
  0
LINE
  8
SIZE
  6
CONTINUOUS
 62
    30
 10
598.97607911635896
 20
-0.0000000000001137
 30
0.0
 11
598.97607911635896
 21
174.00002799999979
 31
0.0
  0
CIRCLE
  8
SIZE
  6
CONTINUOUS
 62
    30
 10
598.97607911635896
 20
-0.0000000000001137
 30
0.0
 40
6.0
  0
LINE
  8
SIZE
  6
CONTINUOUS
 62
    30
 10
598.97607911635896
 20
-0.0000000000001137
 30
0.0
 11
598.97607911635896
 21
-12.00000000000011
 31
0.0
  0
CIRCLE
  8
SIZE
  6
CONTINUOUS
 62
    30
 10
598.97607911635896
 20
174.00002799999979
 30
0.0
 40
6.0
  0
LINE
  8
SIZE
  6
CONTINUOUS
 62
    30
 10
598.97607911635896
 20
174.00002799999979
 30
0.0
 11
598.97607911635896
 21
186.0000279999997
 31
0.0
  0
TEXT
  8
SIZE
  6
CONTINUOUS
 62
    30
 10
573.97607911635896
 20
17.057156857142829
 30
0.0
 40
64.0
  1
174
 50
90.0
 41
0.9
 72
     1
 11
573.97607911635896
 21
87.000013999999965
 31
0.0
  0
POINT
  8
DEFPOINTS
  6
CONTINUOUS
 62
    30
 10
167.5
 20
0.0
 30
0.0
  0
POINT
  8
DEFPOINTS
  6
CONTINUOUS
 62
    30
 10
159.4999999999998
 20
174.0000279999999
 30
0.0
  0
POINT
  8
DEFPOINTS
  6
CONTINUOUS
 62
    30
 10
598.97607911635896
 20
174.00002799999979
 30
0.0
  0
LINE
  8
SIZE
  6
CONTINUOUS
 62
    30
 10
-455.48809226657039
 20
202.89948516721151
 30
0.0
 11
-63.225957930700702
 21
123.7564980988229
 31
0.0
  0
LINE
  8
SIZE
  6
CONTINUOUS
 62
    30
 10
63.225957930700467
 20
98.243501901176501
 30
0.0
 11
74.988926848040137
 21
95.870199929302316
 31
0.0
  0
TEXT
  8
SIZE
  6
CONTINUOUS
 62
    30
 10
-440.01865668436562
 20
225.2821302187397
 30
0.0
 40
64.0
  1
φ105
 50
348.59311323570608
 41
0.9
 72
     1
 11
-333.27811588016363
 21
203.74611003967649
 31
0.0
  0
LINE
  8
SIZE
  6
CONTINUOUS
 62
    30
 10
51.462989013360811
 20
100.6168038730506
 30
0.0
 11
-51.462989013361039
 21
121.383196126949
 31
0.0
  0
CIRCLE
  8
SIZE
  6
CONTINUOUS
 62
    30
 10
51.462989013360811
 20
100.6168038730506
 30
0.0
 40
6.0
  0
LINE
  8
SIZE
  6
CONTINUOUS
 62
    30
 10
51.462989013360811
 20
100.6168038730506
 30
0.0
 11
63.225957930700467
 21
98.243501901176501
 31
0.0
  0
CIRCLE
  8
SIZE
  6
CONTINUOUS
 62
    30
 10
-51.462989013361039
 20
121.383196126949
 30
0.0
 40
6.0
  0
LINE
  8
SIZE
  6
CONTINUOUS
 62
    30
 10
-51.462989013361039
 20
121.383196126949
 30
0.0
 11
-63.225957930700702
 21
123.7564980988229
 31
0.0
  0
POINT
  8
DEFPOINTS
  6
CONTINUOUS
 62
    30
 10
-51.462989013361039
 20
121.383196126949
 30
0.0
  0
POINT
  8
DEFPOINTS
  6
CONTINUOUS
 62
    30
 10
51.462989013360811
 20
100.6168038730506
 30
0.0
  0
LINE
  8
SIZE
  6
CONTINUOUS
 62
    30
 10
410.30762853011862
 20
289.37405117143771
 30
0.0
 11
55.942298893595648
 21
135.31993409735401
 31
0.0
  0
LINE
  8
SIZE
  6
CONTINUOUS
 62
    30
 10
-55.942298893595307
 20
86.680065902646106
 30
0.0
 11
-66.947341298892752
 21
81.895816572019044
 31
0.0
  0
TEXT
  8
SIZE
  6
CONTINUOUS
 62
    30
 10
231.01476377818571
 20
238.68985136252709
 30
0.0
 40
64.0
  1
φ98
 50
23.496149887988569
 41
0.9
 72
     1
 11
310.75415674914098
 21
273.35515508387022
 31
0.0
  0
LINE
  8
SIZE
  6
CONTINUOUS
 62
    30
 10
-44.937256488297862
 20
91.464315233273055
 30
0.0
 11
44.937256488298203
 21
130.53568476672689
 31
0.0
  0
CIRCLE
  8
SIZE
  6
CONTINUOUS
 62
    30
 10
-44.937256488297862
 20
91.464315233273055
 30
0.0
 40
6.0
  0
LINE
  8
SIZE
  6
CONTINUOUS
 62
    30
 10
-44.937256488297862
 20
91.464315233273055
 30
0.0
 11
-55.942298893595307
 21
86.680065902646106
 31
0.0
  0
CIRCLE
  8
SIZE
  6
CONTINUOUS
 62
    30
 10
44.937256488298203
 20
130.53568476672689
 30
0.0
 40
6.0
  0
LINE
  8
SIZE
  6
CONTINUOUS
 62
    30
 10
44.937256488298203
 20
130.53568476672689
 30
0.0
 11
55.942298893595648
 21
135.31993409735401
 31
0.0
  0
POINT
  8
DEFPOINTS
  6
CONTINUOUS
 62
    30
 10
44.937256488298203
 20
130.53568476672689
 30
0.0
  0
POINT
  8
DEFPOINTS
  6
CONTINUOUS
 62
    30
 10
-44.937256488297862
 20
91.464315233273055
 30
0.0
  0
TEXT
  8
ETC
  6
CONTINUOUS
 62
    61
 10
398.7551929480353
 20
834.00302752380958
 30
0.0
 40
64.0
  1
VD-15ZX13-C_2
 41
0.9
  0
TEXT
  8
ETC
  6
CONTINUOUS
 62
    61
 10
396.38801494803511
 20
729.22176204813695
 30
0.0
 40
64.0
  1
換気扇
 41
0.9
  0
TEXT
  8
ETC
  6
CONTINUOUS
 62
    61
 10
480.74895629151621
 20
646.15430779940061
 30
0.0
 40
40.0
  1
VD-15ZX13-C
 41
0.9
  0
TEXT
  8
ETC
  6
CONTINUOUS
 62
    61
 10
480.74895629151621
 20
580.15430779940061
 30
0.0
 40
40.0
  1
VD-15ZXP13-C
 41
0.9
  0
TEXT
  8
ETC
  6
CONTINUOUS
 62
    61
 10
480.74895629151621
 20
514.15430779940061
 30
0.0
 40
40.0
  1
VD-15ZLX13-CS
 41
0.9
  0
TEXT
  8
ETC
  6
CONTINUOUS
 62
    61
 10
480.74895629151621
 20
448.15430779940061
 30
0.0
 40
40.0
  1
VD-15ZLXP13-CS
 41
0.9
  0
LINE
  8
NOTE
  6
CONTINUOUS
 62
     4
 10
105.0
 20
166.0000279999999
 30
0.0
 11
197.7633398167961
 21
362.57066014383099
 31
0.0
  0
LINE
  8
NOTE
  6
CONTINUOUS
 62
     4
 10
105.0
 20
166.0000279999999
 30
0.0
 11
113.4266451920554
 21
205.1023503146852
 31
0.0
  0
LINE
  8
NOTE
  6
CONTINUOUS
 62
     4
 10
131.84885048391291
 20
195.65030940251279
 30
0.0
 11
105.0
 21
166.0000279999999
 31
0.0
  0
LINE
  8
NOTE
  6
CONTINUOUS
 62
     4
 10
197.7633398167961
 20
362.57066014383099
 30
0.0
 11
304.8530671093381
 21
362.57066014383099
 31
0.0
  0
ENDSEC
  0
EOF
