  0
SECTION
  2
HEADER
  9
$ACADVER
  1
AC1009
  9
$DWGCODEPAGE
  3
dos932
  9
$INSBASE
 10
0.0
 20
0.0
 30
0.0
  9
$EXTMIN
 10
-444.2698446558752
 20
-590.24046697914673
 30
-0.003814406231754
  9
$EXTMAX
 10
1014.143847567535
 20
552.10877262534086
 30
0.005722191424241
  9
$LIMMIN
 10
-2970.0
 20
-2100.0
  9
$LIMMAX
 10
2970.0
 20
2100.0
  9
$ORTHOMODE
 70
     1
  9
$REGENMODE
 70
     1
  9
$FILLMODE
 70
     1
  9
$QTEXTMODE
 70
     0
  9
$MIRRTEXT
 70
     0
  9
$LTSCALE
 40
20.0
  9
$ATTMODE
 70
     1
  9
$TEXTSIZE
 40
64.0
  9
$TRACEWID
 40
0.05
  9
$TEXTSTYLE
  7
STANDARD
  9
$CLAYER
  8
OUTLINE
  9
$CELTYPE
  6
CONTINUOUS
  9
$CECOLOR
 62
     7
  9
$DIMSCALE
 40
1.0
  9
$DIMASZ
 40
12.0
  9
$DIMEXO
 40
20.0
  9
$DIMDLI
 40
200.0
  9
$DIMRND
 40
0.0
  9
$DIMDLE
 40
0.0
  9
$DIMEXE
 40
20.0
  9
$DIMTP
 40
0.0
  9
$DIMTM
 40
0.0
  9
$DIMTXT
 40
64.0
  9
$DIMCEN
 40
0.09
  9
$DIMTSZ
 40
0.0
  9
$DIMTOL
 70
     0
  9
$DIMLIM
 70
     0
  9
$DIMTIH
 70
     0
  9
$DIMTOH
 70
     0
  9
$DIMSE1
 70
     0
  9
$DIMSE2
 70
     0
  9
$DIMTAD
 70
     1
  9
$DIMZIN
 70
     8
  9
$DIMBLK
  1

  9
$DIMASO
 70
     1
  9
$DIMSHO
 70
     0
  9
$DIMPOST
  1

  9
$DIMAPOST
  1

  9
$DIMALT
 70
     0
  9
$DIMALTD
 70
     2
  9
$DIMALTF
 40
25.399999999999999
  9
$DIMLFAC
 40
1.0
  9
$DIMTOFL
 70
     1
  9
$DIMTVP
 40
0.0
  9
$DIMTIX
 70
     1
  9
$DIMSOXD
 70
     0
  9
$DIMSAH
 70
     0
  9
$DIMBLK1
  1

  9
$DIMBLK2
  1

  9
$DIMSTYLE
  2
STANDARD
  9
$DIMCLRD
 70
     7
  9
$DIMCLRE
 70
     7
  9
$DIMCLRT
 70
     7
  9
$DIMTFAC
 40
1.0
  9
$DIMGAP
 40
25.0
  9
$LUNITS
 70
     2
  9
$LUPREC
 70
     4
  9
$SKETCHINC
 40
0.1
  9
$FILLETRAD
 40
3.0
  9
$AUNITS
 70
     1
  9
$AUPREC
 70
     3
  9
$MENU
  1
ACAD
  9
$ELEVATION
 40
0.0
  9
$PELEVATION
 40
0.0
  9
$THICKNESS
 40
50.0
  9
$LIMCHECK
 70
     0
  9
$CHAMFERA
 40
0.0
  9
$CHAMFERB
 40
0.0
  9
$SKPOLY
 70
     0
  9
$TDCREATE
 40
2453019.62301037
  9
$TDUPDATE
 40
2458899.497725428
  9
$TDINDWG
 40
1.8650950231
  9
$TDUSRTIMER
 40
1.8650950231
  9
$USRTIMER
 70
     1
  9
$ANGBASE
 50
0.0
  9
$ANGDIR
 70
     0
  9
$PDMODE
 70
     3
  9
$PDSIZE
 40
-2.0
  9
$PLINEWID
 40
0.0
  9
$SPLFRAME
 70
     0
  9
$SPLINETYPE
 70
     6
  9
$SPLINESEGS
 70
     8
  9
$SURFTAB1
 70
     6
  9
$SURFTAB2
 70
     6
  9
$SURFTYPE
 70
     6
  9
$SURFU
 70
     6
  9
$SURFV
 70
     6
  9
$UCSNAME
  2

  9
$UCSORG
 10
0.0
 20
0.0
 30
0.0
  9
$UCSXDIR
 10
1.0
 20
0.0
 30
0.0
  9
$UCSYDIR
 10
0.0
 20
1.0
 30
0.0
  9
$PUCSNAME
  2

  9
$PUCSORG
 10
0.0
 20
0.0
 30
0.0
  9
$PUCSXDIR
 10
1.0
 20
0.0
 30
0.0
  9
$PUCSYDIR
 10
0.0
 20
1.0
 30
0.0
  9
$USERI1
 70
     0
  9
$USERI2
 70
     0
  9
$USERI3
 70
     0
  9
$USERI4
 70
     0
  9
$USERI5
 70
     0
  9
$USERR1
 40
20.0
  9
$USERR2
 40
0.0
  9
$USERR3
 40
0.0
  9
$USERR4
 40
0.0
  9
$USERR5
 40
0.0
  9
$WORLDVIEW
 70
     1
  9
$SHADEDGE
 70
     3
  9
$SHADEDIF
 70
    70
  9
$TILEMODE
 70
     1
  9
$MAXACTVP
 70
    48
  9
$PINSBASE
 10
0.0
 20
0.0
 30
0.0
  9
$PLIMCHECK
 70
     0
  9
$PEXTMIN
 10
-100000000000000000000.0
 20
-100000000000000000000.0
 30
-100000000000000000000.0
  9
$PEXTMAX
 10
100000000000000000000.0
 20
100000000000000000000.0
 30
100000000000000000000.0
  9
$PLIMMIN
 10
0.0
 20
0.0
  9
$PLIMMAX
 10
12.0
 20
9.0
  9
$UNITMODE
 70
     0
  9
$VISRETAIN
 70
     0
  9
$PLINEGEN
 70
     0
  9
$PSLTSCALE
 70
     0
  9
$TREEDEPTH
 70
  3020
  9
$ATTDIA
 70
     0
  9
$ATTREQ
 70
     1
  9
$BLIPMODE
 70
     1
  9
$COORDS
 70
     1
  9
$DRAGMODE
 70
     2
  9
$OSMODE
 70
     0
  9
$HANDLING
 70
     0
  9
$HANDSEED
  5
22A3A
  0
ENDSEC
  0
SECTION
  2
TABLES
  0
TABLE
  2
LTYPE
 70
     3
  0
LTYPE
  2
CONTINUOUS
 70
     0
  3
実線
 72
    65
 73
     0
 40
0.0
  0
LTYPE
  2
DASHDOT
 70
     0
  3
____ _ ____ _ ____ _ ____ _ ____ _ ____ _ ____
 72
    65
 73
     4
 40
5.5
 49
4.0
 49
-0.6
 49
0.3
 49
-0.6
  0
LTYPE
  2
CONTINOUS
 70
     0
  3
Solid line
 72
    65
 73
     0
 40
0.0
  0
ENDTAB
  0
TABLE
  2
LAYER
 70
    12
  0
LAYER
  2
0
 70
     0
 62
     7
  6
CONTINUOUS
  0
LAYER
  2
BASIS
 70
     0
 62
     6
  6
DASHDOT
  0
LAYER
  2
OUTLINE
 70
     0
 62
     3
  6
CONTINUOUS
  0
LAYER
  2
DETAIL
 70
     0
 62
     5
  6
CONTINUOUS
  0
LAYER
  2
SIZE
 70
     0
 62
    30
  6
CONTINUOUS
  0
LAYER
  2
ARRANGE
 70
     0
 62
     1
  6
CONTINUOUS
  0
LAYER
  2
DEFPOINTS
 70
     0
 62
     7
  6
CONTINUOUS
  0
LAYER
  2
ETC
 70
     0
 62
    61
  6
CONTINUOUS
  0
LAYER
  2
NOTE
 70
     0
 62
     4
  6
CONTINUOUS
  0
LAYER
  2
FIX
 70
    64
 62
    11
  6
CONTINUOUS
  0
LAYER
  2
SERVICESPACE
 70
    64
 62
     2
  6
DASHDOT
  0
LAYER
  2
SYMBOLLINE
 70
    64
 62
    15
  6
CONTINUOUS
  0
ENDTAB
  0
TABLE
  2
STYLE
 70
     1
  0
STYLE
  2
STANDARD
 70
     0
 40
64.0
 41
0.9
 50
0.0
 71
     0
 42
64.0
  3
SIMPLEX.shx
  4
BIGFONT.shx
  0
ENDTAB
  0
TABLE
  2
APPID
 70
    17
  0
APPID
  2
ACAD
 70
     0
  0
APPID
  2
AUTOCAD_POSTSCRIPT_FIGURE
 70
     0
  0
APPID
  2
ACAD_EXEMPT_FROM_CAD_STANDARDS
 70
     0
  0
APPID
  2
ACAD_PSEXT
 70
     0
  0
APPID
  2
ACAUTHENVIRON
 70
     0
  0
APPID
  2
GENIUS_GENOENT_13
 70
     0
  0
APPID
  2
GENIUS_GENCFG_13
 70
     0
  0
APPID
  2
GENIUS_GENCFG0_13
 70
     0
  0
APPID
  2
GENIUS_GENCFG1_13
 70
     0
  0
APPID
  2
GENIUS_GENCFG2_13
 70
     0
  0
APPID
  2
GENIUS_GENCFG3_13
 70
     0
  0
APPID
  2
GENIUS_GENCFG4_13
 70
     0
  0
APPID
  2
GENIUS_GEVCFG0_13
 70
     0
  0
APPID
  2
CONTENTBLOCKICON
 70
     0
  0
APPID
  2
CONTENTBLOCKDESCRIPTION
 70
     0
  0
APPID
  2
ACAD_NAV_VCDISPLAY
 70
     0
  0
APPID
  2
ACAD_MLEADERVER
 70
     0
  0
ENDTAB
  0
TABLE
  2
DIMSTYLE
 70
     1
  0
DIMSTYLE
  2
STANDARD
 70
     0
  3

  4

  5
_ORIGIN
  6

  7

 40
1.0
 41
12.0
 42
20.0
 43
200.0
 44
20.0
 45
0.0
 46
0.0
 47
0.0
 48
0.0
140
64.0
141
0.09
142
0.0
143
25.399999999999999
144
1.0
145
0.0
146
1.0
147
25.0
 71
     0
 72
     0
 73
     0
 74
     0
 75
     0
 76
     0
 77
     1
 78
     8
170
     0
171
     2
172
     1
173
     0
174
     1
175
     0
176
     7
177
     7
178
     7
  0
ENDTAB
  0
TABLE
  2
VIEW
 70
     1
  0
VIEW
  2
ALL
 70
     0
 40
4282.6198079999986
 10
0.0
 20
41.309904000000003
 41
5940.0
 11
0.0
 21
0.0
 31
1.0
 12
0.0
 22
0.0
 32
0.0
 42
50.0
 43
0.0
 44
0.0
 50
0.0
 71
     0
  0
ENDTAB
  0
TABLE
  2
UCS
 70
     0
  0
ENDTAB
  0
TABLE
  2
VPORT
 70
     1
  0
VPORT
  2
*ACTIVE
 70
     0
 10
0.0
 20
0.0
 11
1.0
 21
1.0
 12
284.93700145582989
 22
-19.065847176902931
 13
0.0
 23
0.0
 14
1.0
 24
1.0
 15
0.0
 25
0.0
 16
0.0
 26
0.0
 36
1.0
 17
0.0
 27
0.0
 37
0.0
 40
1149.4299167094739
 41
1.633919338159255
 42
50.0
 43
0.0
 44
0.0
 50
0.0
 51
0.0
 71
     0
 72
  1000
 73
     1
 74
     3
 75
     0
 76
     0
 77
     0
 78
     0
  0
ENDTAB
  0
ENDSEC
  0
SECTION
  2
BLOCKS
  0
BLOCK
  8
0
  2
_ORIGIN
 70
     0
 10
0.0
 20
0.0
 30
0.0
  3
_ORIGIN
  1
_ORIGIN
  0
CIRCLE
  8
0
  6
CONTINUOUS
 62
     7
 10
0.0
 20
0.0
 30
0.0
 40
0.5
  0
LINE
  8
0
  6
CONTINUOUS
 62
     7
 10
0.0
 20
0.0
 30
0.0
 11
-1.0
 21
0.0
 31
0.0
  0
ENDBLK
  8
0
  0
ENDSEC
  0
SECTION
  2
ENTITIES
  0
POINT
  8
ARRANGE
  6
CONTINUOUS
 62
     1
 10
0.0
 20
0.0
 30
0.0
  0
CIRCLE
  8
ARRANGE
  6
CONTINUOUS
 62
     1
 10
0.0
 20
0.0
 30
0.0
 40
40.0
  0
TEXT
  8
ETC
  6
CONTINUOUS
 62
    61
 10
243.23920896004259
 20
487.90713058858518
 30
0.0
 40
64.0
  1
VD-15ZX13-FP_6
 41
0.9
  0
TEXT
  8
ETC
  6
CONTINUOUS
 62
    61
 10
239.0532149600422
 20
369.95182057375399
 30
0.0
 40
64.0
  1
換気扇
 41
0.9
  0
TEXT
  8
SIZE
  6
CONTINUOUS
 62
    30
 10
-118.6853639977834
 20
324.97195347979073
 30
0.0
 40
64.0
  1
□330
 41
0.9
 72
     1
 11
-8.148221140640544
 21
324.97195347979073
 31
0.0
  0
LINE
  8
DETAIL
  6
CONTINOUS
 62
     5
 10
49.0
 20
-239.5
 30
0.0
 11
-49.0
 21
-239.5
 31
0.0
  0
LINE
  8
SIZE
  6
CONTINUOUS
 62
    30
 10
152.99999699999989
 20
302.79026800000008
 30
0.0
 11
-152.99999699999989
 21
302.79026800000008
 31
0.0
  0
TEXT
  8
NOTE
  6
CONTINUOUS
 62
     4
 10
-43.163888999999926
 20
-361.90829500000001
 30
0.0
 40
64.0
  1
EA
 41
0.9
  0
LINE
  8
SIZE
  6
CONTINUOUS
 62
    30
 10
40.5
 20
-570.03342899999996
 30
0.0
 11
-40.5
 21
-570.03342899999996
 31
0.0
  0
LINE
  8
SIZE
  6
CONTINUOUS
 62
    30
 10
37.0
 20
-442.55308499999961
 30
0.0
 11
-37.0
 21
-442.55308499999961
 31
0.0
  0
LINE
  8
DETAIL
  6
CONTINOUS
 62
     5
 10
52.5
 20
-212.5
 30
0.0
 11
-52.5
 21
-212.5
 31
0.0
  0
LINE
  8
DETAIL
  6
CONTINOUS
 62
     5
 10
52.5
 20
-187.5
 30
0.0
 11
-52.5
 21
-187.5
 31
0.0
  0
LINE
  8
BASIS
  6
DASHDOT
 62
     6
 10
-179.38630250000011
 20
0.0
 30
0.0
 11
179.38630250000011
 21
0.0
 31
0.0
  0
LINE
  8
BASIS
  6
DASHDOT
 62
     6
 10
0.0
 20
-263.10185399999989
 30
0.0
 11
0.0
 21
198.42837299999999
 31
0.0
  0
TEXT
  8
SIZE
  6
CONTINUOUS
 62
    30
 10
-380.24489699999998
 20
-267.18329244937752
 30
0.0
 40
64.0
  1
52
 50
90.0
 41
0.9
 72
     1
 11
-380.24489699999998
 21
-220.554721020806
 31
0.0
  0
LINE
  8
SIZE
  6
CONTINUOUS
 62
    30
 10
-227.18198100000001
 20
-246.09011199999989
 30
0.0
 11
-227.18198100000001
 21
-374.93256999999988
 31
0.0
  0
TEXT
  8
SIZE
  6
CONTINUOUS
 62
    30
 10
-245.33344700000001
 20
-364.87502642857129
 30
0.0
 40
64.0
  1
27
 50
90.0
 41
0.9
 72
     1
 11
-245.33344700000001
 21
-318.24645499999991
 31
0.0
  0
LINE
  8
SIZE
  6
CONTINUOUS
 62
    30
 10
-52.5
 20
-232.5
 30
0.0
 11
-52.5
 21
-590.03342899999996
 31
0.0
  0
LINE
  8
SIZE
  6
CONTINUOUS
 62
    30
 10
-49.0
 20
-259.5
 30
0.0
 11
-49.0
 21
-462.55308499999961
 31
0.0
  0
CIRCLE
  8
SIZE
  6
CONTINUOUS
 62
    30
 10
-52.5
 20
-570.03342899999996
 30
0.0
 40
6.0
  0
POINT
  8
DEFPOINTS
  6
CONTINUOUS
 62
    30
 10
-52.5
 20
-570.03342899999996
 30
0.0
  0
LINE
  8
SIZE
  6
CONTINUOUS
 62
    30
 10
-52.5
 20
-570.03342899999996
 30
0.0
 11
-40.5
 21
-570.03342899999996
 31
0.0
  0
POINT
  8
DEFPOINTS
  6
CONTINUOUS
 62
    30
 10
-49.0
 20
-442.55308499999961
 30
0.0
  0
LINE
  8
SIZE
  6
CONTINUOUS
 62
    30
 10
-49.0
 20
-442.55308499999961
 30
0.0
 11
-37.0
 21
-442.55308499999961
 31
0.0
  0
CIRCLE
  8
SIZE
  6
CONTINUOUS
 62
    30
 10
-49.0
 20
-442.55308499999961
 30
0.0
 40
6.0
  0
LINE
  8
SIZE
  6
CONTINUOUS
 62
    30
 10
-72.5
 20
-187.5
 30
0.0
 11
-376.22809000000012
 21
-187.5
 31
0.0
  0
LINE
  8
SIZE
  6
CONTINUOUS
 62
    30
 10
-69.0
 20
-239.5
 30
0.0
 11
-376.22809000000012
 21
-239.5
 31
0.0
  0
CIRCLE
  8
SIZE
  6
CONTINUOUS
 62
    30
 10
-227.18198100000001
 20
-212.5
 30
0.0
 40
6.0
  0
CIRCLE
  8
SIZE
  6
CONTINUOUS
 62
    30
 10
-227.18198100000001
 20
-239.5
 30
0.0
 40
6.0
  0
LINE
  8
SIZE
  6
CONTINUOUS
 62
    30
 10
-72.5
 20
-212.5
 30
0.0
 11
-247.18198100000001
 21
-212.5
 31
0.0
  0
LINE
  8
SIZE
  6
CONTINUOUS
 62
    30
 10
-69.0
 20
-239.5
 30
0.0
 11
-247.18198100000001
 21
-239.5
 31
0.0
  0
LINE
  8
SIZE
  6
CONTINUOUS
 62
    30
 10
-356.22809000000012
 20
-239.5
 30
0.0
 11
-356.22809000000012
 21
-251.5
 31
0.0
  0
POINT
  8
DEFPOINTS
  6
CONTINUOUS
 62
    30
 10
-356.22809000000012
 20
-187.5
 30
0.0
  0
CIRCLE
  8
SIZE
  6
CONTINUOUS
 62
    30
 10
-356.22809000000012
 20
-187.5
 30
0.0
 40
6.0
  0
CIRCLE
  8
SIZE
  6
CONTINUOUS
 62
    30
 10
-356.22809000000012
 20
-239.5
 30
0.0
 40
6.0
  0
LINE
  8
SIZE
  6
CONTINUOUS
 62
    30
 10
-356.22809000000012
 20
-239.5
 30
0.0
 11
-356.22809000000012
 21
-187.5
 31
0.0
  0
LINE
  8
SIZE
  6
CONTINUOUS
 62
    30
 10
-356.22809000000012
 20
-239.5
 30
0.0
 11
-356.22809000000012
 21
-187.5
 31
0.0
  0
LINE
  8
SIZE
  6
CONTINUOUS
 62
    30
 10
-227.18198100000001
 20
-239.5
 30
0.0
 11
-227.18198100000001
 21
-251.5
 31
0.0
  0
LINE
  8
SIZE
  6
CONTINUOUS
 62
    30
 10
-227.18198100000001
 20
-251.5
 30
0.0
 11
-227.18198100000001
 21
-263.5
 31
0.0
  0
POINT
  8
DEFPOINTS
  6
CONTINUOUS
 62
    30
 10
-227.18198100000001
 20
-212.5
 30
0.0
  0
LINE
  8
SIZE
  6
CONTINUOUS
 62
    30
 10
-227.18198100000001
 20
-212.5
 30
0.0
 11
-227.18198100000001
 21
-200.49999999999989
 31
0.0
  0
LINE
  8
SIZE
  6
CONTINUOUS
 62
    30
 10
-227.18198100000001
 20
-239.5
 30
0.0
 11
-227.18198100000001
 21
-212.5
 31
0.0
  0
LINE
  8
SIZE
  6
CONTINUOUS
 62
    30
 10
-227.18198100000001
 20
-239.5
 30
0.0
 11
-227.18198100000001
 21
-212.5
 31
0.0
  0
LINE
  8
SIZE
  6
CONTINUOUS
 62
    30
 10
-227.18198100000001
 20
-200.49999999999989
 30
0.0
 11
-227.18198100000001
 21
-188.4999999999998
 31
0.0
  0
LINE
  8
DETAIL
  6
CONTINUOUS
 62
     5
 10
-63.0
 20
-175.5
 30
0.0
 11
-52.5
 21
-187.5
 31
0.0
  0
LINE
  8
DETAIL
  6
CONTINOUS
 62
     5
 10
-63.0
 20
-175.5
 30
0.0
 11
-63.0
 21
-164.99999700000001
 31
0.0
  0
POINT
  8
DEFPOINTS
  6
CONTINUOUS
 62
    30
 10
-52.5
 20
-187.5
 30
0.0
  0
POINT
  8
DEFPOINTS
  6
CONTINUOUS
 62
    30
 10
-49.0
 20
-239.5
 30
0.0
  0
POINT
  8
DEFPOINTS
  6
CONTINUOUS
 62
    30
 10
-52.5
 20
-212.5
 30
0.0
  0
POINT
  8
DEFPOINTS
  6
CONTINUOUS
 62
    30
 10
-49.0
 20
-239.5
 30
0.0
  0
POINT
  8
DEFPOINTS
  6
CONTINUOUS
 62
    30
 10
-52.5
 20
-212.5
 30
0.0
  0
POINT
  8
DEFPOINTS
  6
CONTINUOUS
 62
    30
 10
-49.0
 20
-239.5
 30
0.0
  0
LINE
  8
DETAIL
  6
CONTINUOUS
 62
     5
 10
-52.5
 20
-212.5
 30
0.0
 11
-52.5
 21
-187.5
 31
0.0
  0
LINE
  8
DETAIL
  6
CONTINOUS
 62
     5
 10
-49.0
 20
-239.5
 30
0.0
 11
-49.0
 21
-212.5
 31
0.0
  0
LINE
  8
SIZE
  6
CONTINUOUS
 62
    30
 10
-164.99999699999989
 20
179.8327674861971
 30
0.0
 11
-164.99999699999989
 21
322.79026800000008
 31
0.0
  0
POINT
  8
DEFPOINTS
  6
CONTINUOUS
 62
    30
 10
-164.99999699999989
 20
302.79026800000008
 30
0.0
  0
LINE
  8
SIZE
  6
CONTINUOUS
 62
    30
 10
-164.99999699999989
 20
302.79026800000008
 30
0.0
 11
-152.99999699999989
 21
302.79026800000008
 31
0.0
  0
CIRCLE
  8
SIZE
  6
CONTINUOUS
 62
    30
 10
-164.99999699999989
 20
302.79026800000008
 30
0.0
 40
6.0
  0
LINE
  8
SIZE
  6
CONTINUOUS
 62
    30
 10
52.5
 20
-232.5
 30
0.0
 11
52.5
 21
-590.03342899999996
 31
0.0
  0
LINE
  8
SIZE
  6
CONTINUOUS
 62
    30
 10
49.0
 20
-259.5
 30
0.0
 11
49.0
 21
-462.55308499999961
 31
0.0
  0
LINE
  8
SIZE
  6
CONTINUOUS
 62
    30
 10
53.0
 20
-442.55308499999961
 30
0.0
 11
258.45911299999989
 21
-442.55308499999961
 31
0.0
  0
LINE
  8
SIZE
  6
CONTINUOUS
 62
    30
 10
56.5
 20
-570.03342899999996
 30
0.0
 11
291.93842799999987
 21
-570.03342899999996
 31
0.0
  0
TEXT
  8
SIZE
  6
CONTINUOUS
 62
    30
 10
81.398148857142701
 20
-549.94861200000003
 30
0.0
 40
64.0
  1
φ105
 41
0.9
 72
     1
 11
180.14100599999981
 21
-549.94861200000003
 31
0.0
  0
TEXT
  8
SIZE
  6
CONTINUOUS
 62
    30
 10
83.649039000000087
 20
-418.886551
 30
0.0
 40
64.0
  1
φ98
 41
0.9
 72
     1
 11
160.44903900000011
 21
-418.886551
 31
0.0
  0
CIRCLE
  8
SIZE
  6
CONTINUOUS
 62
    30
 10
52.5
 20
-570.03342899999996
 30
0.0
 40
6.0
  0
LINE
  8
SIZE
  6
CONTINUOUS
 62
    30
 10
52.5
 20
-570.03342899999996
 30
0.0
 11
40.5
 21
-570.03342899999996
 31
0.0
  0
LINE
  8
SIZE
  6
CONTINUOUS
 62
    30
 10
49.0
 20
-442.55308499999961
 30
0.0
 11
37.0
 21
-442.55308499999961
 31
0.0
  0
CIRCLE
  8
SIZE
  6
CONTINUOUS
 62
    30
 10
49.0
 20
-442.55308499999961
 30
0.0
 40
6.0
  0
LINE
  8
DETAIL
  6
CONTINUOUS
 62
     5
 10
63.0
 20
-175.5
 30
0.0
 11
52.5
 21
-187.5
 31
0.0
  0
POINT
  8
DEFPOINTS
  6
CONTINUOUS
 62
    30
 10
52.5
 20
-212.5
 30
0.0
  0
POINT
  8
DEFPOINTS
  6
CONTINUOUS
 62
    30
 10
49.0
 20
-239.5
 30
0.0
  0
LINE
  8
DETAIL
  6
CONTINOUS
 62
     5
 10
49.0
 20
-239.5
 30
0.0
 11
49.0
 21
-212.5
 31
0.0
  0
LINE
  8
DETAIL
  6
CONTINUOUS
 62
     5
 10
52.5
 20
-212.5
 30
0.0
 11
52.5
 21
-187.5
 31
0.0
  0
LINE
  8
DETAIL
  6
CONTINOUS
 62
     5
 10
63.0
 20
-175.5
 30
0.0
 11
63.0
 21
-164.99999700000001
 31
0.0
  0
LINE
  8
SIZE
  6
CONTINUOUS
 62
    30
 10
164.99999699999989
 20
178.8857957693676
 30
0.0
 11
164.99999699999989
 21
322.79026800000008
 31
0.0
  0
LINE
  8
SIZE
  6
CONTINUOUS
 62
    30
 10
164.99999699999989
 20
302.79026800000008
 30
0.0
 11
152.99999699999989
 21
302.79026800000008
 31
0.0
  0
CIRCLE
  8
SIZE
  6
CONTINUOUS
 62
    30
 10
164.99999699999989
 20
302.79026800000008
 30
0.0
 40
6.0
  0
LINE
  8
DETAIL
  6
CONTINUOUS
 62
     5
 10
-165.0
 20
164.99999941338089
 30
0.0
 11
165.0
 21
164.99999941338089
 31
0.0
  0
LINE
  8
DETAIL
  6
CONTINUOUS
 62
     5
 10
165.0
 20
164.99999941338089
 30
0.0
 11
165.0
 21
-165.00000058661911
 31
0.0
  0
LINE
  8
DETAIL
  6
CONTINUOUS
 62
     5
 10
165.0
 20
-165.00000058661911
 30
0.0
 11
-165.0
 21
-165.00000058661911
 31
0.0
  0
LINE
  8
DETAIL
  6
CONTINUOUS
 62
     5
 10
-165.0
 20
-165.00000058661911
 30
0.0
 11
-165.0
 21
164.99999941338089
 31
0.0
  0
LINE
  8
OUTLINE
  6
CONTINUOUS
 62
     3
 10
-165.0
 20
165.0
 30
0.0
 11
165.0
 21
165.0
 31
0.0
  0
LINE
  8
OUTLINE
  6
CONTINUOUS
 62
     3
 10
165.0
 20
165.0
 30
0.0
 11
165.0
 21
-165.0
 31
0.0
  0
LINE
  8
OUTLINE
  6
CONTINUOUS
 62
     3
 10
165.0
 20
-165.0
 30
0.0
 11
-165.0
 21
-165.0
 31
0.0
  0
LINE
  8
OUTLINE
  6
CONTINUOUS
 62
     3
 10
-165.0
 20
-165.0
 30
0.0
 11
-165.0
 21
165.0
 31
0.0
  0
LINE
  8
OUTLINE
  6
CONTINUOUS
 62
     3
 10
49.000000000000057
 20
-239.5
 30
0.0
 11
-48.999999999999943
 21
-239.5
 31
0.0
  0
LINE
  8
OUTLINE
  6
CONTINUOUS
 62
     3
 10
52.500000000000057
 20
-212.5
 30
0.0
 11
-52.499999999999943
 21
-212.5
 31
0.0
  0
LINE
  8
OUTLINE
  6
CONTINUOUS
 62
     3
 10
52.500000000000057
 20
-187.5
 30
0.0
 11
-52.499999999999943
 21
-187.5
 31
0.0
  0
LINE
  8
OUTLINE
  6
CONTINUOUS
 62
     3
 10
-62.999999999999943
 20
-175.5
 30
0.0
 11
-52.499999999999943
 21
-187.5
 31
0.0
  0
LINE
  8
OUTLINE
  6
CONTINUOUS
 62
     3
 10
-62.999999999999943
 20
-175.5
 30
0.0
 11
-62.999999999999943
 21
-164.99999700000001
 31
0.0
  0
LINE
  8
OUTLINE
  6
CONTINUOUS
 62
     3
 10
-52.499999999999943
 20
-212.5
 30
0.0
 11
-52.499999999999943
 21
-187.5
 31
0.0
  0
LINE
  8
OUTLINE
  6
CONTINUOUS
 62
     3
 10
-48.999999999999943
 20
-239.5
 30
0.0
 11
-48.999999999999943
 21
-212.5
 31
0.0
  0
LINE
  8
OUTLINE
  6
CONTINUOUS
 62
     3
 10
63.000000000000057
 20
-175.5
 30
0.0
 11
52.500000000000057
 21
-187.5
 31
0.0
  0
LINE
  8
OUTLINE
  6
CONTINUOUS
 62
     3
 10
49.000000000000057
 20
-239.5
 30
0.0
 11
49.000000000000057
 21
-212.5
 31
0.0
  0
LINE
  8
OUTLINE
  6
CONTINUOUS
 62
     3
 10
52.500000000000057
 20
-212.5
 30
0.0
 11
52.500000000000057
 21
-187.5
 31
0.0
  0
LINE
  8
OUTLINE
  6
CONTINUOUS
 62
     3
 10
63.000000000000057
 20
-175.5
 30
0.0
 11
63.000000000000057
 21
-164.99999700000001
 31
0.0
  0
TEXT
  8
ETC
  6
CONTINUOUS
 62
    61
 10
310.28011844901721
 20
281.91394366940722
 30
0.0
 40
40.0
  1
VD-15ZX13-FP
 41
0.9
  0
TEXT
  8
ETC
  6
CONTINUOUS
 62
    61
 10
310.28011844901721
 20
215.91394366940719
 30
0.0
 40
40.0
  1
VD-15ZXP13-FP
 41
0.9
  0
TEXT
  8
ETC
  6
CONTINUOUS
 62
    61
 10
310.28011844901721
 20
150.91394366940719
 30
0.0
 40
40.0
  1
VD-15ZE13-FP
 41
0.9
  0
TEXT
  8
ETC
  6
CONTINUOUS
 62
    61
 10
310.28011844901721
 20
85.913943669407217
 30
0.0
 40
40.0
  1
VD-15ZLE13-FPS
 41
0.9
  0
TEXT
  8
ETC
  6
CONTINUOUS
 62
    61
 10
310.28011844901721
 20
20.913943669407221
 30
0.0
 40
40.0
  1
VD-15ZEP13-FP
 41
0.9
  0
TEXT
  8
ETC
  6
CONTINUOUS
 62
    61
 10
310.28011844901721
 20
-44.086056330592783
 30
0.0
 40
40.0
  1
VD-15ZLEP13-FPS
 41
0.9
  0
TEXT
  8
ETC
  6
CONTINUOUS
 62
    61
 10
310.28011844901721
 20
-109.0860563305928
 30
0.0
 40
40.0
  1
VD-15ZVE6-FP
 41
0.9
  0
ENDSEC
  0
EOF
