  0
SECTION
  2
HEADER
  9
$ACADVER
  1
AC1009
  9
$DWGCODEPAGE
  3
dos932
  9
$INSBASE
 10
0.0
 20
0.0
 30
0.0
  9
$EXTMIN
 10
-558.325179
 20
-671.951283
 30
0.0
  9
$EXTMAX
 10
987.492382
 20
480.972298
 30
0.0
  9
$LIMMIN
 10
-2970.0
 20
-2100.0
  9
$LIMMAX
 10
2970.0
 20
2100.0
  9
$ORTHOMODE
 70
     1
  9
$REGENMODE
 70
     1
  9
$FILLMODE
 70
     1
  9
$QTEXTMODE
 70
     0
  9
$MIRRTEXT
 70
     0
  9
$DRAGMODE
 70
     2
  9
$LTSCALE
 40
20.0
  9
$OSMODE
 70
    37
  9
$ATTMODE
 70
     1
  9
$TEXTSIZE
 40
64.0
  9
$TRACEWID
 40
0.05
  9
$TEXTSTYLE
  7
STANDARD
  9
$CLAYER
  8
SIZE
  9
$CELTYPE
  6
CONTINUOUS
  9
$CECOLOR
 62
     7
  9
$DIMSCALE
 40
1.0
  9
$DIMASZ
 40
12.0
  9
$DIMEXO
 40
20.0
  9
$DIMDLI
 40
200.0
  9
$DIMRND
 40
0.0
  9
$DIMDLE
 40
0.0
  9
$DIMEXE
 40
20.0
  9
$DIMTP
 40
0.0
  9
$DIMTM
 40
0.0
  9
$DIMTXT
 40
64.0
  9
$DIMCEN
 40
0.09
  9
$DIMTSZ
 40
0.0
  9
$DIMTOL
 70
     0
  9
$DIMLIM
 70
     0
  9
$DIMTIH
 70
     0
  9
$DIMTOH
 70
     0
  9
$DIMSE1
 70
     0
  9
$DIMSE2
 70
     0
  9
$DIMTAD
 70
     1
  9
$DIMZIN
 70
     8
  9
$DIMBLK
  1
DOT1
  9
$DIMASO
 70
     1
  9
$DIMSHO
 70
     0
  9
$DIMPOST
  1

  9
$DIMAPOST
  1

  9
$DIMALT
 70
     0
  9
$DIMALTD
 70
     2
  9
$DIMALTF
 40
25.4
  9
$DIMLFAC
 40
1.0
  9
$DIMTOFL
 70
     1
  9
$DIMTVP
 40
0.0
  9
$DIMTIX
 70
     1
  9
$DIMSOXD
 70
     0
  9
$DIMSAH
 70
     1
  9
$DIMBLK1
  1
ORIGIN
  9
$DIMBLK2
  1
ORIGIN
  9
$DIMSTYLE
  2
STANDARD
  9
$DIMCLRD
 70
     7
  9
$DIMCLRE
 70
     7
  9
$DIMCLRT
 70
     7
  9
$DIMTFAC
 40
1.0
  9
$DIMGAP
 40
25.0
  9
$LUNITS
 70
     2
  9
$LUPREC
 70
     4
  9
$SKETCHINC
 40
0.1
  9
$FILLETRAD
 40
3.0
  9
$AUNITS
 70
     1
  9
$AUPREC
 70
     3
  9
$MENU
  1
ACAD
  9
$ELEVATION
 40
0.0
  9
$PELEVATION
 40
0.0
  9
$THICKNESS
 40
50.0
  9
$LIMCHECK
 70
     0
  9
$CHAMFERA
 40
0.0
  9
$CHAMFERB
 40
0.0
  9
$SKPOLY
 70
     0
  9
$TDCREATE
 40
2453019.623010359
  9
$TDUPDATE
 40
2457485.594328669
  9
$TDINDWG
 40
1.6384474769
  9
$TDUSRTIMER
 40
1.6384474769
  9
$USRTIMER
 70
     1
  9
$ANGBASE
 50
0.0
  9
$ANGDIR
 70
     0
  9
$PDMODE
 70
     3
  9
$PDSIZE
 40
-2.0
  9
$PLINEWID
 40
0.0
  9
$COORDS
 70
     1
  9
$SPLFRAME
 70
     0
  9
$SPLINETYPE
 70
     6
  9
$SPLINESEGS
 70
     8
  9
$ATTDIA
 70
     0
  9
$ATTREQ
 70
     1
  9
$HANDLING
 70
     1
  9
$HANDSEED
  5
E83C
  9
$SURFTAB1
 70
     6
  9
$SURFTAB2
 70
     6
  9
$SURFTYPE
 70
     6
  9
$SURFU
 70
     6
  9
$SURFV
 70
     6
  9
$UCSNAME
  2

  9
$UCSORG
 10
0.0
 20
0.0
 30
0.0
  9
$UCSXDIR
 10
1.0
 20
0.0
 30
0.0
  9
$UCSYDIR
 10
0.0
 20
1.0
 30
0.0
  9
$PUCSNAME
  2

  9
$PUCSORG
 10
0.0
 20
0.0
 30
0.0
  9
$PUCSXDIR
 10
1.0
 20
0.0
 30
0.0
  9
$PUCSYDIR
 10
0.0
 20
1.0
 30
0.0
  9
$USERI1
 70
     0
  9
$USERI2
 70
     0
  9
$USERI3
 70
     0
  9
$USERI4
 70
     0
  9
$USERI5
 70
     0
  9
$USERR1
 40
20.0
  9
$USERR2
 40
0.0
  9
$USERR3
 40
0.0
  9
$USERR4
 40
0.0
  9
$USERR5
 40
0.0
  9
$WORLDVIEW
 70
     1
  9
$SHADEDGE
 70
     3
  9
$SHADEDIF
 70
    70
  9
$TILEMODE
 70
     1
  9
$MAXACTVP
 70
    48
  9
$PLIMCHECK
 70
     0
  9
$PEXTMIN
 10
-1.000000000000000E+20
 20
-1.000000000000000E+20
 30
-1.000000000000000E+20
  9
$PEXTMAX
 10
1.000000000000000E+20
 20
1.000000000000000E+20
 30
1.000000000000000E+20
  9
$PLIMMIN
 10
0.0
 20
0.0
  9
$PLIMMAX
 10
12.0
 20
9.0
  9
$UNITMODE
 70
     0
  9
$VISRETAIN
 70
     0
  9
$PLINEGEN
 70
     0
  9
$PSLTSCALE
 70
     0
  0
ENDSEC
  0
SECTION
  2
TABLES
  0
TABLE
  2
VPORT
 70
     1
  0
VPORT
  2
*ACTIVE
 70
     0
 10
0.0
 20
0.0
 11
1.0
 21
1.0
 12
214.583602
 22
-95.489492
 13
0.0
 23
0.0
 14
1.0
 24
1.0
 15
0.0
 25
0.0
 16
0.0
 26
0.0
 36
1.0
 17
0.0
 27
0.0
 37
0.0
 40
1162.159283
 41
1.629679
 42
50.0
 43
0.0
 44
0.0
 50
0.0
 51
0.0
 71
     0
 72
  1000
 73
     1
 74
     0
 75
     0
 76
     0
 77
     0
 78
     0
  0
ENDTAB
  0
TABLE
  2
LTYPE
 70
     3
  0
LTYPE
  2
CONTINUOUS
 70
     0
  3
実線
 72
    65
 73
     0
 40
0.0
  0
LTYPE
  2
DASHDOT
 70
     0
  3
____ _ ____ _ ____ _ ____ _ ____ _ ____ _ ____
 72
    65
 73
     4
 40
5.5
 49
4.0
 49
-0.6
 49
0.3
 49
-0.6
  0
LTYPE
  2
CONTINOUS
 70
     0
  3
Solid line
 72
    65
 73
     0
 40
0.0
  0
ENDTAB
  0
TABLE
  2
LAYER
 70
    12
  0
LAYER
  2
0
 70
     0
 62
     7
  6
CONTINUOUS
  0
LAYER
  2
ETC
 70
     0
 62
    61
  6
CONTINUOUS
  0
LAYER
  2
SIZE
 70
     0
 62
    30
  6
CONTINUOUS
  0
LAYER
  2
BASIS
 70
     0
 62
     6
  6
DASHDOT
  0
LAYER
  2
OUTLINE
 70
     0
 62
     3
  6
CONTINUOUS
  0
LAYER
  2
DETAIL
 70
     0
 62
     5
  6
CONTINUOUS
  0
LAYER
  2
ARRANGE
 70
     0
 62
     1
  6
CONTINUOUS
  0
LAYER
  2
NOTE
 70
     0
 62
     4
  6
CONTINUOUS
  0
LAYER
  2
DEFPOINTS
 70
     0
 62
     7
  6
CONTINUOUS
  0
LAYER
  2
FIX
 70
     0
 62
    11
  6
CONTINUOUS
  0
LAYER
  2
SERVICESPACE
 70
     0
 62
     2
  6
DASHDOT
  0
LAYER
  2
SYMBOLLINE
 70
     0
 62
    15
  6
CONTINUOUS
  0
ENDTAB
  0
TABLE
  2
STYLE
 70
     1
  0
STYLE
  2
STANDARD
 70
     0
 40
64.0
 41
0.9
 50
0.0
 71
     0
 42
64.0
  3
SIMPLEX.shx
  4
BIGFONT.shx
  0
ENDTAB
  0
TABLE
  2
VIEW
 70
     1
  0
VIEW
  2
ALL
 70
     0
 40
4282.619808
 10
0.0
 20
41.309904
 41
5940.0
 11
0.0
 21
0.0
 31
1.0
 12
0.0
 22
0.0
 32
0.0
 42
50.0
 43
0.0
 44
0.0
 50
0.0
 71
     0
  0
ENDTAB
  0
TABLE
  2
UCS
 70
     0
  0
ENDTAB
  0
TABLE
  2
APPID
 70
    15
  0
APPID
  2
ACAD
 70
     0
  0
APPID
  2
AUTOCAD_POSTSCRIPT_FIGURE
 70
     0
  0
APPID
  2
ACAD_EXEMPT_FROM_CAD_STAND
 70
     0
  0
APPID
  2
ACAD_PSEXT
 70
     0
  0
APPID
  2
ACAUTHENVIRON
 70
     0
  0
APPID
  2
GENIUS_GENOENT_13
 70
     0
  0
APPID
  2
GENIUS_GENCFG_13
 70
     0
  0
APPID
  2
GENIUS_GENCFG0_13
 70
     0
  0
APPID
  2
GENIUS_GENCFG1_13
 70
     0
  0
APPID
  2
GENIUS_GENCFG2_13
 70
     0
  0
APPID
  2
GENIUS_GENCFG3_13
 70
     0
  0
APPID
  2
GENIUS_GENCFG4_13
 70
     0
  0
APPID
  2
GENIUS_GEVCFG0_13
 70
     0
  0
APPID
  2
CONTENTBLOCKICON
 70
     0
  0
APPID
  2
CONTENTBLOCKDESCRIPTION
 70
     0
  0
ENDTAB
  0
TABLE
  2
DIMSTYLE
 70
     1
  0
DIMSTYLE
  2
STANDARD
 70
     0
  3

  4

  5

  6

  7

 40
1.0
 41
0.18
 42
0.0625
 43
0.38
 44
0.18
 45
0.0
 46
0.0
 47
0.0
 48
0.0
140
0.18
141
0.09
142
0.0
143
25.4
144
1.0
145
0.0
146
1.0
147
0.09
 71
     0
 72
     0
 73
     1
 74
     1
 75
     0
 76
     0
 77
     0
 78
     0
170
     0
171
     2
172
     0
173
     0
174
     0
175
     0
176
     7
177
     7
178
     7
  0
ENDTAB
  0
ENDSEC
  0
SECTION
  2
BLOCKS
  0
BLOCK
  8
0
  2
$MODEL_SPACE
 70
     0
 10
0.0
 20
0.0
 30
0.0
  3
$MODEL_SPACE
  1

  0
ENDBLK
  5
E814
  8
0
  0
BLOCK
 67
     1
  8
0
  2
$PAPER_SPACE
 70
     0
 10
0.0
 20
0.0
 30
0.0
  3
$PAPER_SPACE
  1

  0
ENDBLK
  5
E816
 67
     1
  8
0
  0
BLOCK
  8
0
  2
DOT1
 70
     0
 10
0.0
 20
0.0
 30
0.0
  3
DOT1
  1

  0
CIRCLE
  5
E706
  8
SIZE
  6
CONTINUOUS
 62
     7
 10
0.0
 20
0.0
 30
0.0
 40
3.0
  0
ENDBLK
  5
E707
  8
0
  0
BLOCK
  8
0
  2
_ORIGIN
 70
     0
 10
0.0
 20
0.0
 30
0.0
  3
_ORIGIN
  1

  0
CIRCLE
  5
E70A
  8
0
  6
CONTINUOUS
 62
     7
 10
0.0
 20
0.0
 30
0.0
 40
0.5
  0
LINE
  5
E70B
  8
0
  6
CONTINUOUS
 62
     7
 10
0.0
 20
0.0
 30
0.0
 11
-1.0
 21
0.0
 31
0.0
  0
ENDBLK
  5
E70C
  8
0
  0
ENDSEC
  0
SECTION
  2
ENTITIES
  0
LINE
  5
E70D
  8
OUTLINE
  6
CONTINUOUS
 62
     3
 10
167.736495
 20
-164.956612
 30
0.0
 11
-167.263505
 21
-164.956612
 31
0.0
  0
LINE
  5
E70E
  8
OUTLINE
  6
CONTINUOUS
 62
     3
 10
167.736495
 20
170.043388
 30
0.0
 11
-167.263505
 21
170.043388
 31
0.0
  0
CIRCLE
  5
E70F
  8
ARRANGE
  6
CONTINUOUS
 62
     1
 10
0.0
 20
0.0
 30
0.0
 40
40.0
  0
POINT
  5
E710
  8
ARRANGE
  6
CONTINUOUS
 62
     1
 10
0.0
 20
0.0
 30
0.0
  0
LINE
  5
E711
  8
BASIS
  6
DASHDOT
 62
     6
 10
-178.126537
 20
2.543388
 30
0.0
 11
180.646068
 21
2.543388
 31
0.0
  0
LINE
  5
E712
  8
DETAIL
  6
CONTINUOUS
 62
     5
 10
-129.0
 20
-165.5
 30
0.0
 11
-129.0
 21
165.5
 31
0.0
  0
LINE
  5
E713
  8
DETAIL
  6
CONTINUOUS
 62
     5
 10
-129.8
 20
-165.5
 30
0.0
 11
-129.8
 21
165.5
 31
0.0
  0
LINE
  5
E714
  8
DETAIL
  6
CONTINUOUS
 62
     5
 10
0.236495
 20
170.043388
 30
0.0
 11
167.736495
 21
170.043388
 31
0.0
  0
LINE
  5
E715
  8
DETAIL
  6
CONTINUOUS
 62
     5
 10
129.0
 20
-165.5
 30
0.0
 11
129.0
 21
165.5
 31
0.0
  0
LINE
  5
E716
  8
DETAIL
  6
CONTINUOUS
 62
     5
 10
129.8
 20
-165.5
 30
0.0
 11
129.8
 21
165.5
 31
0.0
  0
LINE
  5
E717
  8
DETAIL
  6
CONTINUOUS
 62
     5
 10
167.736495
 20
-164.956612
 30
0.0
 11
-167.263505
 21
-164.956612
 31
0.0
  0
LINE
  5
E718
  8
SIZE
  6
CONTINUOUS
 62
    30
 10
37.236495
 20
-521.8459499999999
 30
0.0
 11
-36.763505
 21
-521.8459499999999
 31
0.0
  0
LINE
  5
E719
  8
SIZE
  6
CONTINUOUS
 62
    30
 10
40.736495
 20
-649.326294
 30
0.0
 11
-40.263505
 21
-649.326294
 31
0.0
  0
LINE
  5
E71A
  8
DETAIL
  6
CONTINUOUS
 62
     5
 10
-48.763505
 20
-236.956612
 30
0.0
 11
49.236495
 21
-236.956612
 31
0.0
  0
LINE
  5
E71B
  8
DETAIL
  6
CONTINOUS
 62
     5
 10
52.736495
 20
-209.956612
 30
0.0
 11
-52.263505
 21
-209.956612
 31
0.0
  0
LINE
  5
E71C
  8
DETAIL
  6
CONTINOUS
 62
     5
 10
52.736495
 20
-184.956612
 30
0.0
 11
-52.263505
 21
-184.956612
 31
0.0
  0
TEXT
  5
E71D
  8
SIZE
  6
CONTINUOUS
 62
    30
 10
-106.7349335714286
 20
333.175467
 30
0.0
 40
64.0
  1
□335
 41
0.9
 72
     1
 11
0.236495
 21
333.175467
 31
0.0
  0
LINE
  5
E71E
  8
SIZE
  6
CONTINUOUS
 62
    30
 10
155.736495
 20
305.832864
 30
0.0
 11
-155.263505
 21
305.832864
 31
0.0
  0
TEXT
  5
E71F
  8
NOTE
  6
CONTINUOUS
 62
     4
 10
-42.927394
 20
-359.364907
 30
0.0
 40
64.0
  1
EA
 41
0.9
  0
LINE
  5
E720
  8
OUTLINE
  6
CONTINUOUS
 62
     3
 10
-167.263505
 20
170.043388
 30
0.0
 11
-167.263505
 21
-164.956612
 31
0.0
  0
LINE
  5
E721
  8
DETAIL
  6
CONTINUOUS
 62
     5
 10
129.0
 20
-129.0
 30
0.0
 11
-129.0
 21
-129.0
 31
0.0
  0
LINE
  5
E722
  8
DETAIL
  6
CONTINUOUS
 62
     5
 10
129.0
 20
-3.0
 30
0.0
 11
-129.0
 21
-3.0
 31
0.0
  0
LINE
  5
E723
  8
DETAIL
  6
CONTINUOUS
 62
     5
 10
129.0
 20
-9.0
 30
0.0
 11
-129.0
 21
-9.0
 31
0.0
  0
LINE
  5
E724
  8
DETAIL
  6
CONTINUOUS
 62
     5
 10
129.0
 20
-111.0
 30
0.0
 11
-129.0
 21
-111.0
 31
0.0
  0
LINE
  5
E725
  8
DETAIL
  6
CONTINUOUS
 62
     5
 10
129.0
 20
-117.0
 30
0.0
 11
-129.0
 21
-117.0
 31
0.0
  0
LINE
  5
E726
  8
DETAIL
  6
CONTINUOUS
 62
     5
 10
129.0
 20
-99.0
 30
0.0
 11
-129.0
 21
-99.0
 31
0.0
  0
LINE
  5
E727
  8
DETAIL
  6
CONTINUOUS
 62
     5
 10
129.0
 20
-105.0
 30
0.0
 11
-129.0
 21
-105.0
 31
0.0
  0
LINE
  5
E728
  8
DETAIL
  6
CONTINUOUS
 62
     5
 10
129.0
 20
-87.0
 30
0.0
 11
-129.0
 21
-87.0
 31
0.0
  0
LINE
  5
E729
  8
DETAIL
  6
CONTINUOUS
 62
     5
 10
129.0
 20
-93.0
 30
0.0
 11
-129.0
 21
-93.0
 31
0.0
  0
LINE
  5
E72A
  8
DETAIL
  6
CONTINUOUS
 62
     5
 10
129.0
 20
-75.0
 30
0.0
 11
-129.0
 21
-75.0
 31
0.0
  0
LINE
  5
E72B
  8
DETAIL
  6
CONTINUOUS
 62
     5
 10
129.0
 20
-81.0
 30
0.0
 11
-129.0
 21
-81.0
 31
0.0
  0
LINE
  5
E72C
  8
DETAIL
  6
CONTINUOUS
 62
     5
 10
129.0
 20
-62.99999999999999
 30
0.0
 11
-129.0
 21
-62.99999999999999
 31
0.0
  0
LINE
  5
E72D
  8
DETAIL
  6
CONTINUOUS
 62
     5
 10
129.0
 20
-69.0
 30
0.0
 11
-129.0
 21
-69.0
 31
0.0
  0
LINE
  5
E72E
  8
DETAIL
  6
CONTINUOUS
 62
     5
 10
129.0
 20
-51.0
 30
0.0
 11
-129.0
 21
-51.0
 31
0.0
  0
LINE
  5
E72F
  8
DETAIL
  6
CONTINUOUS
 62
     5
 10
129.0
 20
-57.0
 30
0.0
 11
-129.0
 21
-57.0
 31
0.0
  0
LINE
  5
E730
  8
DETAIL
  6
CONTINUOUS
 62
     5
 10
129.0
 20
-39.0
 30
0.0
 11
-129.0
 21
-39.0
 31
0.0
  0
LINE
  5
E731
  8
DETAIL
  6
CONTINUOUS
 62
     5
 10
129.0
 20
-45.0
 30
0.0
 11
-129.0
 21
-45.0
 31
0.0
  0
LINE
  5
E732
  8
DETAIL
  6
CONTINUOUS
 62
     5
 10
129.0
 20
-27.0
 30
0.0
 11
-129.0
 21
-27.0
 31
0.0
  0
LINE
  5
E733
  8
DETAIL
  6
CONTINUOUS
 62
     5
 10
129.0
 20
-33.0
 30
0.0
 11
-129.0
 21
-33.0
 31
0.0
  0
LINE
  5
E734
  8
DETAIL
  6
CONTINUOUS
 62
     5
 10
129.0
 20
-15.0
 30
0.0
 11
-129.0
 21
-15.0
 31
0.0
  0
LINE
  5
E735
  8
DETAIL
  6
CONTINUOUS
 62
     5
 10
129.0
 20
-21.0
 30
0.0
 11
-129.0
 21
-21.0
 31
0.0
  0
LINE
  5
E736
  8
DETAIL
  6
CONTINUOUS
 62
     5
 10
129.0
 20
-123.0
 30
0.0
 11
-129.0
 21
-123.0
 31
0.0
  0
LINE
  5
E737
  8
DETAIL
  6
CONTINUOUS
 62
     5
 10
129.0
 20
-165.5
 30
0.0
 11
-129.0
 21
-165.5
 31
0.0
  0
LINE
  5
E738
  8
DETAIL
  6
CONTINUOUS
 62
     5
 10
-167.263505
 20
2.543388
 30
0.0
 11
-167.263505
 21
170.043388
 31
0.0
  0
LINE
  5
E739
  8
BASIS
  6
DASHDOT
 62
     6
 10
0.236495
 20
-260.558466
 30
0.0
 11
0.236495
 21
200.971761
 31
0.0
  0
CIRCLE
  5
E73A
  8
SIZE
  6
CONTINUOUS
 62
    30
 10
-52.263505
 20
-649.326294
 30
0.0
 40
6.0
  0
LINE
  5
E73B
  8
SIZE
  6
CONTINUOUS
 62
    30
 10
-52.263505
 20
-229.956612
 30
0.0
 11
-52.263505
 21
-669.326294
 31
0.0
  0
CIRCLE
  5
E73C
  8
SIZE
  6
CONTINUOUS
 62
    30
 10
-469.012955
 20
-184.956612
 30
0.0
 40
6.0
  0
CIRCLE
  5
E73D
  8
SIZE
  6
CONTINUOUS
 62
    30
 10
-469.012955
 20
-236.956612
 30
0.0
 40
6.0
  0
LINE
  5
E73E
  8
SIZE
  6
CONTINUOUS
 62
    30
 10
-72.263505
 20
-184.956612
 30
0.0
 11
-489.012955
 21
-184.956612
 31
0.0
  0
LINE
  5
E73F
  8
SIZE
  6
CONTINUOUS
 62
    30
 10
-68.763505
 20
-236.956612
 30
0.0
 11
-489.012955
 21
-236.956612
 31
0.0
  0
TEXT
  5
E740
  8
SIZE
  6
CONTINUOUS
 62
    30
 10
-494.012955
 20
-396.1246818571428
 30
0.0
 40
64.0
  1
52
 50
90.0
 41
0.9
 72
     1
 11
-494.012955
 21
-341.267539
 31
0.0
  0
LINE
  5
E741
  8
SIZE
  6
CONTINUOUS
 62
    30
 10
-469.012955
 20
-412.89611
 30
0.0
 11
-469.012955
 21
-236.956612
 31
0.0
  0
LINE
  5
E742
  8
SIZE
  6
CONTINUOUS
 62
    30
 10
-469.012955
 20
-236.956612
 30
0.0
 11
-469.012955
 21
-248.956612
 31
0.0
  0
LINE
  5
E743
  8
SIZE
  6
CONTINUOUS
 62
    30
 10
-469.012955
 20
-248.956612
 30
0.0
 11
-469.012955
 21
-260.956612
 31
0.0
  0
LINE
  5
E744
  8
SIZE
  6
CONTINUOUS
 62
    30
 10
-469.012955
 20
-236.956612
 30
0.0
 11
-469.012955
 21
-184.956612
 31
0.0
  0
LINE
  5
E745
  8
SIZE
  6
CONTINUOUS
 62
    30
 10
-469.012955
 20
-236.956612
 30
0.0
 11
-469.012955
 21
-184.956612
 31
0.0
  0
LINE
  5
E746
  8
SIZE
  6
CONTINUOUS
 62
    30
 10
-48.763505
 20
-256.956612
 30
0.0
 11
-48.763505
 21
-541.8459499999999
 31
0.0
  0
TEXT
  5
E747
  8
SIZE
  6
CONTINUOUS
 62
    30
 10
-372.603425
 20
-396.7423368571428
 30
0.0
 40
64.0
  1
27
 50
90.0
 41
0.9
 72
     1
 11
-372.603425
 21
-341.885194
 31
0.0
  0
LINE
  5
E748
  8
SIZE
  6
CONTINUOUS
 62
    30
 10
-347.603425
 20
-413.513765
 30
0.0
 11
-347.603425
 21
-236.956612
 31
0.0
  0
LINE
  5
E749
  8
SIZE
  6
CONTINUOUS
 62
    30
 10
-52.263505
 20
-649.326294
 30
0.0
 11
-40.263505
 21
-649.326294
 31
0.0
  0
LINE
  5
E74A
  8
SIZE
  6
CONTINUOUS
 62
    30
 10
-48.763505
 20
-521.8459499999999
 30
0.0
 11
-36.763505
 21
-521.8459499999999
 31
0.0
  0
CIRCLE
  5
E74B
  8
SIZE
  6
CONTINUOUS
 62
    30
 10
-48.763505
 20
-521.8459499999999
 30
0.0
 40
6.0
  0
LINE
  5
E74C
  8
SIZE
  6
CONTINUOUS
 62
    30
 10
-72.263505
 20
-209.956612
 30
0.0
 11
-367.603425
 21
-209.956612
 31
0.0
  0
LINE
  5
E74D
  8
SIZE
  6
CONTINUOUS
 62
    30
 10
-68.763505
 20
-236.956612
 30
0.0
 11
-367.603425
 21
-236.956612
 31
0.0
  0
CIRCLE
  5
E74E
  8
SIZE
  6
CONTINUOUS
 62
    30
 10
-347.603425
 20
-209.956612
 30
0.0
 40
6.0
  0
CIRCLE
  5
E74F
  8
SIZE
  6
CONTINUOUS
 62
    30
 10
-347.603425
 20
-236.956612
 30
0.0
 40
6.0
  0
LINE
  5
E750
  8
SIZE
  6
CONTINUOUS
 62
    30
 10
-347.603425
 20
-236.956612
 30
0.0
 11
-347.603425
 21
-248.956612
 31
0.0
  0
LINE
  5
E751
  8
SIZE
  6
CONTINUOUS
 62
    30
 10
-347.603425
 20
-248.956612
 30
0.0
 11
-347.603425
 21
-260.956612
 31
0.0
  0
LINE
  5
E752
  8
SIZE
  6
CONTINUOUS
 62
    30
 10
-347.603425
 20
-209.956612
 30
0.0
 11
-347.603425
 21
-197.956612
 31
0.0
  0
LINE
  5
E753
  8
SIZE
  6
CONTINUOUS
 62
    30
 10
-347.603425
 20
-236.956612
 30
0.0
 11
-347.603425
 21
-209.956612
 31
0.0
  0
LINE
  5
E754
  8
SIZE
  6
CONTINUOUS
 62
    30
 10
-347.603425
 20
-236.956612
 30
0.0
 11
-347.603425
 21
-209.956612
 31
0.0
  0
LINE
  5
E755
  8
SIZE
  6
CONTINUOUS
 62
    30
 10
-347.603425
 20
-197.956612
 30
0.0
 11
-347.603425
 21
-185.956612
 31
0.0
  0
LINE
  5
E756
  8
DETAIL
  6
CONTINUOUS
 62
     5
 10
-167.263505
 20
2.543388
 30
0.0
 11
-167.263505
 21
-164.956612
 31
0.0
  0
LINE
  5
E757
  8
DETAIL
  6
CONTINUOUS
 62
     5
 10
167.5
 20
-165.5
 30
0.0
 11
129.8
 21
-165.5
 31
0.0
  0
LINE
  5
E758
  8
DETAIL
  6
CONTINUOUS
 62
     5
 10
-62.763505
 20
-172.956612
 30
0.0
 11
-52.263505
 21
-184.956612
 31
0.0
  0
LINE
  5
E759
  8
DETAIL
  6
CONTINOUS
 62
     5
 10
-62.763505
 20
-172.956612
 30
0.0
 11
-62.763505
 21
-164.956612
 31
0.0
  0
LINE
  5
E75A
  8
DETAIL
  6
CONTINOUS
 62
     5
 10
-48.763505
 20
-236.956612
 30
0.0
 11
-48.763505
 21
-209.956612
 31
0.0
  0
LINE
  5
E75B
  8
DETAIL
  6
CONTINUOUS
 62
     5
 10
-52.263505
 20
-209.956612
 30
0.0
 11
-52.263505
 21
-184.956612
 31
0.0
  0
LINE
  5
E75C
  8
DETAIL
  6
CONTINUOUS
 62
     5
 10
18.5
 20
-111.0
 30
0.0
 11
18.5
 21
-117.0
 31
0.0
  0
LINE
  5
E75D
  8
DETAIL
  6
CONTINUOUS
 62
     5
 10
16.5
 20
-111.0
 30
0.0
 11
16.5
 21
-117.0
 31
0.0
  0
LINE
  5
E75E
  8
DETAIL
  6
CONTINUOUS
 62
     5
 10
129.0
 20
-111.0
 30
0.0
 11
129.0
 21
-117.0
 31
0.0
  0
LINE
  5
E75F
  8
DETAIL
  6
CONTINUOUS
 62
     5
 10
-164.263505
 20
-127.256612
 30
0.0
 11
-164.263505
 21
-126.456612
 31
0.0
  0
LINE
  5
E760
  8
DETAIL
  6
CONTINUOUS
 62
     5
 10
129.0
 20
-123.0
 30
0.0
 11
129.0
 21
-129.0
 31
0.0
  0
LINE
  5
E761
  8
DETAIL
  6
CONTINUOUS
 62
     5
 10
17.0
 20
-123.0
 30
0.0
 11
17.0
 21
-129.0
 31
0.0
  0
LINE
  5
E762
  8
DETAIL
  6
CONTINUOUS
 62
     5
 10
18.5
 20
-123.0
 30
0.0
 11
18.5
 21
-129.0
 31
0.0
  0
LINE
  5
E763
  8
DETAIL
  6
CONTINUOUS
 62
     5
 10
129.0
 20
-62.99999999999999
 30
0.0
 11
129.0
 21
-69.0
 31
0.0
  0
LINE
  5
E764
  8
DETAIL
  6
CONTINUOUS
 62
     5
 10
129.0
 20
-99.0
 30
0.0
 11
129.0
 21
-105.0
 31
0.0
  0
LINE
  5
E765
  8
DETAIL
  6
CONTINUOUS
 62
     5
 10
129.0
 20
-87.0
 30
0.0
 11
129.0
 21
-93.0
 31
0.0
  0
LINE
  5
E766
  8
DETAIL
  6
CONTINUOUS
 62
     5
 10
129.0
 20
-75.0
 30
0.0
 11
129.0
 21
-81.0
 31
0.0
  0
LINE
  5
E767
  8
DETAIL
  6
CONTINUOUS
 62
     5
 10
117.5
 20
-3.0
 30
0.0
 11
117.5
 21
-9.0
 31
0.0
  0
LINE
  5
E768
  8
DETAIL
  6
CONTINUOUS
 62
     5
 10
109.5
 20
-3.0
 30
0.0
 11
109.5
 21
-9.0
 31
0.0
  0
LINE
  5
E769
  8
DETAIL
  6
CONTINUOUS
 62
     5
 10
107.5
 20
-3.0
 30
0.0
 11
107.5
 21
-9.0
 31
0.0
  0
LINE
  5
E76A
  8
DETAIL
  6
CONTINUOUS
 62
     5
 10
115.5
 20
-3.0
 30
0.0
 11
115.5
 21
-9.0
 31
0.0
  0
LINE
  5
E76B
  8
DETAIL
  6
CONTINUOUS
 62
     5
 10
117.5
 20
-15.0
 30
0.0
 11
117.5
 21
-21.0
 31
0.0
  0
LINE
  5
E76C
  8
DETAIL
  6
CONTINUOUS
 62
     5
 10
115.5
 20
-15.0
 30
0.0
 11
115.5
 21
-21.0
 31
0.0
  0
LINE
  5
E76D
  8
DETAIL
  6
CONTINUOUS
 62
     5
 10
109.5
 20
-15.0
 30
0.0
 11
109.5
 21
-21.0
 31
0.0
  0
LINE
  5
E76E
  8
DETAIL
  6
CONTINUOUS
 62
     5
 10
107.5
 20
-15.0
 30
0.0
 11
107.5
 21
-21.0
 31
0.0
  0
LINE
  5
E76F
  8
DETAIL
  6
CONTINUOUS
 62
     5
 10
129.0
 20
-3.0
 30
0.0
 11
129.0
 21
-9.0
 31
0.0
  0
LINE
  5
E770
  8
DETAIL
  6
CONTINUOUS
 62
     5
 10
129.0
 20
-51.0
 30
0.0
 11
129.0
 21
-57.0
 31
0.0
  0
LINE
  5
E771
  8
DETAIL
  6
CONTINUOUS
 62
     5
 10
129.0
 20
-39.0
 30
0.0
 11
129.0
 21
-45.0
 31
0.0
  0
LINE
  5
E772
  8
DETAIL
  6
CONTINUOUS
 62
     5
 10
129.0
 20
-27.0
 30
0.0
 11
129.0
 21
-33.0
 31
0.0
  0
LINE
  5
E773
  8
DETAIL
  6
CONTINUOUS
 62
     5
 10
129.0
 20
-15.0
 30
0.0
 11
129.0
 21
-21.0
 31
0.0
  0
LINE
  5
E774
  8
DETAIL
  6
CONTINUOUS
 62
     5
 10
17.0
 20
-99.0
 30
0.0
 11
17.0
 21
-105.0
 31
0.0
  0
LINE
  5
E775
  8
DETAIL
  6
CONTINUOUS
 62
     5
 10
18.5
 20
-99.0
 30
0.0
 11
18.5
 21
-105.0
 31
0.0
  0
LINE
  5
E776
  8
DETAIL
  6
CONTINUOUS
 62
     5
 10
-129.8
 20
-165.5
 30
0.0
 11
-167.5
 21
-165.5
 31
0.0
  0
LINE
  5
E777
  8
DETAIL
  6
CONTINUOUS
 62
     5
 10
-129.0
 20
-111.0
 30
0.0
 11
-129.0
 21
-117.0
 31
0.0
  0
LINE
  5
E778
  8
DETAIL
  6
CONTINUOUS
 62
     5
 10
-18.5
 20
-111.0
 30
0.0
 11
-18.5
 21
-117.0
 31
0.0
  0
LINE
  5
E779
  8
DETAIL
  6
CONTINUOUS
 62
     5
 10
-16.5
 20
-111.0
 30
0.0
 11
-16.5
 21
-117.0
 31
0.0
  0
LINE
  5
E77A
  8
DETAIL
  6
CONTINUOUS
 62
     5
 10
-18.5
 20
-123.0
 30
0.0
 11
-18.5
 21
-129.0
 31
0.0
  0
LINE
  5
E77B
  8
DETAIL
  6
CONTINUOUS
 62
     5
 10
-17.0
 20
-123.0
 30
0.0
 11
-17.0
 21
-129.0
 31
0.0
  0
LINE
  5
E77C
  8
DETAIL
  6
CONTINUOUS
 62
     5
 10
-129.0
 20
-123.0
 30
0.0
 11
-129.0
 21
-129.0
 31
0.0
  0
LINE
  5
E77D
  8
DETAIL
  6
CONTINUOUS
 62
     5
 10
-18.5
 20
-99.0
 30
0.0
 11
-18.5
 21
-105.0
 31
0.0
  0
LINE
  5
E77E
  8
DETAIL
  6
CONTINUOUS
 62
     5
 10
-17.0
 20
-99.0
 30
0.0
 11
-17.0
 21
-105.0
 31
0.0
  0
LINE
  5
E77F
  8
DETAIL
  6
CONTINUOUS
 62
     5
 10
-129.0
 20
-62.99999999999999
 30
0.0
 11
-129.0
 21
-69.0
 31
0.0
  0
LINE
  5
E780
  8
DETAIL
  6
CONTINUOUS
 62
     5
 10
-129.0
 20
-99.0
 30
0.0
 11
-129.0
 21
-105.0
 31
0.0
  0
LINE
  5
E781
  8
DETAIL
  6
CONTINUOUS
 62
     5
 10
-129.0
 20
-87.0
 30
0.0
 11
-129.0
 21
-93.0
 31
0.0
  0
LINE
  5
E782
  8
DETAIL
  6
CONTINUOUS
 62
     5
 10
-129.0
 20
-75.0
 30
0.0
 11
-129.0
 21
-81.0
 31
0.0
  0
LINE
  5
E783
  8
DETAIL
  6
CONTINUOUS
 62
     5
 10
-129.0
 20
-3.0
 30
0.0
 11
-129.0
 21
-9.0
 31
0.0
  0
LINE
  5
E784
  8
DETAIL
  6
CONTINUOUS
 62
     5
 10
-129.0
 20
-51.0
 30
0.0
 11
-129.0
 21
-57.0
 31
0.0
  0
LINE
  5
E785
  8
DETAIL
  6
CONTINUOUS
 62
     5
 10
-129.0
 20
-39.0
 30
0.0
 11
-129.0
 21
-45.0
 31
0.0
  0
LINE
  5
E786
  8
DETAIL
  6
CONTINUOUS
 62
     5
 10
-129.0
 20
-27.0
 30
0.0
 11
-129.0
 21
-33.0
 31
0.0
  0
LINE
  5
E787
  8
DETAIL
  6
CONTINUOUS
 62
     5
 10
-129.0
 20
-15.0
 30
0.0
 11
-129.0
 21
-21.0
 31
0.0
  0
LINE
  5
E788
  8
DETAIL
  6
CONTINUOUS
 62
     5
 10
-115.5
 20
-15.0
 30
0.0
 11
-115.5
 21
-21.0
 31
0.0
  0
LINE
  5
E789
  8
DETAIL
  6
CONTINUOUS
 62
     5
 10
-117.5
 20
-15.0
 30
0.0
 11
-117.5
 21
-21.0
 31
0.0
  0
LINE
  5
E78A
  8
DETAIL
  6
CONTINUOUS
 62
     5
 10
-115.5
 20
-3.0
 30
0.0
 11
-115.5
 21
-9.0
 31
0.0
  0
LINE
  5
E78B
  8
DETAIL
  6
CONTINUOUS
 62
     5
 10
-117.5
 20
-3.0
 30
0.0
 11
-117.5
 21
-9.0
 31
0.0
  0
LINE
  5
E78C
  8
DETAIL
  6
CONTINUOUS
 62
     5
 10
-107.5
 20
-15.0
 30
0.0
 11
-107.5
 21
-21.0
 31
0.0
  0
LINE
  5
E78D
  8
DETAIL
  6
CONTINUOUS
 62
     5
 10
-107.5
 20
-3.0
 30
0.0
 11
-107.5
 21
-9.0
 31
0.0
  0
LINE
  5
E78E
  8
DETAIL
  6
CONTINUOUS
 62
     5
 10
-109.5
 20
-15.0
 30
0.0
 11
-109.5
 21
-21.0
 31
0.0
  0
LINE
  5
E78F
  8
DETAIL
  6
CONTINUOUS
 62
     5
 10
-109.5
 20
-3.0
 30
0.0
 11
-109.5
 21
-9.0
 31
0.0
  0
LINE
  5
E790
  8
DETAIL
  6
CONTINUOUS
 62
     5
 10
0.236495
 20
170.043388
 30
0.0
 11
-167.263505
 21
170.043388
 31
0.0
  0
LINE
  5
E791
  8
SIZE
  6
CONTINUOUS
 62
    30
 10
-167.263505
 20
190.043388
 30
0.0
 11
-167.263505
 21
325.832864
 31
0.0
  0
LINE
  5
E792
  8
SIZE
  6
CONTINUOUS
 62
    30
 10
-167.263505
 20
305.832864
 30
0.0
 11
-155.263505
 21
305.832864
 31
0.0
  0
CIRCLE
  5
E793
  8
SIZE
  6
CONTINUOUS
 62
    30
 10
-167.263505
 20
305.832864
 30
0.0
 40
6.0
  0
LINE
  5
E794
  8
OUTLINE
  6
CONTINUOUS
 62
     3
 10
167.736495
 20
170.043388
 30
0.0
 11
167.736495
 21
-164.956612
 31
0.0
  0
LINE
  5
E795
  8
DETAIL
  6
CONTINUOUS
 62
     5
 10
129.0
 20
9.0
 30
0.0
 11
-129.0
 21
9.0
 31
0.0
  0
LINE
  5
E796
  8
DETAIL
  6
CONTINUOUS
 62
     5
 10
129.0
 20
3.0
 30
0.0
 11
-129.0
 21
3.0
 31
0.0
  0
LINE
  5
E797
  8
DETAIL
  6
CONTINUOUS
 62
     5
 10
129.0
 20
117.0
 30
0.0
 11
-129.0
 21
117.0
 31
0.0
  0
LINE
  5
E798
  8
DETAIL
  6
CONTINUOUS
 62
     5
 10
129.0
 20
111.0
 30
0.0
 11
-129.0
 21
111.0
 31
0.0
  0
LINE
  5
E799
  8
DETAIL
  6
CONTINUOUS
 62
     5
 10
129.0
 20
105.0
 30
0.0
 11
-129.0
 21
105.0
 31
0.0
  0
LINE
  5
E79A
  8
DETAIL
  6
CONTINUOUS
 62
     5
 10
129.0
 20
99.0
 30
0.0
 11
-129.0
 21
99.0
 31
0.0
  0
LINE
  5
E79B
  8
DETAIL
  6
CONTINUOUS
 62
     5
 10
129.0
 20
93.0
 30
0.0
 11
-129.0
 21
93.0
 31
0.0
  0
LINE
  5
E79C
  8
DETAIL
  6
CONTINUOUS
 62
     5
 10
129.0
 20
87.0
 30
0.0
 11
-129.0
 21
87.0
 31
0.0
  0
LINE
  5
E79D
  8
DETAIL
  6
CONTINUOUS
 62
     5
 10
129.0
 20
81.0
 30
0.0
 11
-129.0
 21
81.0
 31
0.0
  0
LINE
  5
E79E
  8
DETAIL
  6
CONTINUOUS
 62
     5
 10
129.0
 20
75.0
 30
0.0
 11
-129.0
 21
75.0
 31
0.0
  0
LINE
  5
E79F
  8
DETAIL
  6
CONTINUOUS
 62
     5
 10
129.0
 20
69.0
 30
0.0
 11
-129.0
 21
69.0
 31
0.0
  0
LINE
  5
E7A0
  8
DETAIL
  6
CONTINUOUS
 62
     5
 10
129.0
 20
63.0
 30
0.0
 11
-129.0
 21
63.0
 31
0.0
  0
LINE
  5
E7A1
  8
DETAIL
  6
CONTINUOUS
 62
     5
 10
129.0
 20
57.0
 30
0.0
 11
-129.0
 21
57.0
 31
0.0
  0
LINE
  5
E7A2
  8
DETAIL
  6
CONTINUOUS
 62
     5
 10
129.0
 20
51.0
 30
0.0
 11
-129.0
 21
51.0
 31
0.0
  0
LINE
  5
E7A3
  8
DETAIL
  6
CONTINUOUS
 62
     5
 10
129.8
 20
45.0
 30
0.0
 11
-129.0
 21
45.0
 31
0.0
  0
LINE
  5
E7A4
  8
DETAIL
  6
CONTINUOUS
 62
     5
 10
129.0
 20
39.0
 30
0.0
 11
-129.0
 21
39.0
 31
0.0
  0
LINE
  5
E7A5
  8
DETAIL
  6
CONTINUOUS
 62
     5
 10
129.0
 20
33.0
 30
0.0
 11
-129.0
 21
33.0
 31
0.0
  0
LINE
  5
E7A6
  8
DETAIL
  6
CONTINUOUS
 62
     5
 10
129.0
 20
27.0
 30
0.0
 11
-129.0
 21
27.0
 31
0.0
  0
LINE
  5
E7A7
  8
DETAIL
  6
CONTINUOUS
 62
     5
 10
129.0
 20
21.0
 30
0.0
 11
-129.0
 21
21.0
 31
0.0
  0
LINE
  5
E7A8
  8
DETAIL
  6
CONTINUOUS
 62
     5
 10
129.0
 20
15.0
 30
0.0
 11
-129.0
 21
15.0
 31
0.0
  0
LINE
  5
E7A9
  8
DETAIL
  6
CONTINUOUS
 62
     5
 10
129.0
 20
129.0
 30
0.0
 11
-129.0
 21
129.0
 31
0.0
  0
LINE
  5
E7AA
  8
DETAIL
  6
CONTINUOUS
 62
     5
 10
129.0
 20
123.0
 30
0.0
 11
-129.0
 21
123.0
 31
0.0
  0
LINE
  5
E7AB
  8
DETAIL
  6
CONTINUOUS
 62
     5
 10
-129.0
 20
165.5
 30
0.0
 11
167.5
 21
165.5
 31
0.0
  0
LINE
  5
E7AC
  8
DETAIL
  6
CONTINUOUS
 62
     5
 10
167.736495
 20
2.543388
 30
0.0
 11
167.736495
 21
170.043388
 31
0.0
  0
CIRCLE
  5
E7AD
  8
SIZE
  6
CONTINUOUS
 62
    30
 10
52.736495
 20
-649.326294
 30
0.0
 40
6.0
  0
LINE
  5
E7AE
  8
SIZE
  6
CONTINUOUS
 62
    30
 10
52.736495
 20
-229.956612
 30
0.0
 11
52.736495
 21
-669.326294
 31
0.0
  0
LINE
  5
E7AF
  8
SIZE
  6
CONTINUOUS
 62
    30
 10
49.236495
 20
-256.956612
 30
0.0
 11
49.236495
 21
-541.8459499999999
 31
0.0
  0
TEXT
  5
E7B0
  8
SIZE
  6
CONTINUOUS
 62
    30
 10
159.2610798571428
 20
-496.84595
 30
0.0
 40
64.0
  1
φ98
 41
0.9
 72
     1
 11
238.803937
 21
-496.84595
 31
0.0
  0
LINE
  5
E7B1
  8
SIZE
  6
CONTINUOUS
 62
    30
 10
339.232509
 20
-521.8459499999999
 30
0.0
 11
49.236495
 21
-521.8459499999999
 31
0.0
  0
LINE
  5
E7B2
  8
SIZE
  6
CONTINUOUS
 62
    30
 10
51.236495
 20
-521.8459499999999
 30
0.0
 11
355.573293
 21
-521.8459499999999
 31
0.0
  0
LINE
  5
E7B3
  8
SIZE
  6
CONTINUOUS
 62
    30
 10
54.736495
 20
-649.326294
 30
0.0
 11
384.526457
 21
-649.326294
 31
0.0
  0
TEXT
  5
E7B4
  8
SIZE
  6
CONTINUOUS
 62
    30
 10
151.5244754285714
 20
-624.326294
 30
0.0
 40
64.0
  1
φ105
 41
0.9
 72
     1
 11
258.495904
 21
-624.326294
 31
0.0
  0
LINE
  5
E7B5
  8
SIZE
  6
CONTINUOUS
 62
    30
 10
380.867332
 20
-649.326294
 30
0.0
 11
52.736495
 21
-649.326294
 31
0.0
  0
LINE
  5
E7B6
  8
SIZE
  6
CONTINUOUS
 62
    30
 10
52.736495
 20
-649.326294
 30
0.0
 11
40.736495
 21
-649.326294
 31
0.0
  0
LINE
  5
E7B7
  8
SIZE
  6
CONTINUOUS
 62
    30
 10
49.236495
 20
-521.8459499999999
 30
0.0
 11
37.236495
 21
-521.8459499999999
 31
0.0
  0
CIRCLE
  5
E7B8
  8
SIZE
  6
CONTINUOUS
 62
    30
 10
49.236495
 20
-521.8459499999999
 30
0.0
 40
6.0
  0
LINE
  5
E7B9
  8
DETAIL
  6
CONTINUOUS
 62
     5
 10
167.736495
 20
2.543388
 30
0.0
 11
167.736495
 21
-164.956612
 31
0.0
  0
LINE
  5
E7BA
  8
DETAIL
  6
CONTINUOUS
 62
     5
 10
63.236495
 20
-172.956612
 30
0.0
 11
52.736495
 21
-184.956612
 31
0.0
  0
LINE
  5
E7BB
  8
DETAIL
  6
CONTINOUS
 62
     5
 10
49.236495
 20
-236.956612
 30
0.0
 11
49.236495
 21
-209.956612
 31
0.0
  0
LINE
  5
E7BC
  8
DETAIL
  6
CONTINUOUS
 62
     5
 10
52.736495
 20
-209.956612
 30
0.0
 11
52.736495
 21
-184.956612
 31
0.0
  0
LINE
  5
E7BD
  8
DETAIL
  6
CONTINOUS
 62
     5
 10
63.236495
 20
-172.956612
 30
0.0
 11
63.236495
 21
-164.956612
 31
0.0
  0
LINE
  5
E7BE
  8
DETAIL
  6
CONTINUOUS
 62
     5
 10
18.5
 20
111.0
 30
0.0
 11
18.5
 21
117.0
 31
0.0
  0
LINE
  5
E7BF
  8
DETAIL
  6
CONTINUOUS
 62
     5
 10
16.5
 20
111.0
 30
0.0
 11
16.5
 21
117.0
 31
0.0
  0
LINE
  5
E7C0
  8
DETAIL
  6
CONTINUOUS
 62
     5
 10
107.5
 20
3.0
 30
0.0
 11
107.5
 21
9.0
 31
0.0
  0
LINE
  5
E7C1
  8
DETAIL
  6
CONTINUOUS
 62
     5
 10
109.5
 20
3.0
 30
0.0
 11
109.5
 21
9.0
 31
0.0
  0
LINE
  5
E7C2
  8
DETAIL
  6
CONTINUOUS
 62
     5
 10
115.5
 20
3.0
 30
0.0
 11
115.5
 21
9.0
 31
0.0
  0
LINE
  5
E7C3
  8
DETAIL
  6
CONTINUOUS
 62
     5
 10
117.5
 20
3.0
 30
0.0
 11
117.5
 21
9.0
 31
0.0
  0
LINE
  5
E7C4
  8
DETAIL
  6
CONTINUOUS
 62
     5
 10
129.0
 20
3.0
 30
0.0
 11
129.0
 21
9.0
 31
0.0
  0
LINE
  5
E7C5
  8
DETAIL
  6
CONTINUOUS
 62
     5
 10
107.5
 20
15.0
 30
0.0
 11
107.5
 21
21.0
 31
0.0
  0
LINE
  5
E7C6
  8
DETAIL
  6
CONTINUOUS
 62
     5
 10
109.5
 20
15.0
 30
0.0
 11
109.5
 21
21.0
 31
0.0
  0
LINE
  5
E7C7
  8
DETAIL
  6
CONTINUOUS
 62
     5
 10
115.5
 20
15.0
 30
0.0
 11
115.5
 21
21.0
 31
0.0
  0
LINE
  5
E7C8
  8
DETAIL
  6
CONTINUOUS
 62
     5
 10
117.5
 20
15.0
 30
0.0
 11
117.5
 21
21.0
 31
0.0
  0
LINE
  5
E7C9
  8
DETAIL
  6
CONTINUOUS
 62
     5
 10
129.0
 20
39.0
 30
0.0
 11
129.0
 21
45.0
 31
0.0
  0
LINE
  5
E7CA
  8
DETAIL
  6
CONTINUOUS
 62
     5
 10
129.0
 20
27.0
 30
0.0
 11
129.0
 21
33.0
 31
0.0
  0
LINE
  5
E7CB
  8
DETAIL
  6
CONTINUOUS
 62
     5
 10
129.0
 20
15.0
 30
0.0
 11
129.0
 21
21.0
 31
0.0
  0
LINE
  5
E7CC
  8
DETAIL
  6
CONTINUOUS
 62
     5
 10
17.0
 20
99.0
 30
0.0
 11
17.0
 21
105.0
 31
0.0
  0
LINE
  5
E7CD
  8
DETAIL
  6
CONTINUOUS
 62
     5
 10
18.5
 20
99.0
 30
0.0
 11
18.5
 21
105.0
 31
0.0
  0
LINE
  5
E7CE
  8
DETAIL
  6
CONTINUOUS
 62
     5
 10
18.5
 20
123.0
 30
0.0
 11
18.5
 21
129.0
 31
0.0
  0
LINE
  5
E7CF
  8
DETAIL
  6
CONTINUOUS
 62
     5
 10
17.0
 20
123.0
 30
0.0
 11
17.0
 21
129.0
 31
0.0
  0
LINE
  5
E7D0
  8
DETAIL
  6
CONTINUOUS
 62
     5
 10
-167.5
 20
165.5
 30
0.0
 11
-129.8
 21
165.5
 31
0.0
  0
LINE
  5
E7D1
  8
DETAIL
  6
CONTINUOUS
 62
     5
 10
-129.0
 20
111.0
 30
0.0
 11
-129.0
 21
117.0
 31
0.0
  0
LINE
  5
E7D2
  8
DETAIL
  6
CONTINUOUS
 62
     5
 10
-18.5
 20
111.0
 30
0.0
 11
-18.5
 21
117.0
 31
0.0
  0
LINE
  5
E7D3
  8
DETAIL
  6
CONTINUOUS
 62
     5
 10
-16.5
 20
111.0
 30
0.0
 11
-16.5
 21
117.0
 31
0.0
  0
LINE
  5
E7D4
  8
DETAIL
  6
CONTINUOUS
 62
     5
 10
-18.5
 20
99.0
 30
0.0
 11
-18.5
 21
105.0
 31
0.0
  0
LINE
  5
E7D5
  8
DETAIL
  6
CONTINUOUS
 62
     5
 10
-17.0
 20
99.0
 30
0.0
 11
-17.0
 21
105.0
 31
0.0
  0
LINE
  5
E7D6
  8
DETAIL
  6
CONTINUOUS
 62
     5
 10
-115.5
 20
3.0
 30
0.0
 11
-115.5
 21
9.0
 31
0.0
  0
LINE
  5
E7D7
  8
DETAIL
  6
CONTINUOUS
 62
     5
 10
-117.5
 20
3.0
 30
0.0
 11
-117.5
 21
9.0
 31
0.0
  0
LINE
  5
E7D8
  8
DETAIL
  6
CONTINUOUS
 62
     5
 10
-129.0
 20
3.0
 30
0.0
 11
-129.0
 21
9.0
 31
0.0
  0
LINE
  5
E7D9
  8
DETAIL
  6
CONTINUOUS
 62
     5
 10
-107.5
 20
3.0
 30
0.0
 11
-107.5
 21
9.0
 31
0.0
  0
LINE
  5
E7DA
  8
DETAIL
  6
CONTINUOUS
 62
     5
 10
-109.5
 20
3.0
 30
0.0
 11
-109.5
 21
9.0
 31
0.0
  0
LINE
  5
E7DB
  8
DETAIL
  6
CONTINUOUS
 62
     5
 10
-115.5
 20
15.0
 30
0.0
 11
-115.5
 21
21.0
 31
0.0
  0
LINE
  5
E7DC
  8
DETAIL
  6
CONTINUOUS
 62
     5
 10
-117.5
 20
15.0
 30
0.0
 11
-117.5
 21
21.0
 31
0.0
  0
LINE
  5
E7DD
  8
DETAIL
  6
CONTINUOUS
 62
     5
 10
-129.0
 20
51.0
 30
0.0
 11
-129.0
 21
57.0
 31
0.0
  0
LINE
  5
E7DE
  8
DETAIL
  6
CONTINUOUS
 62
     5
 10
-129.0
 20
39.0
 30
0.0
 11
-129.0
 21
45.0
 31
0.0
  0
LINE
  5
E7DF
  8
DETAIL
  6
CONTINUOUS
 62
     5
 10
-129.0
 20
27.0
 30
0.0
 11
-129.0
 21
33.0
 31
0.0
  0
LINE
  5
E7E0
  8
DETAIL
  6
CONTINUOUS
 62
     5
 10
-129.0
 20
15.0
 30
0.0
 11
-129.0
 21
21.0
 31
0.0
  0
LINE
  5
E7E1
  8
DETAIL
  6
CONTINUOUS
 62
     5
 10
-107.5
 20
15.0
 30
0.0
 11
-107.5
 21
21.0
 31
0.0
  0
LINE
  5
E7E2
  8
DETAIL
  6
CONTINUOUS
 62
     5
 10
-109.5
 20
15.0
 30
0.0
 11
-109.5
 21
21.0
 31
0.0
  0
LINE
  5
E7E3
  8
DETAIL
  6
CONTINUOUS
 62
     5
 10
-129.0
 20
87.0
 30
0.0
 11
-129.0
 21
93.0
 31
0.0
  0
LINE
  5
E7E4
  8
DETAIL
  6
CONTINUOUS
 62
     5
 10
-129.0
 20
75.0
 30
0.0
 11
-129.0
 21
81.0
 31
0.0
  0
LINE
  5
E7E5
  8
DETAIL
  6
CONTINUOUS
 62
     5
 10
-129.0
 20
63.0
 30
0.0
 11
-129.0
 21
69.0
 31
0.0
  0
LINE
  5
E7E6
  8
DETAIL
  6
CONTINUOUS
 62
     5
 10
-129.0
 20
99.0
 30
0.0
 11
-129.0
 21
105.0
 31
0.0
  0
LINE
  5
E7E7
  8
DETAIL
  6
CONTINUOUS
 62
     5
 10
-18.5
 20
123.0
 30
0.0
 11
-18.5
 21
129.0
 31
0.0
  0
LINE
  5
E7E8
  8
DETAIL
  6
CONTINUOUS
 62
     5
 10
-17.0
 20
123.0
 30
0.0
 11
-17.0
 21
129.0
 31
0.0
  0
LINE
  5
E7E9
  8
DETAIL
  6
CONTINUOUS
 62
     5
 10
-129.0
 20
123.0
 30
0.0
 11
-129.0
 21
129.0
 31
0.0
  0
LINE
  5
E7EA
  8
SIZE
  6
CONTINUOUS
 62
    30
 10
167.736495
 20
190.043388
 30
0.0
 11
167.736495
 21
325.832864
 31
0.0
  0
LINE
  5
E7EB
  8
SIZE
  6
CONTINUOUS
 62
    30
 10
167.736495
 20
305.832864
 30
0.0
 11
155.736495
 21
305.832864
 31
0.0
  0
CIRCLE
  5
E7EC
  8
SIZE
  6
CONTINUOUS
 62
    30
 10
167.736495
 20
305.832864
 30
0.0
 40
6.0
  0
TEXT
  5
E7ED
  8
ETC
  6
CONTINUOUS
 62
    61
 10
309.916171
 20
419.371503
 30
0.0
 40
64.0
  1
VD-15ZX9-G_6
 41
0.9
  0
TEXT
  5
E7EE
  8
ETC
  6
CONTINUOUS
 62
    61
 10
305.730177
 20
301.416193
 30
0.0
 40
64.0
  1
換気扇
 41
0.9
  0
TEXT
  5
E7EF
  8
ETC
  6
CONTINUOUS
 62
    61
 10
356.337679
 20
193.580413
 30
0.0
 40
40.0
  1
VD-15ZX9-G
 41
0.9
  0
TEXT
  5
E7F0
  8
ETC
  6
CONTINUOUS
 62
    61
 10
356.337679
 20
129.418689
 30
0.0
 40
40.0
  1
VD-15ZXP9-G
 41
0.9
  0
ENDSEC
  0
EOF
