  0
SECTION
  2
HEADER
  9
$ACADVER
  1
AC1009
  9
$INSBASE
 10
0.0
 20
0.0
 30
0.0
  9
$EXTMIN
 10
-823.68517699999995
 20
-947.96194299999991
 30
0.0
  9
$EXTMAX
 10
1454.8610000000001
 20
1007.802308
 30
50.0
  9
$LIMMIN
 10
-2970.0
 20
-2100.0
  9
$LIMMAX
 10
2970.0
 20
2100.0
  9
$ORTHOMODE
 70
     1
  9
$REGENMODE
 70
     0
  9
$FILLMODE
 70
     1
  9
$QTEXTMODE
 70
     0
  9
$MIRRTEXT
 70
     0
  9
$DRAGMODE
 70
     2
  9
$LTSCALE
 40
20.0
  9
$OSMODE
 70
   173
  9
$ATTMODE
 70
     1
  9
$TEXTSIZE
 40
64.0
  9
$TRACEWID
 40
0.05
  9
$TEXTSTYLE
  7
STANDARD
  9
$CLAYER
  8
OUTLINE
  9
$CELTYPE
  6
DASHED
  9
$CECOLOR
 62
     3
  9
$DIMSCALE
 40
1.0
  9
$DIMASZ
 40
12.0
  9
$DIMEXO
 40
20.0
  9
$DIMDLI
 40
200.0
  9
$DIMRND
 40
0.0
  9
$DIMDLE
 40
0.0
  9
$DIMEXE
 40
20.0
  9
$DIMTP
 40
0.0
  9
$DIMTM
 40
0.0
  9
$DIMTXT
 40
64.0
  9
$DIMCEN
 40
0.09
  9
$DIMTSZ
 40
0.0
  9
$DIMTOL
 70
     0
  9
$DIMLIM
 70
     0
  9
$DIMTIH
 70
     0
  9
$DIMTOH
 70
     0
  9
$DIMSE1
 70
     0
  9
$DIMSE2
 70
     0
  9
$DIMTAD
 70
     1
  9
$DIMZIN
 70
     8
  9
$DIMBLK
  1
DOT1
  9
$DIMASO
 70
     1
  9
$DIMSHO
 70
     0
  9
$DIMPOST
  1

  9
$DIMAPOST
  1

  9
$DIMALT
 70
     0
  9
$DIMALTD
 70
     2
  9
$DIMALTF
 40
25.399999999999999
  9
$DIMLFAC
 40
1.0
  9
$DIMTOFL
 70
     1
  9
$DIMTVP
 40
0.0
  9
$DIMTIX
 70
     1
  9
$DIMSOXD
 70
     0
  9
$DIMSAH
 70
     1
  9
$DIMBLK1
  1
ORIGIN
  9
$DIMBLK2
  1
ORIGIN
  9
$DIMSTYLE
  2
STANDARD
  9
$DIMCLRD
 70
     0
  9
$DIMCLRE
 70
     0
  9
$DIMCLRT
 70
     0
  9
$DIMTFAC
 40
1.0
  9
$DIMGAP
 40
0.09
  9
$LUNITS
 70
     2
  9
$LUPREC
 70
     4
  9
$SKETCHINC
 40
0.1
  9
$FILLETRAD
 40
4.0
  9
$AUNITS
 70
     1
  9
$AUPREC
 70
     3
  9
$MENU
  1
ACAD
  9
$ELEVATION
 40
0.0
  9
$PELEVATION
 40
0.0
  9
$THICKNESS
 40
50.0
  9
$LIMCHECK
 70
     0
  9
$BLIPMODE
 70
     0
  9
$CHAMFERA
 40
0.0
  9
$CHAMFERB
 40
0.0
  9
$SKPOLY
 70
     0
  9
$TDCREATE
 40
2452321.3961996529
  9
$TDUPDATE
 40
2453780.418413437
  9
$TDINDWG
 40
0.2168428704
  9
$TDUSRTIMER
 40
0.2168426852
  9
$USRTIMER
 70
     1
  9
$ANGBASE
 50
0.0
  9
$ANGDIR
 70
     0
  9
$PDMODE
 70
     3
  9
$PDSIZE
 40
-2.0
  9
$PLINEWID
 40
0.0
  9
$COORDS
 70
     2
  9
$SPLFRAME
 70
     0
  9
$SPLINETYPE
 70
     6
  9
$SPLINESEGS
 70
     8
  9
$ATTDIA
 70
     0
  9
$ATTREQ
 70
     1
  9
$HANDLING
 70
 22529
  9
$HANDSEED
  5
6F6
  9
$SURFTAB1
 70
     6
  9
$SURFTAB2
 70
     6
  9
$SURFTYPE
 70
     6
  9
$SURFU
 70
     6
  9
$SURFV
 70
     6
  9
$UCSNAME
  2

  9
$UCSORG
 10
0.0
 20
0.0
 30
0.0
  9
$UCSXDIR
 10
1.0
 20
0.0
 30
0.0
  9
$UCSYDIR
 10
0.0
 20
1.0
 30
0.0
  9
$PUCSNAME
  2

  9
$PUCSORG
 10
0.0
 20
0.0
 30
0.0
  9
$PUCSXDIR
 10
1.0
 20
0.0
 30
0.0
  9
$PUCSYDIR
 10
0.0
 20
1.0
 30
0.0
  9
$USERI1
 70
     0
  9
$USERI2
 70
     0
  9
$USERI3
 70
     0
  9
$USERI4
 70
     0
  9
$USERI5
 70
     0
  9
$USERR1
 40
20.0
  9
$USERR2
 40
0.0
  9
$USERR3
 40
0.0
  9
$USERR4
 40
0.0
  9
$USERR5
 40
0.0
  9
$WORLDVIEW
 70
     1
  9
$SHADEDGE
 70
     3
  9
$SHADEDIF
 70
    70
  9
$TILEMODE
 70
     1
  9
$MAXACTVP
 70
    64
  9
$PLIMCHECK
 70
     0
  9
$PEXTMIN
 10
1.0000000000000000E+020
 20
1.0000000000000000E+020
 30
1.0000000000000000E+020
  9
$PEXTMAX
 10
-1.0000000000000000E+020
 20
-1.0000000000000000E+020
 30
-1.0000000000000000E+020
  9
$PLIMMIN
 10
0.0
 20
0.0
  9
$PLIMMAX
 10
12.0
 20
9.0
  9
$UNITMODE
 70
     0
  9
$VISRETAIN
 70
     1
  9
$PLINEGEN
 70
     0
  9
$PSLTSCALE
 70
     1
  0
ENDSEC
  0
SECTION
  2
TABLES
  0
TABLE
  2
VPORT
 70
     3
  0
VPORT
  2
*ACTIVE
 70
     0
 10
0.0
 20
0.0
 11
1.0
 21
1.0
 12
114.68295863209271
 22
82.21890671888923
 13
0.0
 23
0.0
 14
1.0
 24
1.0
 15
0.0
 25
0.0
 16
0.0
 26
0.0
 36
1.0
 17
0.0
 27
0.0
 37
0.0
 40
2314.2584063711629
 41
1.447268106734434
 42
50.0
 43
0.0
 44
0.0
 50
0.0
 51
0.0
 71
     0
 72
   100
 73
     1
 74
     0
 75
     0
 76
     0
 77
     0
 78
     0
  0
ENDTAB
  0
TABLE
  2
LTYPE
 70
     4
  0
LTYPE
  2
CONTINUOUS
 70
     0
  3
実線
 72
    65
 73
     0
 40
0.0
  0
LTYPE
  2
DASHDOT
 70
     0
  3
____ _ ____ _ ____ _ ____ _ ____ _ ____ _ ____
 72
    65
 73
     4
 40
5.5
 49
4.0
 49
-0.6
 49
0.3
 49
-0.6
  0
LTYPE
  2
CONTINOUS
 70
     0
  3
Solid line
 72
    65
 73
     0
 40
0.0
  0
LTYPE
  2
DASHED
 70
     0
  3
Dashed __ __ __ __ __ __ __ __ __ __ __ __ __ _
 72
    65
 73
     2
 40
0.75
 49
0.5
 49
-0.25
  0
ENDTAB
  0
TABLE
  2
LAYER
 70
    12
  0
LAYER
  2
0
 70
     0
 62
     7
  6
CONTINUOUS
  0
LAYER
  2
SIZE
 70
     0
 62
    30
  6
CONTINUOUS
  0
LAYER
  2
BASIS
 70
     0
 62
     6
  6
DASHDOT
  0
LAYER
  2
OUTLINE
 70
     0
 62
     3
  6
CONTINUOUS
  0
LAYER
  2
DETAIL
 70
     0
 62
     5
  6
CONTINUOUS
  0
LAYER
  2
ARRANGE
 70
     0
 62
     1
  6
CONTINUOUS
  0
LAYER
  2
DEFPOINTS
 70
     0
 62
     7
  6
CONTINUOUS
  0
LAYER
  2
ETC
 70
     0
 62
    61
  6
CONTINUOUS
  0
LAYER
  2
FIX
 70
     0
 62
    11
  6
CONTINUOUS
  0
LAYER
  2
NOTE
 70
     0
 62
     4
  6
CONTINUOUS
  0
LAYER
  2
SERVICESPACE
 70
     0
 62
     2
  6
DASHDOT
  0
LAYER
  2
SYMBOLLINE
 70
     0
 62
    15
  6
CONTINUOUS
  0
ENDTAB
  0
TABLE
  2
STYLE
 70
     2
  0
STYLE
  2
STANDARD
 70
     0
 40
64.0
 41
0.9
 50
0.0
 71
     0
 42
64.0
  3
SIMPLEX.shx
  4
BIGFONT.shx
  0
STYLE
  2

 70
     1
 40
0.0
 41
1.0
 50
0.0
 71
     0
 42
64.0
  3
ltypeshp.shx
  4

  0
ENDTAB
  0
TABLE
  2
VIEW
 70
     1
  0
VIEW
  2
ALL
 70
     0
 40
4282.6198079999967
 10
0.0
 20
41.309903999999989
 41
5940.0
 11
0.0
 21
0.0
 31
1.0
 12
0.0
 22
0.0
 32
0.0
 42
50.0
 43
0.0
 44
0.0
 50
0.0
 71
     0
  0
ENDTAB
  0
TABLE
  2
UCS
 70
     0
  0
ENDTAB
  0
TABLE
  2
APPID
 70
     1
  0
APPID
  2
ACAD
 70
     0
  0
ENDTAB
  0
TABLE
  2
DIMSTYLE
 70
     1
  0
DIMSTYLE
  2
STANDARD
 70
     0
  3

  4

  5

  6

  7

 40
1.0
 41
0.18
 42
0.0625
 43
0.38
 44
0.18
 45
0.0
 46
0.0
 47
0.0
 48
0.0
140
0.18
141
0.09
142
0.0
143
25.399999999999999
144
1.0
145
0.0
146
1.0
147
0.09
 71
     0
 72
     0
 73
     1
 74
     1
 75
     0
 76
     0
 77
     0
 78
     0
170
     0
171
     2
172
     0
173
     0
174
     0
175
     0
176
     0
177
     0
178
     0
  0
ENDTAB
  0
ENDSEC
  0
SECTION
  2
BLOCKS
  0
BLOCK
  8
0
  2
$MODEL_SPACE
 70
     0
 10
0.0
 20
0.0
 30
0.0
  3
$MODEL_SPACE
  1

  0
ENDBLK
  5
4DA
  8
0
  0
BLOCK
 67
     1
  8
0
  2
$PAPER_SPACE
 70
     0
 10
0.0
 20
0.0
 30
0.0
  3
$PAPER_SPACE
  1

  0
ENDBLK
  5
4D6
 67
     1
  8
0
  0
BLOCK
  8
0
  2
DOT1
 70
     0
 10
0.0
 20
0.0
 30
0.0
  3
DOT1
  1

  0
CIRCLE
  5
4F6
  8
SIZE
  6
CONTINUOUS
 62
     7
 10
0.0
 20
0.0
 30
0.0
 40
3.0
  0
ENDBLK
  5
4F7
  8
0
  0
BLOCK
  8
0
  2
_ORIGIN
 70
     0
 10
0.0
 20
0.0
 30
0.0
  3
_ORIGIN
  1

  0
CIRCLE
  5
4FA
  8
0
  6
CONTINUOUS
 62
     7
 10
0.0
 20
0.0
 30
0.0
 40
0.5
  0
LINE
  5
4FB
  8
0
  6
CONTINUOUS
 62
     7
 10
0.0
 20
0.0
 30
0.0
 11
-1.0
 21
0.0
 31
0.0
  0
ENDBLK
  5
4FC
  8
0
  0
ENDSEC
  0
SECTION
  2
ENTITIES
  0
TEXT
  5
4FD
  8
ETC
  6
CONTINUOUS
 62
    61
 10
499.78298899999999
 20
920.99840999999992
 30
0.0
 40
64.0
  1
VD-15ZY7_1
 41
0.9
  0
TEXT
  5
4FE
  8
ETC
  6
CONTINUOUS
 62
    61
 10
491.86728299999999
 20
802.35434199999986
 30
0.0
 40
64.0
  1
換気扇
 41
0.9
  0
LINE
  5
4FF
  8
BASIS
  6
DASHDOT
 62
     6
 10
-178.363032
 20
0.0
 30
0.0
 11
180.40957299999999
 21
0.0
 31
0.0
  0
LINE
  5
500
  8
BASIS
  6
DASHDOT
 62
     6
 10
0.0
 20
-263.10185399999989
 30
0.0
 11
0.0
 21
198.42837299999991
 31
0.0
  0
LINE
  5
501
  8
DETAIL
  6
CONTINUOUS
 62
     5
 10
-167.0
 20
-152.0
 30
0.0
 11
-167.0
 21
152.0
 31
0.0
  0
LINE
  5
502
  8
DETAIL
  6
CONTINUOUS
 62
     5
 10
-152.0
 20
167.0
 30
0.0
 11
152.0
 21
167.0
 31
0.0
  0
LINE
  5
503
  8
DETAIL
  6
CONTINUOUS
 62
     5
 10
167.0
 20
-152.0
 30
0.0
 11
167.0
 21
152.0
 31
0.0
  0
LINE
  5
504
  8
DETAIL
  6
CONTINUOUS
 62
     5
 10
152.0
 20
-167.0
 30
0.0
 11
63.0
 21
-167.0
 31
0.0
  0
LINE
  5
505
  8
NOTE
  6
CONTINUOUS
 62
     4
 10
105.0
 20
-125.0
 30
0.0
 11
105.0
 21
-85.0
 31
0.0
  0
LINE
  5
506
  8
NOTE
  6
CONTINUOUS
 62
     4
 10
85.0
 20
-105.0
 30
0.0
 11
125.0
 21
-105.0
 31
0.0
  0
LINE
  5
507
  8
DETAIL
  6
CONTINUOUS
 62
     5
 10
-125.5
 20
125.5
 30
0.0
 11
125.5
 21
125.5
 31
0.0
  0
LINE
  5
508
  8
DETAIL
  6
CONTINUOUS
 62
     5
 10
-125.5
 20
-125.5
 30
0.0
 11
125.5
 21
-125.5
 31
0.0
  0
LINE
  5
509
  8
DETAIL
  6
CONTINUOUS
 62
     5
 10
-125.5
 20
-125.5
 30
0.0
 11
-125.5
 21
125.5
 31
0.0
  0
LINE
  5
50A
  8
DETAIL
  6
CONTINUOUS
 62
     5
 10
125.5
 20
-125.5
 30
0.0
 11
125.5
 21
125.5
 31
0.0
  0
LINE
  5
50B
  8
NOTE
  6
CONTINUOUS
 62
     4
 10
105.0
 20
-105.0
 30
0.0
 11
200.53314
 21
-256.66928100000001
 31
0.0
  0
LINE
  5
50C
  8
NOTE
  6
CONTINUOUS
 62
     4
 10
134.6813589999999
 20
-131.814491
 30
0.0
 11
105.0
 21
-105.0
 31
0.0
  0
LINE
  5
50D
  8
NOTE
  6
CONTINUOUS
 62
     4
 10
105.0
 20
-105.0
 30
0.0
 11
117.29756499999991
 21
-143.06271000000001
 31
0.0
  0
TEXT
  5
50E
  8
NOTE
  6
CONTINUOUS
 62
     4
 10
224.16280199999991
 20
-232.417518
 30
0.0
 40
64.0
  1
EL
 41
0.9
  0
LINE
  5
50F
  8
NOTE
  6
CONTINUOUS
 62
     4
 10
200.53314
 20
-256.66928100000001
 30
0.0
 11
319.33855199999999
 21
-256.66928100000001
 31
0.0
  0
LINE
  5
510
  8
NOTE
  6
CONTINUOUS
 62
     4
 10
-118.936967
 20
162.67267799999999
 30
0.0
 11
-85.0
 21
141.5
 31
0.0
  0
LINE
  5
511
  8
NOTE
  6
CONTINUOUS
 62
     4
 10
-85.0
 20
141.5
 30
0.0
 11
-103.80393599999969
 21
176.80456000000001
 31
0.0
  0
CIRCLE
  5
512
  8
FIX
  6
CONTINUOUS
 62
    11
 10
-85.0
 20
141.5
 30
0.0
 40
2.5
  0
CIRCLE
  5
513
  8
FIX
  6
CONTINUOUS
 62
    11
 10
-85.0
 20
141.5
 30
0.0
 40
2.5
  0
CIRCLE
  5
514
  8
FIX
  6
CONTINUOUS
 62
    11
 10
-85.0
 20
141.5
 30
0.0
 40
2.5
  0
CIRCLE
  5
515
  8
FIX
  6
CONTINUOUS
 62
    11
 10
-85.0
 20
141.5
 30
0.0
 40
2.5
  0
LINE
  5
516
  8
NOTE
  6
CONTINUOUS
 62
     4
 10
-85.0
 20
121.5
 30
0.0
 11
-85.0
 21
161.5
 31
0.0
  0
LINE
  5
517
  8
NOTE
  6
CONTINUOUS
 62
     4
 10
-105.0
 20
141.5
 30
0.0
 11
-65.0
 21
141.5
 31
0.0
  0
LINE
  5
518
  8
NOTE
  6
CONTINUOUS
 62
     4
 10
-85.0
 20
141.5
 30
0.0
 11
-228.543364
 21
288.32994400000001
 31
0.0
  0
LINE
  5
519
  8
NOTE
  6
CONTINUOUS
 62
     4
 10
85.0
 20
121.5
 30
0.0
 11
85.0
 21
161.5
 31
0.0
  0
LINE
  5
51A
  8
NOTE
  6
CONTINUOUS
 62
     4
 10
65.0
 20
141.5
 30
0.0
 11
105.0
 21
141.5
 31
0.0
  0
CIRCLE
  5
51B
  8
FIX
  6
CONTINUOUS
 62
    11
 10
-85.0
 20
-141.5
 30
0.0
 40
2.5
  0
CIRCLE
  5
51C
  8
FIX
  6
CONTINUOUS
 62
    11
 10
-85.0
 20
-141.5
 30
0.0
 40
2.5
  0
CIRCLE
  5
51D
  8
FIX
  6
CONTINUOUS
 62
    11
 10
-85.0
 20
-141.5
 30
0.0
 40
2.5
  0
CIRCLE
  5
51E
  8
FIX
  6
CONTINUOUS
 62
    11
 10
-85.0
 20
-141.5
 30
0.0
 40
2.5
  0
LINE
  5
51F
  8
NOTE
  6
CONTINUOUS
 62
     4
 10
-85.0
 20
-121.5
 30
0.0
 11
-85.0
 21
-161.5
 31
0.0
  0
LINE
  5
520
  8
NOTE
  6
CONTINUOUS
 62
     4
 10
-105.0
 20
-141.5
 30
0.0
 11
-65.0
 21
-141.5
 31
0.0
  0
LINE
  5
521
  8
NOTE
  6
CONTINUOUS
 62
     4
 10
85.0
 20
-121.5
 30
0.0
 11
85.0
 21
-161.5
 31
0.0
  0
LINE
  5
522
  8
NOTE
  6
CONTINUOUS
 62
     4
 10
65.0
 20
-141.5
 30
0.0
 11
105.0
 21
-141.5
 31
0.0
  0
CIRCLE
  5
523
  8
FIX
  6
CONTINUOUS
 62
    11
 10
85.0
 20
141.5
 30
0.0
 40
2.5
  0
CIRCLE
  5
524
  8
FIX
  6
CONTINUOUS
 62
    11
 10
85.0
 20
-141.5
 30
0.0
 40
2.5
  0
CIRCLE
  5
525
  8
FIX
  6
CONTINUOUS
 62
    11
 10
141.5
 20
85.0
 30
0.0
 40
2.5
  0
CIRCLE
  5
526
  8
FIX
  6
CONTINUOUS
 62
    11
 10
141.5
 20
85.0
 30
0.0
 40
2.5
  0
LINE
  5
527
  8
NOTE
  6
CONTINUOUS
 62
     4
 10
141.5
 20
65.0
 30
0.0
 11
141.5
 21
105.0
 31
0.0
  0
LINE
  5
528
  8
NOTE
  6
CONTINUOUS
 62
     4
 10
121.5
 20
85.0
 30
0.0
 11
161.5
 21
85.0
 31
0.0
  0
LINE
  5
529
  8
NOTE
  6
CONTINUOUS
 62
     4
 10
141.5
 20
-105.0
 30
0.0
 11
141.5
 21
-65.0
 31
0.0
  0
LINE
  5
52A
  8
NOTE
  6
CONTINUOUS
 62
     4
 10
121.5
 20
-85.0
 30
0.0
 11
161.5
 21
-85.0
 31
0.0
  0
CIRCLE
  5
52B
  8
FIX
  6
CONTINUOUS
 62
    11
 10
141.5
 20
-85.0
 30
0.0
 40
2.5
  0
CIRCLE
  5
52C
  8
FIX
  6
CONTINUOUS
 62
    11
 10
141.5
 20
-85.0
 30
0.0
 40
2.5
  0
LINE
  5
52D
  8
NOTE
  6
CONTINUOUS
 62
     4
 10
-141.5
 20
65.0
 30
0.0
 11
-141.5
 21
105.0
 31
0.0
  0
LINE
  5
52E
  8
NOTE
  6
CONTINUOUS
 62
     4
 10
-121.5
 20
85.0
 30
0.0
 11
-161.5
 21
85.0
 31
0.0
  0
CIRCLE
  5
52F
  8
FIX
  6
CONTINUOUS
 62
    11
 10
-141.5
 20
85.0
 30
0.0
 40
2.5
  0
CIRCLE
  5
530
  8
FIX
  6
CONTINUOUS
 62
    11
 10
-141.5
 20
85.0
 30
0.0
 40
2.5
  0
CIRCLE
  5
531
  8
FIX
  6
CONTINUOUS
 62
    11
 10
-141.5
 20
-85.0
 30
0.0
 40
2.5
  0
CIRCLE
  5
532
  8
FIX
  6
CONTINUOUS
 62
    11
 10
-141.5
 20
-85.0
 30
0.0
 40
2.5
  0
LINE
  5
533
  8
NOTE
  6
CONTINUOUS
 62
     4
 10
-141.5
 20
-105.0
 30
0.0
 11
-141.5
 21
-65.0
 31
0.0
  0
LINE
  5
534
  8
NOTE
  6
CONTINUOUS
 62
     4
 10
-121.5
 20
-85.0
 30
0.0
 11
-161.5
 21
-85.0
 31
0.0
  0
LINE
  5
535
  8
BASIS
  6
DASHDOT
 62
     6
 10
24.0
 20
-77.68976499999998
 30
0.0
 11
24.0
 21
101.5017939999999
 31
0.0
  0
LINE
  5
536
  8
BASIS
  6
DASHDOT
 62
     6
 10
-60.265583999999983
 20
12.0
 30
0.0
 11
108.51525100000001
 21
12.0
 31
0.0
  0
LINE
  5
537
  8
DETAIL
  6
CONTINUOUS
 62
     5
 10
-97.5
 20
-146.5
 30
0.0
 11
-97.5
 21
-138.5
 31
0.0
  0
LINE
  5
538
  8
DETAIL
  6
CONTINUOUS
 62
     5
 10
-112.5
 20
-146.5
 30
0.0
 11
-112.5
 21
-138.5
 31
0.0
  0
ARC
  5
539
  8
DETAIL
  6
CONTINUOUS
 62
     5
 10
-105.0
 20
-139.0
 30
0.0
 40
7.5
 50
3.8225539999999989
 51
176.1774459999998
  0
ARC
  5
53A
  8
DETAIL
  6
CONTINUOUS
 62
     5
 10
-105.0
 20
-146.0
 30
0.0
 40
7.5
 50
183.8225539999998
 51
356.17744599999992
  0
LINE
  5
53B
  8
NOTE
  6
CONTINUOUS
 62
     4
 10
-125.0
 20
-142.5
 30
0.0
 11
-85.0
 21
-142.5
 31
0.0
  0
LINE
  5
53C
  8
NOTE
  6
CONTINUOUS
 62
     4
 10
-105.0
 20
-122.5
 30
0.0
 11
-105.0
 21
-162.5
 31
0.0
  0
LINE
  5
53D
  8
NOTE
  6
CONTINUOUS
 62
     4
 10
-142.5
 20
-125.0
 30
0.0
 11
-142.5
 21
-85.0
 31
0.0
  0
LINE
  5
53E
  8
NOTE
  6
CONTINUOUS
 62
     4
 10
-162.5
 20
-105.0
 30
0.0
 11
-122.5
 21
-105.0
 31
0.0
  0
ARC
  5
53F
  8
DETAIL
  6
CONTINUOUS
 62
     5
 10
-139.0
 20
-105.0
 30
0.0
 40
7.5
 50
273.82255400000003
 51
86.177446000000003
  0
ARC
  5
540
  8
DETAIL
  6
CONTINUOUS
 62
     5
 10
-146.0
 20
-105.0
 30
0.0
 40
7.5
 50
93.822553999999982
 51
266.17744599999992
  0
LINE
  5
541
  8
DETAIL
  6
CONTINUOUS
 62
     5
 10
-138.5
 20
-112.5
 30
0.0
 11
-146.5
 21
-112.5
 31
0.0
  0
LINE
  5
542
  8
DETAIL
  6
CONTINUOUS
 62
     5
 10
-138.5
 20
-97.5
 30
0.0
 11
-146.5
 21
-97.5
 31
0.0
  0
LINE
  5
543
  8
DETAIL
  6
CONTINUOUS
 62
     5
 10
138.5
 20
97.5
 30
0.0
 11
146.5
 21
97.5
 31
0.0
  0
LINE
  5
544
  8
DETAIL
  6
CONTINUOUS
 62
     5
 10
138.5
 20
112.5
 30
0.0
 11
146.5
 21
112.5
 31
0.0
  0
ARC
  5
545
  8
DETAIL
  6
CONTINUOUS
 62
     5
 10
146.0
 20
105.0
 30
0.0
 40
7.5
 50
273.82255400000003
 51
86.177446000000003
  0
ARC
  5
546
  8
DETAIL
  6
CONTINUOUS
 62
     5
 10
139.0
 20
105.0
 30
0.0
 40
7.5
 50
93.822553999999982
 51
266.17744599999992
  0
LINE
  5
547
  8
NOTE
  6
CONTINUOUS
 62
     4
 10
142.5
 20
125.0
 30
0.0
 11
142.5
 21
85.0
 31
0.0
  0
LINE
  5
548
  8
NOTE
  6
CONTINUOUS
 62
     4
 10
162.5
 20
105.0
 30
0.0
 11
122.5
 21
105.0
 31
0.0
  0
ARC
  5
549
  8
DETAIL
  6
CONTINUOUS
 62
     5
 10
105.0
 20
146.0
 30
0.0
 40
7.5
 50
3.8225539999999989
 51
176.1774459999998
  0
ARC
  5
54A
  8
DETAIL
  6
CONTINUOUS
 62
     5
 10
105.0
 20
139.0
 30
0.0
 40
7.5
 50
183.8225539999998
 51
356.17744599999992
  0
LINE
  5
54B
  8
DETAIL
  6
CONTINUOUS
 62
     5
 10
112.5
 20
146.5
 30
0.0
 11
112.5
 21
138.5
 31
0.0
  0
LINE
  5
54C
  8
DETAIL
  6
CONTINUOUS
 62
     5
 10
97.5
 20
146.5
 30
0.0
 11
97.5
 21
138.5
 31
0.0
  0
LINE
  5
54D
  8
NOTE
  6
CONTINUOUS
 62
     4
 10
125.0
 20
142.5
 30
0.0
 11
85.0
 21
142.5
 31
0.0
  0
LINE
  5
54E
  8
NOTE
  6
CONTINUOUS
 62
     4
 10
105.0
 20
122.5
 30
0.0
 11
105.0
 21
162.5
 31
0.0
  0
LINE
  5
54F
  8
DETAIL
  6
CONTINUOUS
 62
     5
 10
117.5
 20
159.49999999999969
 30
0.0
 11
92.5
 21
159.49999999999969
 31
0.0
  0
LINE
  5
550
  8
SIZE
  6
CONTINUOUS
 62
    30
 10
85.0
 20
181.49999999999969
 30
0.0
 11
85.0
 21
549.61790900000005
 31
0.0
  0
LINE
  5
551
  8
SIZE
  6
CONTINUOUS
 62
    30
 10
-85.0
 20
181.49999999999969
 30
0.0
 11
-85.0
 21
549.61790900000005
 31
0.0
  0
LINE
  5
552
  8
SIZE
  6
CONTINUOUS
 62
    30
 10
73.0
 20
529.61790900000005
 30
0.0
 11
-73.0
 21
529.61790900000005
 31
0.0
  0
TEXT
  5
553
  8
SIZE
  6
CONTINUOUS
 62
    30
 10
-68.571428571428569
 20
553.56526799999995
 30
0.0
 40
64.0
  1
170
 41
0.9
 72
     1
 11
0.0
 21
553.56526799999995
 31
0.0
  0
CIRCLE
  5
554
  8
SIZE
  6
CONTINUOUS
 62
    30
 10
85.0
 20
529.61790900000005
 30
0.0
 40
6.0
  0
LINE
  5
555
  8
SIZE
  6
CONTINUOUS
 62
    30
 10
85.0
 20
529.61790900000005
 30
0.0
 11
73.0
 21
529.61790900000005
 31
0.0
  0
CIRCLE
  5
556
  8
SIZE
  6
CONTINUOUS
 62
    30
 10
-85.0
 20
529.61790900000005
 30
0.0
 40
6.0
  0
LINE
  5
557
  8
SIZE
  6
CONTINUOUS
 62
    30
 10
-85.0
 20
529.61790900000005
 30
0.0
 11
-73.0
 21
529.61790900000005
 31
0.0
  0
LINE
  5
558
  8
SIZE
  6
CONTINUOUS
 62
    30
 10
181.49999999999969
 20
85.0
 30
0.0
 11
811.95667999999989
 21
85.0
 31
0.0
  0
LINE
  5
559
  8
SIZE
  6
CONTINUOUS
 62
    30
 10
181.49999999999969
 20
-85.0
 30
0.0
 11
811.95667999999989
 21
-85.0
 31
0.0
  0
LINE
  5
55A
  8
SIZE
  6
CONTINUOUS
 62
    30
 10
791.95668000000001
 20
73.0
 30
0.0
 11
791.95668000000001
 21
-73.0
 31
0.0
  0
TEXT
  5
55B
  8
SIZE
  6
CONTINUOUS
 62
    30
 10
768.76457699999969
 20
-64.851598571428568
 30
0.0
 40
64.0
  1
170
 50
90.0
 41
0.9
 72
     1
 11
768.76457699999969
 21
3.71983
 31
0.0
  0
CIRCLE
  5
55C
  8
SIZE
  6
CONTINUOUS
 62
    30
 10
791.95668000000001
 20
85.0
 30
0.0
 40
6.0
  0
LINE
  5
55D
  8
SIZE
  6
CONTINUOUS
 62
    30
 10
791.95668000000001
 20
85.0
 30
0.0
 11
791.95668000000001
 21
73.0
 31
0.0
  0
CIRCLE
  5
55E
  8
SIZE
  6
CONTINUOUS
 62
    30
 10
791.95668000000001
 20
-85.0
 30
0.0
 40
6.0
  0
LINE
  5
55F
  8
SIZE
  6
CONTINUOUS
 62
    30
 10
791.95668000000001
 20
-85.0
 30
0.0
 11
791.95668000000001
 21
-73.0
 31
0.0
  0
LINE
  5
560
  8
SIZE
  6
CONTINUOUS
 62
    30
 10
125.0
 20
141.5
 30
0.0
 11
961.92900199999985
 21
141.5
 31
0.0
  0
LINE
  5
561
  8
SIZE
  6
CONTINUOUS
 62
    30
 10
125.0
 20
-141.5
 30
0.0
 11
961.92900199999985
 21
-141.5
 31
0.0
  0
LINE
  5
562
  8
SIZE
  6
CONTINUOUS
 62
    30
 10
941.92900199999997
 20
129.49999999999969
 30
0.0
 11
941.92900199999997
 21
-129.49999999999969
 31
0.0
  0
TEXT
  5
563
  8
SIZE
  6
CONTINUOUS
 62
    30
 10
915.61146199999996
 20
-70.337312857142834
 30
0.0
 40
64.0
  1
283
 50
90.0
 41
0.9
 72
     1
 11
915.61146199999996
 21
3.71983
 31
0.0
  0
CIRCLE
  5
564
  8
SIZE
  6
CONTINUOUS
 62
    30
 10
941.92900199999997
 20
141.5
 30
0.0
 40
6.0
  0
LINE
  5
565
  8
SIZE
  6
CONTINUOUS
 62
    30
 10
941.92900199999997
 20
141.5
 30
0.0
 11
941.92900199999997
 21
129.49999999999969
 31
0.0
  0
CIRCLE
  5
566
  8
SIZE
  6
CONTINUOUS
 62
    30
 10
941.92900199999997
 20
-141.5
 30
0.0
 40
6.0
  0
LINE
  5
567
  8
SIZE
  6
CONTINUOUS
 62
    30
 10
941.92900199999997
 20
-141.5
 30
0.0
 11
941.92900199999997
 21
-129.49999999999969
 31
0.0
  0
LINE
  5
568
  8
SIZE
  6
CONTINUOUS
 62
    30
 10
0.0
 20
213.24392399999999
 30
0.0
 11
0.0
 21
370.41415599999999
 31
0.0
  0
LINE
  5
569
  8
SIZE
  6
CONTINUOUS
 62
    30
 10
24.0
 20
122.3173449999999
 30
0.0
 11
24.0
 21
370.41415599999999
 31
0.0
  0
LINE
  5
56A
  8
SIZE
  6
CONTINUOUS
 62
    30
 10
-12.0
 20
350.41415599999982
 30
0.0
 11
-24.0
 21
350.41415599999982
 31
0.0
  0
LINE
  5
56B
  8
SIZE
  6
CONTINUOUS
 62
    30
 10
36.0
 20
350.41415599999982
 30
0.0
 11
48.0
 21
350.41415599999982
 31
0.0
  0
LINE
  5
56C
  8
SIZE
  6
CONTINUOUS
 62
    30
 10
306.10573199999982
 20
350.41415599999982
 30
0.0
 11
24.0
 21
350.41415599999982
 31
0.0
  0
TEXT
  5
56D
  8
SIZE
  6
CONTINUOUS
 62
    30
 10
185.1057319999999
 20
375.41415599999988
 30
0.0
 40
64.0
  1
24
 41
0.9
 72
     1
 11
233.1057319999999
 21
375.41415599999988
 31
0.0
  0
LINE
  5
56E
  8
SIZE
  6
CONTINUOUS
 62
    30
 10
0.0
 20
350.41415599999982
 30
0.0
 11
24.0
 21
350.41415599999982
 31
0.0
  0
LINE
  5
56F
  8
SIZE
  6
CONTINUOUS
 62
    30
 10
0.0
 20
350.41415599999982
 30
0.0
 11
24.0
 21
350.41415599999982
 31
0.0
  0
CIRCLE
  5
570
  8
SIZE
  6
CONTINUOUS
 62
    30
 10
0.0
 20
350.41415599999982
 30
0.0
 40
6.0
  0
LINE
  5
571
  8
SIZE
  6
CONTINUOUS
 62
    30
 10
0.0
 20
350.41415599999982
 30
0.0
 11
-12.0
 21
350.41415599999982
 31
0.0
  0
CIRCLE
  5
572
  8
SIZE
  6
CONTINUOUS
 62
    30
 10
24.0
 20
350.41415599999982
 30
0.0
 40
6.0
  0
LINE
  5
573
  8
SIZE
  6
CONTINUOUS
 62
    30
 10
24.0
 20
350.41415599999982
 30
0.0
 11
36.0
 21
350.41415599999982
 31
0.0
  0
LINE
  5
574
  8
SIZE
  6
CONTINUOUS
 62
    30
 10
643.10218899999995
 20
15.71982999999998
 30
0.0
 11
643.10218899999995
 21
257.19637199999983
 31
0.0
  0
LINE
  5
575
  8
SIZE
  6
CONTINUOUS
 62
    30
 10
97.929214000000002
 20
-398.29927900000001
 30
0.0
 11
330.90716400000002
 21
-398.29927900000001
 31
0.0
  0
LINE
  5
576
  8
SIZE
  6
CONTINUOUS
 62
    30
 10
24.0
 20
350.41415599999982
 30
0.0
 11
300.462401
 21
350.41415599999982
 31
0.0
  0
LINE
  5
577
  8
SIZE
  6
CONTINUOUS
 62
    30
 10
65.5
 20
481.11527099999989
 30
0.0
 11
365.49349899999999
 21
481.11527099999989
 31
0.0
  0
LINE
  5
578
  8
SIZE
  6
CONTINUOUS
 62
    30
 10
643.10218899999995
 20
-100.28017
 30
0.0
 11
643.10218899999995
 21
-324.608
 31
0.0
  0
LINE
  5
579
  8
DETAIL
  6
CONTINUOUS
 62
     5
 10
-152.0
 20
-167.0
 30
0.0
 11
-63.0
 21
-167.0
 31
0.0
  0
CIRCLE
  5
57A
  8
FIX
  6
CONTINUOUS
 62
    11
 10
-105.0
 20
-142.5
 30
0.0
 40
7.5
  0
CIRCLE
  5
57B
  8
FIX
  6
CONTINUOUS
 62
    11
 10
-142.5
 20
-105.0
 30
0.0
 40
7.5
  0
CIRCLE
  5
57C
  8
FIX
  6
CONTINUOUS
 62
    11
 10
105.0
 20
142.5
 30
0.0
 40
7.5
  0
CIRCLE
  5
57D
  8
FIX
  6
CONTINUOUS
 62
    11
 10
142.5
 20
105.0
 30
0.0
 40
7.5
  0
LINE
  5
57E
  8
SIZE
  6
CONTINUOUS
 62
    30
 10
-141.5
 20
125.0
 30
0.0
 11
-141.5
 21
682.39412900000002
 31
0.0
  0
LINE
  5
57F
  8
SIZE
  6
CONTINUOUS
 62
    30
 10
141.5
 20
125.0
 30
0.0
 11
141.5
 21
682.39412900000002
 31
0.0
  0
LINE
  5
580
  8
SIZE
  6
CONTINUOUS
 62
    30
 10
-129.49999999999969
 20
662.39412900000002
 30
0.0
 11
129.49999999999969
 21
662.39412900000002
 31
0.0
  0
TEXT
  5
581
  8
SIZE
  6
CONTINUOUS
 62
    30
 10
-74.057142857142836
 20
686.76843699999995
 30
0.0
 40
64.0
  1
283
 41
0.9
 72
     1
 11
0.0
 21
686.76843699999995
 31
0.0
  0
CIRCLE
  5
582
  8
SIZE
  6
CONTINUOUS
 62
    30
 10
-141.5
 20
662.39412900000002
 30
0.0
 40
6.0
  0
LINE
  5
583
  8
SIZE
  6
CONTINUOUS
 62
    30
 10
-141.5
 20
662.39412900000002
 30
0.0
 11
-129.49999999999969
 21
662.39412900000002
 31
0.0
  0
CIRCLE
  5
584
  8
SIZE
  6
CONTINUOUS
 62
    30
 10
141.5
 20
662.39412900000002
 30
0.0
 40
6.0
  0
LINE
  5
585
  8
SIZE
  6
CONTINUOUS
 62
    30
 10
141.5
 20
662.39412900000002
 30
0.0
 11
129.49999999999969
 21
662.39412900000002
 31
0.0
  0
LINE
  5
586
  8
SIZE
  6
CONTINUOUS
 62
    30
 10
-145.0
 20
-142.5
 30
0.0
 11
-489.453169
 21
-142.5
 31
0.0
  0
LINE
  5
587
  8
SIZE
  6
CONTINUOUS
 62
    30
 10
65.0
 20
142.5
 30
0.0
 11
-489.453169
 21
142.5
 31
0.0
  0
LINE
  5
588
  8
SIZE
  6
CONTINUOUS
 62
    30
 10
-469.453169
 20
-130.49999999999969
 30
0.0
 11
-469.453169
 21
130.49999999999969
 31
0.0
  0
TEXT
  5
589
  8
SIZE
  6
CONTINUOUS
 62
    30
 10
-494.72781299999991
 20
-81.231271857142815
 30
0.0
 40
64.0
  1
285
 50
90.0
 41
0.9
 72
     1
 11
-494.72781299999991
 21
-7.1741289999999971
 31
0.0
  0
CIRCLE
  5
58A
  8
SIZE
  6
CONTINUOUS
 62
    30
 10
-469.453169
 20
-142.5
 30
0.0
 40
6.0
  0
LINE
  5
58B
  8
SIZE
  6
CONTINUOUS
 62
    30
 10
-469.453169
 20
-142.5
 30
0.0
 11
-469.453169
 21
-130.49999999999969
 31
0.0
  0
CIRCLE
  5
58C
  8
SIZE
  6
CONTINUOUS
 62
    30
 10
-469.453169
 20
142.5
 30
0.0
 40
6.0
  0
LINE
  5
58D
  8
SIZE
  6
CONTINUOUS
 62
    30
 10
-469.453169
 20
142.5
 30
0.0
 11
-469.453169
 21
130.49999999999969
 31
0.0
  0
LINE
  5
58E
  8
SIZE
  6
CONTINUOUS
 62
    30
 10
-182.5
 20
-105.0
 30
0.0
 11
-371.90527099999991
 21
-105.0
 31
0.0
  0
LINE
  5
58F
  8
SIZE
  6
CONTINUOUS
 62
    30
 10
102.4999999999999
 20
105.0
 30
0.0
 11
-371.90527099999991
 21
105.0
 31
0.0
  0
LINE
  5
590
  8
SIZE
  6
CONTINUOUS
 62
    30
 10
-351.90527099999991
 20
-93.0
 30
0.0
 11
-351.90527099999991
 21
93.0
 31
0.0
  0
TEXT
  5
591
  8
SIZE
  6
CONTINUOUS
 62
    30
 10
-379.01191599999993
 20
-68.571428571428555
 30
0.0
 40
64.0
  1
210
 50
90.0
 41
0.9
 72
     1
 11
-379.01191599999993
 21
0.0
 31
0.0
  0
CIRCLE
  5
592
  8
SIZE
  6
CONTINUOUS
 62
    30
 10
-351.90527099999991
 20
-105.0
 30
0.0
 40
6.0
  0
LINE
  5
593
  8
SIZE
  6
CONTINUOUS
 62
    30
 10
-351.90527099999991
 20
-105.0
 30
0.0
 11
-351.90527099999991
 21
-93.0
 31
0.0
  0
CIRCLE
  5
594
  8
SIZE
  6
CONTINUOUS
 62
    30
 10
-351.90527099999991
 20
105.0
 30
0.0
 40
6.0
  0
LINE
  5
595
  8
SIZE
  6
CONTINUOUS
 62
    30
 10
-351.90527099999991
 20
105.0
 30
0.0
 11
-351.90527099999991
 21
93.0
 31
0.0
  0
LINE
  5
596
  8
SIZE
  6
CONTINUOUS
 62
    30
 10
-105.0
 20
-182.5
 30
0.0
 11
-105.0
 21
-817.31072099999972
 31
0.0
  0
LINE
  5
597
  8
SIZE
  6
CONTINUOUS
 62
    30
 10
105.0
 20
102.4999999999999
 30
0.0
 11
105.0
 21
-817.31072099999972
 31
0.0
  0
LINE
  5
598
  8
SIZE
  6
CONTINUOUS
 62
    30
 10
-93.0
 20
-797.31072099999983
 30
0.0
 11
93.0
 21
-797.31072099999983
 31
0.0
  0
TEXT
  5
599
  8
SIZE
  6
CONTINUOUS
 62
    30
 10
-68.571428571428555
 20
-772.92657999999983
 30
0.0
 40
64.0
  1
210
 41
0.9
 72
     1
 11
0.0
 21
-772.92657999999983
 31
0.0
  0
CIRCLE
  5
59A
  8
SIZE
  6
CONTINUOUS
 62
    30
 10
-105.0
 20
-797.31072099999983
 30
0.0
 40
6.0
  0
LINE
  5
59B
  8
SIZE
  6
CONTINUOUS
 62
    30
 10
-105.0
 20
-797.31072099999983
 30
0.0
 11
-93.0
 21
-797.31072099999983
 31
0.0
  0
CIRCLE
  5
59C
  8
SIZE
  6
CONTINUOUS
 62
    30
 10
105.0
 20
-797.31072099999983
 30
0.0
 40
6.0
  0
LINE
  5
59D
  8
SIZE
  6
CONTINUOUS
 62
    30
 10
105.0
 20
-797.31072099999983
 30
0.0
 11
93.0
 21
-797.31072099999983
 31
0.0
  0
LINE
  5
59E
  8
SIZE
  6
CONTINUOUS
 62
    30
 10
142.5
 20
65.0
 30
0.0
 11
142.5
 21
-947.96194299999991
 31
0.0
  0
LINE
  5
59F
  8
SIZE
  6
CONTINUOUS
 62
    30
 10
-142.5
 20
-145.0
 30
0.0
 11
-142.5
 21
-947.96194299999991
 31
0.0
  0
LINE
  5
5A0
  8
SIZE
  6
CONTINUOUS
 62
    30
 10
130.49999999999969
 20
-927.96194300000002
 30
0.0
 11
-130.49999999999969
 21
-927.96194300000002
 31
0.0
  0
CIRCLE
  5
5A1
  8
SIZE
  6
CONTINUOUS
 62
    30
 10
142.5
 20
-927.96194300000002
 30
0.0
 40
6.0
  0
LINE
  5
5A2
  8
SIZE
  6
CONTINUOUS
 62
    30
 10
142.5
 20
-927.96194300000002
 30
0.0
 11
130.49999999999969
 21
-927.96194300000002
 31
0.0
  0
CIRCLE
  5
5A3
  8
SIZE
  6
CONTINUOUS
 62
    30
 10
-142.5
 20
-927.96194300000002
 30
0.0
 40
6.0
  0
LINE
  5
5A4
  8
SIZE
  6
CONTINUOUS
 62
    30
 10
-142.5
 20
-927.96194300000002
 30
0.0
 11
-130.49999999999969
 21
-927.96194300000002
 31
0.0
  0
TEXT
  5
5A5
  8
SIZE
  6
CONTINUOUS
 62
    30
 10
-74.057142857142821
 20
-902.96194300000002
 30
0.0
 40
64.0
  1
285
 41
0.9
 72
     1
 11
0.0
 21
-902.96194300000002
 31
0.0
  0
LINE
  5
5A6
  8
NOTE
  6
CONTINUOUS
 62
     4
 10
142.49907300000001
 20
104.95696100000001
 30
0.0
 11
485.89171299999998
 21
319.82216899999997
 31
0.0
  0
LINE
  5
5A7
  8
NOTE
  6
CONTINUOUS
 62
     4
 10
170.44577499999991
 20
133.57481899999991
 30
0.0
 11
142.49907300000001
 21
104.95696100000001
 31
0.0
  0
LINE
  5
5A8
  8
NOTE
  6
CONTINUOUS
 62
     4
 10
142.49907300000001
 20
104.95696100000001
 30
0.0
 11
181.01055700000001
 21
115.7674019999999
 31
0.0
  0
LINE
  5
5A9
  8
SIZE
  6
CONTINUOUS
 62
    30
 10
200.40957299999991
 20
0.0
 30
0.0
 11
663.10218899999995
 21
0.0
 31
0.0
  0
LINE
  5
5AA
  8
SIZE
  6
CONTINUOUS
 62
    30
 10
128.51525100000001
 20
12.0
 30
0.0
 11
663.10218899999995
 21
12.0
 31
0.0
  0
LINE
  5
5AB
  8
SIZE
  6
CONTINUOUS
 62
    30
 10
643.10218899999995
 20
-12.0
 30
0.0
 11
643.10218899999995
 21
-24.0
 31
0.0
  0
LINE
  5
5AC
  8
SIZE
  6
CONTINUOUS
 62
    30
 10
643.10218899999995
 20
24.0
 30
0.0
 11
643.10218899999995
 21
36.0
 31
0.0
  0
LINE
  5
5AD
  8
SIZE
  6
CONTINUOUS
 62
    30
 10
643.10218899999995
 20
274.94552299999992
 30
0.0
 11
643.10218899999995
 21
12.0
 31
0.0
  0
TEXT
  5
5AE
  8
SIZE
  6
CONTINUOUS
 62
    30
 10
618.10218899999995
 20
167.65980885714271
 30
0.0
 40
64.0
  1
12
 50
90.0
 41
0.9
 72
     1
 11
618.10218899999995
 21
208.8026659999999
 31
0.0
  0
LINE
  5
5AF
  8
SIZE
  6
CONTINUOUS
 62
    30
 10
643.10218899999995
 20
0.0
 30
0.0
 11
643.10218899999995
 21
12.0
 31
0.0
  0
LINE
  5
5B0
  8
SIZE
  6
CONTINUOUS
 62
    30
 10
643.10218899999995
 20
0.0
 30
0.0
 11
643.10218899999995
 21
12.0
 31
0.0
  0
CIRCLE
  5
5B1
  8
SIZE
  6
CONTINUOUS
 62
    30
 10
643.10218899999995
 20
0.0
 30
0.0
 40
6.0
  0
LINE
  5
5B2
  8
SIZE
  6
CONTINUOUS
 62
    30
 10
643.10218899999995
 20
0.0
 30
0.0
 11
643.10218899999995
 21
-12.0
 31
0.0
  0
CIRCLE
  5
5B3
  8
SIZE
  6
CONTINUOUS
 62
    30
 10
643.10218899999995
 20
12.0
 30
0.0
 40
6.0
  0
LINE
  5
5B4
  8
SIZE
  6
CONTINUOUS
 62
    30
 10
643.10218899999995
 20
12.0
 30
0.0
 11
643.10218899999995
 21
24.0
 31
0.0
  0
LINE
  5
5B5
  8
SIZE
  6
CONTINUOUS
 62
    30
 10
-145.5
 20
125.5
 30
0.0
 11
-615.95736299999965
 21
125.5
 31
0.0
  0
LINE
  5
5B6
  8
SIZE
  6
CONTINUOUS
 62
    30
 10
-145.0
 20
-125.5
 30
0.0
 11
-615.95736299999965
 21
-125.5
 31
0.0
  0
LINE
  5
5B7
  8
SIZE
  6
CONTINUOUS
 62
    30
 10
-595.95736299999999
 20
113.5
 30
0.0
 11
-595.95736299999999
 21
-113.5
 31
0.0
  0
TEXT
  5
5B8
  8
SIZE
  6
CONTINUOUS
 62
    30
 10
-620.5942110000002
 20
-98.194285714285741
 30
0.0
 40
64.0
  1
□251
 50
90.0
 41
0.9
 72
     1
 11
-620.5942110000002
 21
0.0
 31
0.0
  0
CIRCLE
  5
5B9
  8
SIZE
  6
CONTINUOUS
 62
    30
 10
-595.95736299999999
 20
125.5
 30
0.0
 40
6.0
  0
LINE
  5
5BA
  8
SIZE
  6
CONTINUOUS
 62
    30
 10
-595.95736299999999
 20
125.5
 30
0.0
 11
-595.95736299999999
 21
113.5
 31
0.0
  0
CIRCLE
  5
5BB
  8
SIZE
  6
CONTINUOUS
 62
    30
 10
-595.95736299999999
 20
-125.5
 30
0.0
 40
6.0
  0
LINE
  5
5BC
  8
SIZE
  6
CONTINUOUS
 62
    30
 10
-595.95736299999999
 20
-125.5
 30
0.0
 11
-595.95736299999999
 21
-113.5
 31
0.0
  0
LINE
  5
5BD
  8
DETAIL
  6
CONTINOUS
 62
     5
 10
-63.0
 20
-175.5
 30
0.0
 11
-63.0
 21
-128.4999999999998
 31
0.0
  0
LINE
  5
5BE
  8
DETAIL
  6
CONTINUOUS
 62
     5
 10
-63.0
 20
-175.5
 30
0.0
 11
-52.5
 21
-187.5
 31
0.0
  0
LINE
  5
5BF
  8
DETAIL
  6
CONTINOUS
 62
     5
 10
52.5
 20
-187.5
 30
0.0
 11
-52.5
 21
-187.5
 31
0.0
  0
LINE
  5
5C0
  8
DETAIL
  6
CONTINOUS
 62
     5
 10
63.0
 20
-175.5
 30
0.0
 11
63.0
 21
-128.4999999999998
 31
0.0
  0
LINE
  5
5C1
  8
DETAIL
  6
CONTINOUS
 62
     5
 10
52.5
 20
-212.5
 30
0.0
 11
-52.5
 21
-212.5
 31
0.0
  0
LINE
  5
5C2
  8
DETAIL
  6
CONTINOUS
 62
     5
 10
-49.0
 20
-239.5
 30
0.0
 11
-49.0
 21
-212.5
 31
0.0
  0
LINE
  5
5C3
  8
DETAIL
  6
CONTINUOUS
 62
     5
 10
-52.5
 20
-212.5
 30
0.0
 11
-52.5
 21
-187.5
 31
0.0
  0
LINE
  5
5C4
  8
DETAIL
  6
CONTINUOUS
 62
     5
 10
52.5
 20
-212.5
 30
0.0
 11
52.5
 21
-187.5
 31
0.0
  0
LINE
  5
5C5
  8
DETAIL
  6
CONTINOUS
 62
     5
 10
49.0
 20
-239.5
 30
0.0
 11
49.0
 21
-212.5
 31
0.0
  0
LINE
  5
5C6
  8
DETAIL
  6
CONTINOUS
 62
     5
 10
-70.0
 20
-128.4999999999998
 30
0.0
 11
-70.0
 21
-125.5
 31
0.0
  0
LINE
  5
5C7
  8
DETAIL
  6
CONTINOUS
 62
     5
 10
70.0
 20
-128.4999999999998
 30
0.0
 11
70.0
 21
-125.5
 31
0.0
  0
LINE
  5
5C8
  8
DETAIL
  6
CONTINUOUS
 62
     5
 10
70.0
 20
-128.4999999999998
 30
0.0
 11
-70.0
 21
-128.4999999999998
 31
0.0
  0
LINE
  5
5C9
  8
DETAIL
  6
CONTINUOUS
 62
     5
 10
63.0
 20
-129.49999999999969
 30
0.0
 11
63.0
 21
-131.49999999999969
 31
0.0
  0
LINE
  5
5CA
  8
DETAIL
  6
CONTINUOUS
 62
     5
 10
-63.0
 20
-129.49999999999969
 30
0.0
 11
-63.0
 21
-131.49999999999969
 31
0.0
  0
LINE
  5
5CB
  8
SIZE
  6
CONTINUOUS
 62
    30
 10
49.0
 20
-259.5
 30
0.0
 11
49.0
 21
-544.38933799999995
 31
0.0
  0
LINE
  5
5CC
  8
SIZE
  6
CONTINUOUS
 62
    30
 10
-49.0
 20
-259.5
 30
0.0
 11
-49.0
 21
-544.38933799999995
 31
0.0
  0
LINE
  5
5CD
  8
SIZE
  6
CONTINUOUS
 62
    30
 10
37.0
 20
-524.38933799999995
 30
0.0
 11
-37.0
 21
-524.38933799999995
 31
0.0
  0
LINE
  5
5CE
  8
SIZE
  6
CONTINUOUS
 62
    30
 10
338.99601399999989
 20
-524.38933799999995
 30
0.0
 11
49.0
 21
-524.38933799999995
 31
0.0
  0
TEXT
  5
5CF
  8
SIZE
  6
CONTINUOUS
 62
    30
 10
151.61887157142851
 20
-499.38933800000001
 30
0.0
 40
64.0
  1
φ98
 41
0.9
 72
     1
 11
238.567443
 21
-499.38933800000001
 31
0.0
  0
CIRCLE
  5
5D0
  8
SIZE
  6
CONTINUOUS
 62
    30
 10
49.0
 20
-524.38933799999995
 30
0.0
 40
6.0
  0
LINE
  5
5D1
  8
SIZE
  6
CONTINUOUS
 62
    30
 10
49.0
 20
-524.38933799999995
 30
0.0
 11
37.0
 21
-524.38933799999995
 31
0.0
  0
CIRCLE
  5
5D2
  8
SIZE
  6
CONTINUOUS
 62
    30
 10
-49.0
 20
-524.38933799999995
 30
0.0
 40
6.0
  0
LINE
  5
5D3
  8
SIZE
  6
CONTINUOUS
 62
    30
 10
-49.0
 20
-524.38933799999995
 30
0.0
 11
-37.0
 21
-524.38933799999995
 31
0.0
  0
LINE
  5
5D4
  8
SIZE
  6
CONTINUOUS
 62
    30
 10
52.5
 20
-232.5
 30
0.0
 11
52.5
 21
-671.8696819999999
 31
0.0
  0
LINE
  5
5D5
  8
SIZE
  6
CONTINUOUS
 62
    30
 10
-52.5
 20
-232.5
 30
0.0
 11
-52.5
 21
-671.8696819999999
 31
0.0
  0
LINE
  5
5D6
  8
SIZE
  6
CONTINUOUS
 62
    30
 10
40.499999999999993
 20
-651.86968200000001
 30
0.0
 11
-40.499999999999993
 21
-651.86968200000001
 31
0.0
  0
LINE
  5
5D7
  8
SIZE
  6
CONTINUOUS
 62
    30
 10
380.63083799999993
 20
-651.86968200000001
 30
0.0
 11
52.5
 21
-651.86968200000001
 31
0.0
  0
TEXT
  5
5D8
  8
SIZE
  6
CONTINUOUS
 62
    30
 10
149.3679804285714
 20
-626.86968200000001
 30
0.0
 40
64.0
  1
φ105
 41
0.9
 72
     1
 11
258.25940900000001
 21
-626.86968200000001
 31
0.0
  0
CIRCLE
  5
5D9
  8
SIZE
  6
CONTINUOUS
 62
    30
 10
52.5
 20
-651.86968200000001
 30
0.0
 40
6.0
  0
LINE
  5
5DA
  8
SIZE
  6
CONTINUOUS
 62
    30
 10
52.5
 20
-651.86968200000001
 30
0.0
 11
40.499999999999993
 21
-651.86968200000001
 31
0.0
  0
CIRCLE
  5
5DB
  8
SIZE
  6
CONTINUOUS
 62
    30
 10
-52.5
 20
-651.86968200000001
 30
0.0
 40
6.0
  0
LINE
  5
5DC
  8
SIZE
  6
CONTINUOUS
 62
    30
 10
-52.5
 20
-651.86968200000001
 30
0.0
 11
-40.499999999999993
 21
-651.86968200000001
 31
0.0
  0
TEXT
  5
5DD
  8
NOTE
  6
CONTINUOUS
 62
     4
 10
-43.163888999999983
 20
-361.90829500000001
 30
0.0
 40
64.0
  1
EA
 41
0.9
  0
LINE
  5
5DE
  8
SIZE
  6
CONTINUOUS
 62
    30
 10
-69.0
 20
-239.5
 30
0.0
 11
-367.83992000000001
 21
-239.5
 31
0.0
  0
LINE
  5
5DF
  8
SIZE
  6
CONTINUOUS
 62
    30
 10
-72.5
 20
-212.5
 30
0.0
 11
-367.83992000000001
 21
-212.5
 31
0.0
  0
LINE
  5
5E0
  8
SIZE
  6
CONTINUOUS
 62
    30
 10
-347.83992000000001
 20
-251.5
 30
0.0
 11
-347.83992000000001
 21
-263.5
 31
0.0
  0
LINE
  5
5E1
  8
SIZE
  6
CONTINUOUS
 62
    30
 10
-347.83992000000001
 20
-200.49999999999989
 30
0.0
 11
-347.83992000000001
 21
-188.4999999999998
 31
0.0
  0
TEXT
  5
5E2
  8
SIZE
  6
CONTINUOUS
 62
    30
 10
-372.92159500000002
 20
-364.87502642857129
 30
0.0
 40
64.0
  1
27
 50
90.0
 41
0.9
 72
     1
 11
-372.92159500000002
 21
-318.24645499999991
 31
0.0
  0
LINE
  5
5E3
  8
SIZE
  6
CONTINUOUS
 62
    30
 10
-347.83992000000001
 20
-239.5
 30
0.0
 11
-347.83992000000001
 21
-212.5
 31
0.0
  0
LINE
  5
5E4
  8
SIZE
  6
CONTINUOUS
 62
    30
 10
-347.83992000000001
 20
-239.5
 30
0.0
 11
-347.83992000000001
 21
-212.5
 31
0.0
  0
CIRCLE
  5
5E5
  8
SIZE
  6
CONTINUOUS
 62
    30
 10
-347.83992000000001
 20
-239.5
 30
0.0
 40
6.0
  0
LINE
  5
5E6
  8
SIZE
  6
CONTINUOUS
 62
    30
 10
-347.83992000000001
 20
-239.5
 30
0.0
 11
-347.83992000000001
 21
-251.5
 31
0.0
  0
CIRCLE
  5
5E7
  8
SIZE
  6
CONTINUOUS
 62
    30
 10
-347.83992000000001
 20
-212.5
 30
0.0
 40
6.0
  0
LINE
  5
5E8
  8
SIZE
  6
CONTINUOUS
 62
    30
 10
-347.83992000000001
 20
-212.5
 30
0.0
 11
-347.83992000000001
 21
-200.49999999999989
 31
0.0
  0
LINE
  5
5E9
  8
SIZE
  6
CONTINUOUS
 62
    30
 10
-347.83992000000001
 20
-246.09011199999989
 30
0.0
 11
-347.83992000000001
 21
-374.93256999999988
 31
0.0
  0
LINE
  5
5EA
  8
SIZE
  6
CONTINUOUS
 62
    30
 10
-469.24945000000002
 20
-246.09011199999989
 30
0.0
 11
-469.24945000000002
 21
-374.93256999999988
 31
0.0
  0
LINE
  5
5EB
  8
SIZE
  6
CONTINUOUS
 62
    30
 10
-69.0
 20
-239.5
 30
0.0
 11
-489.24945000000002
 21
-239.5
 31
0.0
  0
LINE
  5
5EC
  8
SIZE
  6
CONTINUOUS
 62
    30
 10
-72.5
 20
-187.5
 30
0.0
 11
-489.24945000000002
 21
-187.5
 31
0.0
  0
LINE
  5
5ED
  8
SIZE
  6
CONTINUOUS
 62
    30
 10
-469.24945000000002
 20
-251.5
 30
0.0
 11
-469.24945000000002
 21
-263.5
 31
0.0
  0
TEXT
  5
5EE
  8
SIZE
  6
CONTINUOUS
 62
    30
 10
-494.72781299999991
 20
-372.2914704285713
 30
0.0
 40
64.0
  1
52
 50
90.0
 41
0.9
 72
     1
 11
-494.72781299999991
 21
-325.66289899999992
 31
0.0
  0
LINE
  5
5EF
  8
SIZE
  6
CONTINUOUS
 62
    30
 10
-469.24945000000002
 20
-239.5
 30
0.0
 11
-469.24945000000002
 21
-187.5
 31
0.0
  0
LINE
  5
5F0
  8
SIZE
  6
CONTINUOUS
 62
    30
 10
-469.24945000000002
 20
-239.5
 30
0.0
 11
-469.24945000000002
 21
-187.5
 31
0.0
  0
CIRCLE
  5
5F1
  8
SIZE
  6
CONTINUOUS
 62
    30
 10
-469.24945000000002
 20
-239.5
 30
0.0
 40
6.0
  0
LINE
  5
5F2
  8
SIZE
  6
CONTINUOUS
 62
    30
 10
-469.24945000000002
 20
-239.5
 30
0.0
 11
-469.24945000000002
 21
-251.5
 31
0.0
  0
CIRCLE
  5
5F3
  8
SIZE
  6
CONTINUOUS
 62
    30
 10
-469.24945000000002
 20
-187.5
 30
0.0
 40
6.0
  0
LINE
  5
5F4
  8
SIZE
  6
CONTINUOUS
 62
    30
 10
-595.95736299999999
 20
-248.4999999999998
 30
0.0
 11
-595.95736299999999
 21
-400.42055199999999
 31
0.0
  0
LINE
  5
5F5
  8
SIZE
  6
CONTINUOUS
 62
    30
 10
-69.0
 20
-239.5
 30
0.0
 11
-615.95736299999965
 21
-239.5
 31
0.0
  0
LINE
  5
5F6
  8
SIZE
  6
CONTINUOUS
 62
    30
 10
-83.0
 20
-125.5
 30
0.0
 11
-615.95736299999965
 21
-125.5
 31
0.0
  0
LINE
  5
5F7
  8
SIZE
  6
CONTINUOUS
 62
    30
 10
-595.95736299999999
 20
-227.49999999999989
 30
0.0
 11
-595.95736299999999
 21
-137.5
 31
0.0
  0
TEXT
  5
5F8
  8
SIZE
  6
CONTINUOUS
 62
    30
 10
-620.5942110000002
 20
-390.29812685714279
 30
0.0
 40
64.0
  1
114
 50
90.0
 41
0.9
 72
     1
 11
-620.5942110000002
 21
-325.84098399999999
 31
0.0
  0
CIRCLE
  5
5F9
  8
SIZE
  6
CONTINUOUS
 62
    30
 10
-595.95736299999999
 20
-239.5
 30
0.0
 40
6.0
  0
LINE
  5
5FA
  8
SIZE
  6
CONTINUOUS
 62
    30
 10
-595.95736299999999
 20
-239.5
 30
0.0
 11
-595.95736299999999
 21
-227.49999999999989
 31
0.0
  0
CIRCLE
  5
5FB
  8
SIZE
  6
CONTINUOUS
 62
    30
 10
-595.95736299999999
 20
-125.5
 30
0.0
 40
6.0
  0
LINE
  5
5FC
  8
SIZE
  6
CONTINUOUS
 62
    30
 10
-595.95736299999999
 20
-125.5
 30
0.0
 11
-595.95736299999999
 21
-137.5
 31
0.0
  0
LINE
  5
5FD
  8
DETAIL
  6
CONTINUOUS
 62
     5
 10
63.0
 20
-175.5
 30
0.0
 11
52.5
 21
-187.5
 31
0.0
  0
ARC
  5
5FE
  8
DETAIL
  6
CONTINUOUS
 62
     5
 10
85.0
 20
140.0
 30
0.0
 40
2.5
 50
180.0
 51
0.0
  0
ARC
  5
5FF
  8
DETAIL
  6
CONTINUOUS
 62
     5
 10
85.0
 20
143.0
 30
0.0
 40
2.5
 50
0.0
 51
180.0
  0
LINE
  5
600
  8
DETAIL
  6
CONTINUOUS
 62
     5
 10
82.5
 20
140.0
 30
0.0
 11
82.5
 21
143.0
 31
0.0
  0
LINE
  5
601
  8
DETAIL
  6
CONTINUOUS
 62
     5
 10
87.5
 20
140.0
 30
0.0
 11
87.5
 21
143.0
 31
0.0
  0
LINE
  5
602
  8
DETAIL
  6
CONTINUOUS
 62
     5
 10
-82.5
 20
140.0
 30
0.0
 11
-82.5
 21
143.0
 31
0.0
  0
LINE
  5
603
  8
DETAIL
  6
CONTINUOUS
 62
     5
 10
-87.5
 20
140.0
 30
0.0
 11
-87.5
 21
143.0
 31
0.0
  0
ARC
  5
604
  8
DETAIL
  6
CONTINUOUS
 62
     5
 10
-85.0
 20
143.0
 30
0.0
 40
2.5
 50
0.0
 51
180.0
  0
ARC
  5
605
  8
DETAIL
  6
CONTINUOUS
 62
     5
 10
-85.0
 20
140.0
 30
0.0
 40
2.5
 50
180.0
 51
0.0
  0
ARC
  5
606
  8
DETAIL
  6
CONTINUOUS
 62
     5
 10
140.0
 20
85.0
 30
0.0
 40
2.5
 50
90.0
 51
270.0
  0
ARC
  5
607
  8
DETAIL
  6
CONTINUOUS
 62
     5
 10
143.0
 20
85.0
 30
0.0
 40
2.5
 50
270.0
 51
90.0
  0
LINE
  5
608
  8
DETAIL
  6
CONTINUOUS
 62
     5
 10
140.0
 20
87.5
 30
0.0
 11
143.0
 21
87.5
 31
0.0
  0
LINE
  5
609
  8
DETAIL
  6
CONTINUOUS
 62
     5
 10
140.0
 20
82.5
 30
0.0
 11
143.0
 21
82.5
 31
0.0
  0
ARC
  5
60A
  8
DETAIL
  6
CONTINUOUS
 62
     5
 10
143.0
 20
-85.0
 30
0.0
 40
2.5
 50
270.0
 51
90.0
  0
ARC
  5
60B
  8
DETAIL
  6
CONTINUOUS
 62
     5
 10
140.0
 20
-85.0
 30
0.0
 40
2.5
 50
90.0
 51
270.0
  0
LINE
  5
60C
  8
DETAIL
  6
CONTINUOUS
 62
     5
 10
143.0
 20
-87.5
 30
0.0
 11
140.0
 21
-87.5
 31
0.0
  0
LINE
  5
60D
  8
DETAIL
  6
CONTINUOUS
 62
     5
 10
143.0
 20
-82.5
 30
0.0
 11
140.0
 21
-82.5
 31
0.0
  0
ARC
  5
60E
  8
DETAIL
  6
CONTINUOUS
 62
     5
 10
-85.0
 20
-140.0
 30
0.0
 40
2.5
 50
0.0
 51
180.0
  0
ARC
  5
60F
  8
DETAIL
  6
CONTINUOUS
 62
     5
 10
-85.0
 20
-143.0
 30
0.0
 40
2.5
 50
180.0
 51
0.0
  0
LINE
  5
610
  8
DETAIL
  6
CONTINUOUS
 62
     5
 10
-87.5
 20
-140.0
 30
0.0
 11
-87.5
 21
-143.0
 31
0.0
  0
LINE
  5
611
  8
DETAIL
  6
CONTINUOUS
 62
     5
 10
-82.5
 20
-140.0
 30
0.0
 11
-82.5
 21
-143.0
 31
0.0
  0
LINE
  5
612
  8
DETAIL
  6
CONTINUOUS
 62
     5
 10
87.5
 20
-140.0
 30
0.0
 11
87.5
 21
-143.0
 31
0.0
  0
LINE
  5
613
  8
DETAIL
  6
CONTINUOUS
 62
     5
 10
82.5
 20
-140.0
 30
0.0
 11
82.5
 21
-143.0
 31
0.0
  0
ARC
  5
614
  8
DETAIL
  6
CONTINUOUS
 62
     5
 10
85.0
 20
-143.0
 30
0.0
 40
2.5
 50
180.0
 51
0.0
  0
ARC
  5
615
  8
DETAIL
  6
CONTINUOUS
 62
     5
 10
85.0
 20
-140.0
 30
0.0
 40
2.5
 50
0.0
 51
180.0
  0
LINE
  5
616
  8
DETAIL
  6
CONTINUOUS
 62
     5
 10
-140.0
 20
82.5
 30
0.0
 11
-143.0
 21
82.5
 31
0.0
  0
LINE
  5
617
  8
DETAIL
  6
CONTINUOUS
 62
     5
 10
-140.0
 20
87.5
 30
0.0
 11
-143.0
 21
87.5
 31
0.0
  0
ARC
  5
618
  8
DETAIL
  6
CONTINUOUS
 62
     5
 10
-143.0
 20
85.0
 30
0.0
 40
2.5
 50
90.0
 51
270.0
  0
ARC
  5
619
  8
DETAIL
  6
CONTINUOUS
 62
     5
 10
-140.0
 20
85.0
 30
0.0
 40
2.5
 50
270.0
 51
90.0
  0
LINE
  5
61A
  8
DETAIL
  6
CONTINUOUS
 62
     5
 10
-143.0
 20
-82.5
 30
0.0
 11
-140.0
 21
-82.5
 31
0.0
  0
LINE
  5
61B
  8
DETAIL
  6
CONTINUOUS
 62
     5
 10
-143.0
 20
-87.5
 30
0.0
 11
-140.0
 21
-87.5
 31
0.0
  0
ARC
  5
61C
  8
DETAIL
  6
CONTINUOUS
 62
     5
 10
-140.0
 20
-85.0
 30
0.0
 40
2.5
 50
270.0
 51
90.0
  0
ARC
  5
61D
  8
DETAIL
  6
CONTINUOUS
 62
     5
 10
-143.0
 20
-85.0
 30
0.0
 40
2.5
 50
90.0
 51
270.0
  0
LINE
  5
61E
  8
SIZE
  6
CONTINUOUS
 62
    30
 10
105.0
 20
82.5
 30
0.0
 11
105.0
 21
-418.29927900000001
 31
0.0
  0
LINE
  5
61F
  8
SIZE
  6
CONTINUOUS
 62
    30
 10
0.0
 20
-283.101854
 30
0.0
 11
0.0
 21
-418.29927900000001
 31
0.0
  0
LINE
  5
620
  8
SIZE
  6
CONTINUOUS
 62
    30
 10
93.0
 20
-398.29927900000001
 30
0.0
 11
12.0
 21
-398.29927900000001
 31
0.0
  0
LINE
  5
621
  8
SIZE
  6
CONTINUOUS
 62
    30
 10
340.09129499999989
 20
-398.29927900000001
 30
0.0
 11
105.0
 21
-398.29927900000001
 31
0.0
  0
TEXT
  5
622
  8
SIZE
  6
CONTINUOUS
 62
    30
 10
177.94843842857131
 20
-373.29927900000001
 30
0.0
 40
64.0
  1
105
 41
0.9
 72
     1
 11
246.51986699999989
 21
-373.29927900000001
 31
0.0
  0
CIRCLE
  5
623
  8
SIZE
  6
CONTINUOUS
 62
    30
 10
105.0
 20
-398.29927900000001
 30
0.0
 40
6.0
  0
LINE
  5
624
  8
SIZE
  6
CONTINUOUS
 62
    30
 10
105.0
 20
-398.29927900000001
 30
0.0
 11
93.0
 21
-398.29927900000001
 31
0.0
  0
CIRCLE
  5
625
  8
SIZE
  6
CONTINUOUS
 62
    30
 10
0.0
 20
-398.29927900000001
 30
0.0
 40
6.0
  0
LINE
  5
626
  8
SIZE
  6
CONTINUOUS
 62
    30
 10
0.0
 20
-398.29927900000001
 30
0.0
 11
12.0
 21
-398.29927900000001
 31
0.0
  0
LINE
  5
627
  8
SIZE
  6
CONTINUOUS
 62
    30
 10
200.40957299999991
 20
0.0
 30
0.0
 11
663.10218899999995
 21
0.0
 31
0.0
  0
LINE
  5
628
  8
SIZE
  6
CONTINUOUS
 62
    30
 10
145.0
 20
-105.0
 30
0.0
 11
663.10218899999995
 21
-105.0
 31
0.0
  0
LINE
  5
629
  8
SIZE
  6
CONTINUOUS
 62
    30
 10
643.10218899999995
 20
-12.0
 30
0.0
 11
643.10218899999995
 21
-93.0
 31
0.0
  0
LINE
  5
62A
  8
SIZE
  6
CONTINUOUS
 62
    30
 10
643.10218899999995
 20
-336.35984200000001
 30
0.0
 11
643.10218899999995
 21
-105.0
 31
0.0
  0
TEXT
  5
62B
  8
SIZE
  6
CONTINUOUS
 62
    30
 10
618.10218899999995
 20
-311.35984157142838
 30
0.0
 40
64.0
  1
105
 50
90.0
 41
0.9
 72
     1
 11
618.10218899999995
 21
-242.78841299999991
 31
0.0
  0
CIRCLE
  5
62C
  8
SIZE
  6
CONTINUOUS
 62
    30
 10
643.10218899999995
 20
0.0
 30
0.0
 40
6.0
  0
LINE
  5
62D
  8
SIZE
  6
CONTINUOUS
 62
    30
 10
643.10218899999995
 20
0.0
 30
0.0
 11
643.10218899999995
 21
-12.0
 31
0.0
  0
CIRCLE
  5
62E
  8
SIZE
  6
CONTINUOUS
 62
    30
 10
643.10218899999995
 20
-105.0
 30
0.0
 40
6.0
  0
LINE
  5
62F
  8
SIZE
  6
CONTINUOUS
 62
    30
 10
643.10218899999995
 20
-105.0
 30
0.0
 11
643.10218899999995
 21
-93.0
 31
0.0
  0
LINE
  5
630
  8
NOTE
  6
CONTINUOUS
 62
     4
 10
485.89171299999998
 20
319.82216899999997
 30
0.0
 11
1454.8610000000001
 21
319.82216899999997
 31
0.0
  0
TEXT
  5
631
  8
NOTE
  6
CONTINUOUS
 62
     4
 10
-616.01858499999946
 20
314.86119999999988
 30
0.0
 40
64.0
  1
8-φ5×8
 41
0.9
  0
LINE
  5
632
  8
NOTE
  6
CONTINUOUS
 62
     4
 10
-228.543364
 20
288.32994400000001
 30
0.0
 11
-650.97526600000003
 21
288.32994400000001
 31
0.0
  0
LINE
  5
633
  8
DETAIL
  6
CONTINUOUS
 62
     5
 10
122.5
 20
125.5
 30
0.0
 11
122.5
 21
154.4999999999998
 31
0.0
  0
LINE
  5
634
  8
DETAIL
  6
CONTINUOUS
 62
     5
 10
87.5
 20
125.5
 30
0.0
 11
87.5
 21
154.4999999999998
 31
0.0
  0
ARC
  5
635
  8
DETAIL
  6
CONTINUOUS
 62
     5
 10
92.5
 20
154.4999999999998
 30
0.0
 40
5.0
 50
90.0
 51
180.0
  0
ARC
  5
636
  8
DETAIL
  6
CONTINUOUS
 62
     5
 10
117.5
 20
154.4999999999998
 30
0.0
 40
5.0
 50
0.0
 51
90.0
  0
LINE
  5
637
  8
DETAIL
  6
CONTINUOUS
 62
     5
 10
125.5
 20
87.5
 30
0.0
 11
154.4999999999998
 21
87.5
 31
0.0
  0
ARC
  5
638
  8
DETAIL
  6
CONTINUOUS
 62
     5
 10
154.4999999999998
 20
92.5
 30
0.0
 40
5.0
 50
270.0
 51
0.0
  0
LINE
  5
639
  8
DETAIL
  6
CONTINUOUS
 62
     5
 10
159.49999999999969
 20
92.5
 30
0.0
 11
159.49999999999969
 21
117.5
 31
0.0
  0
ARC
  5
63A
  8
DETAIL
  6
CONTINUOUS
 62
     5
 10
154.4999999999998
 20
117.5
 30
0.0
 40
5.0
 50
0.0
 51
90.0
  0
LINE
  5
63B
  8
DETAIL
  6
CONTINUOUS
 62
     5
 10
125.5
 20
122.5
 30
0.0
 11
154.4999999999998
 21
122.5
 31
0.0
  0
ARC
  5
63C
  8
DETAIL
  6
CONTINUOUS
 62
     5
 10
-154.4999999999998
 20
-92.5
 30
0.0
 40
5.0
 50
90.0
 51
180.0
  0
LINE
  5
63D
  8
DETAIL
  6
CONTINUOUS
 62
     5
 10
-125.5
 20
-87.5
 30
0.0
 11
-154.4999999999998
 21
-87.5
 31
0.0
  0
LINE
  5
63E
  8
DETAIL
  6
CONTINUOUS
 62
     5
 10
-159.49999999999969
 20
-92.5
 30
0.0
 11
-159.49999999999969
 21
-117.5
 31
0.0
  0
ARC
  5
63F
  8
DETAIL
  6
CONTINUOUS
 62
     5
 10
-154.4999999999998
 20
-117.5
 30
0.0
 40
5.0
 50
180.0
 51
270.0
  0
LINE
  5
640
  8
DETAIL
  6
CONTINUOUS
 62
     5
 10
-125.5
 20
-122.5
 30
0.0
 11
-154.4999999999998
 21
-122.5
 31
0.0
  0
LINE
  5
641
  8
DETAIL
  6
CONTINUOUS
 62
     5
 10
-87.5
 20
-125.5
 30
0.0
 11
-87.5
 21
-154.4999999999998
 31
0.0
  0
ARC
  5
642
  8
DETAIL
  6
CONTINUOUS
 62
     5
 10
-92.5
 20
-154.4999999999998
 30
0.0
 40
5.0
 50
270.0
 51
0.0
  0
LINE
  5
643
  8
DETAIL
  6
CONTINUOUS
 62
     5
 10
-117.5
 20
-159.49999999999969
 30
0.0
 11
-92.5
 21
-159.49999999999969
 31
0.0
  0
LINE
  5
644
  8
DETAIL
  6
CONTINUOUS
 62
     5
 10
-122.5
 20
-125.5
 30
0.0
 11
-122.5
 21
-154.4999999999998
 31
0.0
  0
ARC
  5
645
  8
DETAIL
  6
CONTINUOUS
 62
     5
 10
-117.5
 20
-154.4999999999998
 30
0.0
 40
5.0
 50
180.0
 51
270.0
  0
LINE
  5
646
  8
SIZE
  6
CONTINUOUS
 62
    30
 10
51.0
 20
-524.38933799999995
 30
0.0
 11
355.33679799999982
 21
-524.38933799999995
 31
0.0
  0
LINE
  5
647
  8
SIZE
  6
CONTINUOUS
 62
    30
 10
54.5
 20
-651.86968200000001
 30
0.0
 11
384.289962
 21
-651.86968200000001
 31
0.0
  0
TEXT
  5
648
  8
NOTE
  6
CONTINUOUS
 62
     4
 10
485.50653999999992
 20
368.98096699999979
 30
0.0
 40
64.0
  1
AH 4-φ15×22
 41
0.9
  0
LINE
  5
649
  8
SERVICESPACE
  6
DASHDOT
 62
     2
 10
-130.0
 20
-130.0
 30
0.0
 11
-130.0
 21
130.0
 31
0.0
  0
LINE
  5
64A
  8
SERVICESPACE
  6
DASHDOT
 62
     2
 10
-130.0
 20
130.0
 30
0.0
 11
130.0
 21
-130.0
 31
0.0
  0
LINE
  5
64B
  8
SERVICESPACE
  6
DASHDOT
 62
     2
 10
130.0
 20
130.0
 30
0.0
 11
-130.0
 21
-130.0
 31
0.0
  0
LINE
  5
64C
  8
SERVICESPACE
  6
DASHDOT
 62
     2
 10
-130.0
 20
-130.0
 30
0.0
 11
130.0
 21
-130.0
 31
0.0
  0
LINE
  5
64D
  8
SERVICESPACE
  6
DASHDOT
 62
     2
 10
130.0
 20
-130.0
 30
0.0
 11
130.0
 21
130.0
 31
0.0
  0
LINE
  5
64E
  8
SERVICESPACE
  6
DASHDOT
 62
     2
 10
-130.0
 20
130.0
 30
0.0
 11
130.0
 21
130.0
 31
0.0
  0
LINE
  5
64F
  8
SIZE
  6
CONTINUOUS
 62
    30
 10
150.0
 20
130.0
 30
0.0
 11
1094.277
 21
130.0
 31
0.0
  0
LINE
  5
650
  8
SIZE
  6
CONTINUOUS
 62
    30
 10
150.0
 20
-130.0
 30
0.0
 11
1094.277
 21
-130.0
 31
0.0
  0
LINE
  5
651
  8
SIZE
  6
CONTINUOUS
 62
    30
 10
1074.277
 20
118.0
 30
0.0
 11
1074.277
 21
-118.0
 31
0.0
  0
TEXT
  5
652
  8
SIZE
  6
CONTINUOUS
 62
    30
 10
1047.638999999999
 20
-114.0211888571428
 30
0.0
 40
64.0
  1
□260
 50
90.0
 41
0.9
 72
     1
 11
1047.638999999999
 21
-3.484045999999998
 31
0.0
  0
CIRCLE
  5
653
  8
SIZE
  6
CONTINUOUS
 62
    30
 10
1074.277
 20
130.0
 30
0.0
 40
6.0
  0
LINE
  5
654
  8
SIZE
  6
CONTINUOUS
 62
    30
 10
1074.277
 20
130.0
 30
0.0
 11
1074.277
 21
118.0
 31
0.0
  0
CIRCLE
  5
655
  8
SIZE
  6
CONTINUOUS
 62
    30
 10
1074.277
 20
-130.0
 30
0.0
 40
6.0
  0
LINE
  5
656
  8
SIZE
  6
CONTINUOUS
 62
    30
 10
1074.277
 20
-130.0
 30
0.0
 11
1074.277
 21
-118.0
 31
0.0
  0
TEXT
  5
657
  8
NOTE
  6
CONTINUOUS
 62
     4
 10
1180.061999999999
 20
-194.597936
 30
0.0
 40
64.0
  1
天井開口寸法
 50
90.0
 41
0.9
  0
LINE
  5
658
  8
DETAIL
  6
CONTINUOUS
 62
     5
 10
-151.5
 20
151.5
 30
0.0
 11
87.5
 21
151.5
 31
0.0
  0
LINE
  5
659
  8
DETAIL
  6
CONTINUOUS
 62
     5
 10
-151.5
 20
-151.5
 30
0.0
 11
-122.5
 21
-151.5
 31
0.0
  0
LINE
  5
65A
  8
DETAIL
  6
CONTINUOUS
 62
     5
 10
151.5
 20
-151.5
 30
0.0
 11
151.5
 21
87.5
 31
0.0
  0
LINE
  5
65B
  8
DETAIL
  6
CONTINUOUS
 62
     5
 10
-151.5
 20
-151.5
 30
0.0
 11
-151.5
 21
-122.5
 31
0.0
  0
LINE
  5
65C
  8
DETAIL
  6
CONTINUOUS
 62
     5
 10
122.5
 20
151.5
 30
0.0
 11
151.5
 21
151.5
 31
0.0
  0
LINE
  5
65D
  8
DETAIL
  6
CONTINUOUS
 62
     5
 10
151.5
 20
122.5
 30
0.0
 11
151.5
 21
151.5
 31
0.0
  0
LINE
  5
65E
  8
DETAIL
  6
CONTINUOUS
 62
     5
 10
63.0
 20
-151.5
 30
0.0
 11
151.5
 21
-151.5
 31
0.0
  0
LINE
  5
65F
  8
DETAIL
  6
CONTINUOUS
 62
     5
 10
-87.5
 20
-151.5
 30
0.0
 11
-63.0
 21
-151.5
 31
0.0
  0
LINE
  5
660
  8
DETAIL
  6
CONTINUOUS
 62
     5
 10
-151.5
 20
-87.5
 30
0.0
 11
-151.5
 21
151.5
 31
0.0
  0
LINE
  5
661
  8
SIZE
  6
CONTINUOUS
 62
    30
 10
151.5
 20
171.5
 30
0.0
 11
151.5
 21
811.53011700000002
 31
0.0
  0
LINE
  5
662
  8
SIZE
  6
CONTINUOUS
 62
    30
 10
-151.5
 20
171.5
 30
0.0
 11
-151.5
 21
811.53011700000002
 31
0.0
  0
LINE
  5
663
  8
SIZE
  6
CONTINUOUS
 62
    30
 10
139.5
 20
791.53011700000002
 30
0.0
 11
-139.5
 21
791.53011700000002
 31
0.0
  0
CIRCLE
  5
664
  8
SIZE
  6
CONTINUOUS
 62
    30
 10
151.5
 20
791.53011700000002
 30
0.0
 40
6.0
  0
LINE
  5
665
  8
SIZE
  6
CONTINUOUS
 62
    30
 10
151.5
 20
791.53011700000002
 30
0.0
 11
139.5
 21
791.53011700000002
 31
0.0
  0
CIRCLE
  5
666
  8
SIZE
  6
CONTINUOUS
 62
    30
 10
-151.5
 20
791.53011700000002
 30
0.0
 40
6.0
  0
LINE
  5
667
  8
SIZE
  6
CONTINUOUS
 62
    30
 10
-151.5
 20
791.53011700000002
 30
0.0
 11
-139.5
 21
791.53011700000002
 31
0.0
  0
TEXT
  5
668
  8
SIZE
  6
CONTINUOUS
 62
    30
 10
-74.057142857142836
 20
816.53011700000013
 30
0.0
 40
64.0
  1
303
 41
0.9
 72
     1
 11
0.0
 21
816.53011700000013
 31
0.0
  0
LINE
  5
669
  8
SIZE
  6
CONTINUOUS
 62
    30
 10
-171.5
 20
-151.5
 30
0.0
 11
-754.68517699999984
 21
-151.5
 31
0.0
  0
LINE
  5
66A
  8
SIZE
  6
CONTINUOUS
 62
    30
 10
-171.5
 20
151.5
 30
0.0
 11
-754.68517699999984
 21
151.5
 31
0.0
  0
LINE
  5
66B
  8
SIZE
  6
CONTINUOUS
 62
    30
 10
-734.68517699999984
 20
-139.5
 30
0.0
 11
-734.68517699999984
 21
139.5
 31
0.0
  0
CIRCLE
  5
66C
  8
SIZE
  6
CONTINUOUS
 62
    30
 10
-734.68517699999984
 20
-151.5
 30
0.0
 40
6.0
  0
LINE
  5
66D
  8
SIZE
  6
CONTINUOUS
 62
    30
 10
-734.68517699999984
 20
-151.5
 30
0.0
 11
-734.68517699999984
 21
-139.5
 31
0.0
  0
CIRCLE
  5
66E
  8
SIZE
  6
CONTINUOUS
 62
    30
 10
-734.68517699999984
 20
151.5
 30
0.0
 40
6.0
  0
LINE
  5
66F
  8
SIZE
  6
CONTINUOUS
 62
    30
 10
-734.68517699999984
 20
151.5
 30
0.0
 11
-734.68517699999984
 21
139.5
 31
0.0
  0
TEXT
  5
670
  8
SIZE
  6
CONTINUOUS
 62
    30
 10
-759.68517699999984
 20
-74.057142857142836
 30
0.0
 40
64.0
  1
303
 50
90.0
 41
0.9
 72
     1
 11
-759.68517699999984
 21
0.0
 31
0.0
  0
LINE
  5
671
  8
SIZE
  6
CONTINUOUS
 62
    30
 10
161.5
 20
97.5
 30
0.0
 11
534.85296100000005
 21
97.5
 31
0.0
  0
LINE
  5
672
  8
SIZE
  6
CONTINUOUS
 62
    30
 10
162.5
 20
112.5
 30
0.0
 11
534.85296100000005
 21
112.5
 31
0.0
  0
LINE
  5
673
  8
SIZE
  6
CONTINUOUS
 62
    30
 10
514.85296100000005
 20
85.5
 30
0.0
 11
514.85296100000005
 21
73.5
 31
0.0
  0
LINE
  5
674
  8
SIZE
  6
CONTINUOUS
 62
    30
 10
514.85296100000005
 20
124.5
 30
0.0
 11
514.85296100000005
 21
136.49999999999969
 31
0.0
  0
LINE
  5
675
  8
SIZE
  6
CONTINUOUS
 62
    30
 10
514.85296100000005
 20
275.77829100000002
 30
0.0
 11
514.85296100000005
 21
112.5
 31
0.0
  0
TEXT
  5
676
  8
SIZE
  6
CONTINUOUS
 62
    30
 10
489.85296099999988
 20
168.49257685714269
 30
0.0
 40
64.0
  1
15
 50
90.0
 41
0.9
 72
     1
 11
489.85296099999988
 21
209.63543399999989
 31
0.0
  0
LINE
  5
677
  8
SIZE
  6
CONTINUOUS
 62
    30
 10
514.85296100000005
 20
97.5
 30
0.0
 11
514.85296100000005
 21
112.5
 31
0.0
  0
LINE
  5
678
  8
SIZE
  6
CONTINUOUS
 62
    30
 10
514.85296100000005
 20
97.5
 30
0.0
 11
514.85296100000005
 21
112.5
 31
0.0
  0
CIRCLE
  5
679
  8
SIZE
  6
CONTINUOUS
 62
    30
 10
514.85296100000005
 20
97.5
 30
0.0
 40
6.0
  0
LINE
  5
67A
  8
SIZE
  6
CONTINUOUS
 62
    30
 10
514.85296100000005
 20
97.5
 30
0.0
 11
514.85296100000005
 21
85.5
 31
0.0
  0
CIRCLE
  5
67B
  8
SIZE
  6
CONTINUOUS
 62
    30
 10
514.85296100000005
 20
112.5
 30
0.0
 40
6.0
  0
LINE
  5
67C
  8
SIZE
  6
CONTINUOUS
 62
    30
 10
514.85296100000005
 20
112.5
 30
0.0
 11
514.85296100000005
 21
124.5
 31
0.0
  0
LINE
  5
67D
  8
SIZE
  6
CONTINUOUS
 62
    30
 10
514.85296100000005
 20
116.5
 30
0.0
 11
514.85296100000005
 21
259.96498300000002
 31
0.0
  0
LINE
  5
67E
  8
SIZE
  6
CONTINUOUS
 62
    30
 10
153.5
 20
125.0
 30
0.0
 11
153.5
 21
246.056636
 31
0.0
  0
LINE
  5
67F
  8
SIZE
  6
CONTINUOUS
 62
    30
 10
131.49999999999969
 20
125.0
 30
0.0
 11
131.49999999999969
 21
246.056636
 31
0.0
  0
LINE
  5
680
  8
SIZE
  6
CONTINUOUS
 62
    30
 10
165.5
 20
226.0566359999998
 30
0.0
 11
177.5
 21
226.0566359999998
 31
0.0
  0
LINE
  5
681
  8
SIZE
  6
CONTINUOUS
 62
    30
 10
119.5
 20
226.0566359999998
 30
0.0
 11
107.4999999999999
 21
226.0566359999998
 31
0.0
  0
TEXT
  5
682
  8
SIZE
  6
CONTINUOUS
 62
    30
 10
183.4012315714285
 20
253.85813399999989
 30
0.0
 40
64.0
  1
22
 41
0.9
 72
     1
 11
230.0298029999999
 21
253.85813399999989
 31
0.0
  0
LINE
  5
683
  8
SIZE
  6
CONTINUOUS
 62
    30
 10
153.5
 20
226.0566359999998
 30
0.0
 11
131.49999999999969
 21
226.0566359999998
 31
0.0
  0
LINE
  5
684
  8
SIZE
  6
CONTINUOUS
 62
    30
 10
153.5
 20
226.0566359999998
 30
0.0
 11
131.49999999999969
 21
226.0566359999998
 31
0.0
  0
CIRCLE
  5
685
  8
SIZE
  6
CONTINUOUS
 62
    30
 10
153.5
 20
226.0566359999998
 30
0.0
 40
6.0
  0
LINE
  5
686
  8
SIZE
  6
CONTINUOUS
 62
    30
 10
153.5
 20
226.0566359999998
 30
0.0
 11
165.5
 21
226.0566359999998
 31
0.0
  0
CIRCLE
  5
687
  8
SIZE
  6
CONTINUOUS
 62
    30
 10
131.49999999999969
 20
226.0566359999998
 30
0.0
 40
6.0
  0
LINE
  5
688
  8
SIZE
  6
CONTINUOUS
 62
    30
 10
131.49999999999969
 20
226.0566359999998
 30
0.0
 11
119.5
 21
226.0566359999998
 31
0.0
  0
LINE
  5
689
  8
SIZE
  6
CONTINUOUS
 62
    30
 10
155.49999999999969
 20
226.0566359999998
 30
0.0
 11
300.12484799999999
 21
226.0566359999998
 31
0.0
  0
TEXT
  5
68A
  8
NOTE
  6
CONTINUOUS
 62
     4
 10
1106.601999999998
 20
369.74720299999967
 30
0.0
 40
64.0
  1
(2点吊り)
 41
0.9
  0
POINT
  5
68B
  8
ARRANGE
  6
CONTINUOUS
 62
     1
 10
0.0
 20
0.0
 30
0.0
  0
CIRCLE
  5
68C
  8
ARRANGE
  6
CONTINUOUS
 62
     1
 10
0.0
 20
0.0
 30
0.0
 40
40.0
  0
CIRCLE
  5
68D
  8
DETAIL
  6
CONTINUOUS
 62
     5
 10
24.0
 20
12.0
 30
0.0
 40
41.0
  0
LINE
  5
68E
  8
SIZE
  6
CONTINUOUS
 62
    30
 10
65.0
 20
32.0
 30
0.0
 11
65.0
 21
501.11527100000001
 31
0.0
  0
LINE
  5
68F
  8
SIZE
  6
CONTINUOUS
 62
    30
 10
-17.0
 20
32.0
 30
0.0
 11
-17.0
 21
501.11527100000001
 31
0.0
  0
LINE
  5
690
  8
SIZE
  6
CONTINUOUS
 62
    30
 10
53.0
 20
481.11527099999989
 30
0.0
 11
-5.0
 21
481.11527099999989
 31
0.0
  0
LINE
  5
691
  8
SIZE
  6
CONTINUOUS
 62
    30
 10
351.93315999999999
 20
481.11527099999989
 30
0.0
 11
65.0
 21
481.11527099999989
 31
0.0
  0
TEXT
  5
692
  8
SIZE
  6
CONTINUOUS
 62
    30
 10
164.5560165714285
 20
506.11527099999989
 30
0.0
 40
64.0
  1
φ82
 41
0.9
 72
     1
 11
251.5045879999999
 21
506.11527099999989
 31
0.0
  0
CIRCLE
  5
693
  8
SIZE
  6
CONTINUOUS
 62
    30
 10
65.0
 20
481.11527099999989
 30
0.0
 40
6.0
  0
LINE
  5
694
  8
SIZE
  6
CONTINUOUS
 62
    30
 10
65.0
 20
481.11527099999989
 30
0.0
 11
53.0
 21
481.11527099999989
 31
0.0
  0
CIRCLE
  5
695
  8
SIZE
  6
CONTINUOUS
 62
    30
 10
-17.0
 20
481.11527099999989
 30
0.0
 40
6.0
  0
LINE
  5
696
  8
SIZE
  6
CONTINUOUS
 62
    30
 10
-17.0
 20
481.11527099999989
 30
0.0
 11
-5.0
 21
481.11527099999989
 31
0.0
  0
POINT
  5
697
  8
DEFPOINTS
  6
CONTINUOUS
 62
    30
 10
-17.0
 20
12.0
 30
0.0
  0
CIRCLE
  5
698
  8
DETAIL
  6
CONTINUOUS
 62
     5
 10
105.0
 20
-105.0
 30
0.0
 40
11.5
  0
ARC
  5
699
  8
DETAIL
  6
CONTINUOUS
 62
     5
 10
152.0
 20
152.0
 30
0.0
 40
15.0
 50
0.0
 51
90.0
  0
ARC
  5
69A
  8
DETAIL
  6
CONTINUOUS
 62
     5
 10
-152.0
 20
152.0
 30
0.0
 40
15.0
 50
90.0
 51
180.0
  0
ARC
  5
69B
  8
DETAIL
  6
CONTINUOUS
 62
     5
 10
-152.0
 20
-152.0
 30
0.0
 40
15.0
 50
180.0
 51
270.0
  0
ARC
  5
69C
  8
DETAIL
  6
CONTINUOUS
 62
     5
 10
152.0
 20
-152.0
 30
0.0
 40
15.0
 50
270.0
 51
0.0
  0
LINE
  5
69D
  8
OUTLINE
  6
CONTINUOUS
 62
     3
 10
-152.0
 20
167.0
 30
0.0
 11
152.0
 21
167.0
 31
0.0
  0
ARC
  5
69E
  8
OUTLINE
  6
CONTINUOUS
 62
     3
 10
-152.0
 20
152.0
 30
0.0
 40
15.0
 50
90.0
 51
180.0
  0
LINE
  5
69F
  8
OUTLINE
  6
CONTINUOUS
 62
     3
 10
-167.0
 20
-152.0
 30
0.0
 11
-167.0
 21
152.0
 31
0.0
  0
ARC
  5
6A0
  8
OUTLINE
  6
CONTINUOUS
 62
     3
 10
-152.0
 20
-152.0
 30
0.0
 40
15.0
 50
180.0
 51
270.0
  0
ARC
  5
6A1
  8
OUTLINE
  6
CONTINUOUS
 62
     3
 10
152.0
 20
-152.0
 30
0.0
 40
15.0
 50
270.0
 51
0.0
  0
LINE
  5
6A2
  8
OUTLINE
  6
CONTINUOUS
 62
     3
 10
167.0
 20
-152.0
 30
0.0
 11
167.0
 21
152.0
 31
0.0
  0
ARC
  5
6A3
  8
OUTLINE
  6
CONTINUOUS
 62
     3
 10
152.0
 20
152.0
 30
0.0
 40
15.0
 50
0.0
 51
90.0
  0
LINE
  5
6A4
  8
OUTLINE
  6
CONTINUOUS
 62
     3
 10
63.0
 20
-167.0
 30
0.0
 11
152.0
 21
-167.0
 31
0.0
  0
LINE
  5
6A5
  8
SIZE
  6
CONTINUOUS
 62
    30
 10
167.0
 20
172.0
 30
0.0
 11
167.0
 21
938.80230799999993
 31
0.0
  0
LINE
  5
6A6
  8
SIZE
  6
CONTINUOUS
 62
    30
 10
-167.0
 20
172.0
 30
0.0
 11
-167.0
 21
938.80230799999993
 31
0.0
  0
LINE
  5
6A7
  8
SIZE
  6
CONTINUOUS
 62
    30
 10
155.0
 20
918.80230800000004
 30
0.0
 11
-155.0
 21
918.80230800000004
 31
0.0
  0
CIRCLE
  5
6A8
  8
SIZE
  6
CONTINUOUS
 62
    30
 10
167.0
 20
918.80230800000004
 30
0.0
 40
6.0
  0
LINE
  5
6A9
  8
SIZE
  6
CONTINUOUS
 62
    30
 10
167.0
 20
918.80230800000004
 30
0.0
 11
155.0
 21
918.80230800000004
 31
0.0
  0
CIRCLE
  5
6AA
  8
SIZE
  6
CONTINUOUS
 62
    30
 10
-167.0
 20
918.80230800000004
 30
0.0
 40
6.0
  0
LINE
  5
6AB
  8
SIZE
  6
CONTINUOUS
 62
    30
 10
-167.0
 20
918.80230800000004
 30
0.0
 11
-155.0
 21
918.80230800000004
 31
0.0
  0
TEXT
  5
6AC
  8
SIZE
  6
CONTINUOUS
 62
    30
 10
-111.90857142857141
 20
943.80230800000004
 30
0.0
 40
64.0
  1
□334
 41
0.9
 72
     1
 11
0.0
 21
943.80230800000004
 31
0.0
  0
LINE
  5
6AD
  8
DETAIL
  6
CONTINOUS
 62
     5
 10
49.0
 20
-239.5
 30
0.0
 11
-49.0
 21
-239.5
 31
0.0
  0
TEXT
  5
6AE
  8
ETC
  6
CONTINUOUS
 62
    61
 10
636.18299962789445
 20
712.40032357202824
 30
0.0
 40
50.0
  1
VD-15ZY7
 41
0.9
  0
LINE
  5
6B0
  8
OUTLINE
  6
CONTINUOUS
 62
     3
 39
50.0
 10
-152.0
 20
-167.0
 30
0.0
 11
-63.0
 21
-167.0
 31
0.0
  0
LINE
  5
6B4
  8
OUTLINE
  6
DASHED
 62
     3
 39
50.0
 10
-63.0
 20
-167.0
 30
0.0
 11
63.0
 21
-167.0
 31
0.0
  0
ENDSEC
  0
EOF
