  0
SECTION
  2
HEADER
  9
$ACADVER
  1
AC1009
  9
$DWGCODEPAGE
  3
dos932
  9
$INSBASE
 10
0.0
 20
0.0
 30
0.0
  9
$EXTMIN
 10
-425.99485625512352
 20
-459.82359671013359
 30
-0.0015258207003583
  9
$EXTMAX
 10
1336.4456296042119
 20
821.27381200119089
 30
0.0000000349246037
  9
$LIMMIN
 10
-2970.0
 20
-2100.0
  9
$LIMMAX
 10
2970.0
 20
2100.0
  9
$ORTHOMODE
 70
     1
  9
$REGENMODE
 70
     1
  9
$FILLMODE
 70
     1
  9
$QTEXTMODE
 70
     0
  9
$MIRRTEXT
 70
     0
  9
$LTSCALE
 40
20.0
  9
$ATTMODE
 70
     1
  9
$TEXTSIZE
 40
64.0
  9
$TRACEWID
 40
0.05
  9
$TEXTSTYLE
  7
STANDARD
  9
$CLAYER
  8
SIZE
  9
$CELTYPE
  6
CONTINUOUS
  9
$CECOLOR
 62
     7
  9
$DIMSCALE
 40
1.0
  9
$DIMASZ
 40
12.0
  9
$DIMEXO
 40
20.0
  9
$DIMDLI
 40
200.0
  9
$DIMRND
 40
0.0
  9
$DIMDLE
 40
0.0
  9
$DIMEXE
 40
20.0
  9
$DIMTP
 40
0.0
  9
$DIMTM
 40
0.0
  9
$DIMTXT
 40
64.0
  9
$DIMCEN
 40
0.09
  9
$DIMTSZ
 40
0.0
  9
$DIMTOL
 70
     0
  9
$DIMLIM
 70
     0
  9
$DIMTIH
 70
     0
  9
$DIMTOH
 70
     0
  9
$DIMSE1
 70
     0
  9
$DIMSE2
 70
     0
  9
$DIMTAD
 70
     1
  9
$DIMZIN
 70
     8
  9
$DIMBLK
  1

  9
$DIMASO
 70
     1
  9
$DIMSHO
 70
     0
  9
$DIMPOST
  1

  9
$DIMAPOST
  1

  9
$DIMALT
 70
     0
  9
$DIMALTD
 70
     2
  9
$DIMALTF
 40
25.399999999999999
  9
$DIMLFAC
 40
1.0
  9
$DIMTOFL
 70
     1
  9
$DIMTVP
 40
0.0
  9
$DIMTIX
 70
     1
  9
$DIMSOXD
 70
     0
  9
$DIMSAH
 70
     0
  9
$DIMBLK1
  1

  9
$DIMBLK2
  1

  9
$DIMSTYLE
  2
STANDARD
  9
$DIMCLRD
 70
     7
  9
$DIMCLRE
 70
     7
  9
$DIMCLRT
 70
     7
  9
$DIMTFAC
 40
1.0
  9
$DIMGAP
 40
25.0
  9
$LUNITS
 70
     2
  9
$LUPREC
 70
     4
  9
$SKETCHINC
 40
0.1
  9
$FILLETRAD
 40
3.0
  9
$AUNITS
 70
     1
  9
$AUPREC
 70
     3
  9
$MENU
  1
ACAD
  9
$ELEVATION
 40
0.0
  9
$PELEVATION
 40
0.0
  9
$THICKNESS
 40
0.0
  9
$LIMCHECK
 70
     0
  9
$CHAMFERA
 40
0.0
  9
$CHAMFERB
 40
0.0
  9
$SKPOLY
 70
     0
  9
$TDCREATE
 40
2453019.62301037
  9
$TDUPDATE
 40
2459025.505760185
  9
$TDINDWG
 40
1.7137775579
  9
$TDUSRTIMER
 40
1.7137775579
  9
$USRTIMER
 70
     1
  9
$ANGBASE
 50
0.0
  9
$ANGDIR
 70
     0
  9
$PDMODE
 70
     3
  9
$PDSIZE
 40
-2.0
  9
$PLINEWID
 40
0.0
  9
$SPLFRAME
 70
     0
  9
$SPLINETYPE
 70
     6
  9
$SPLINESEGS
 70
     8
  9
$SURFTAB1
 70
     6
  9
$SURFTAB2
 70
     6
  9
$SURFTYPE
 70
     6
  9
$SURFU
 70
     6
  9
$SURFV
 70
     6
  9
$UCSNAME
  2

  9
$UCSORG
 10
0.0
 20
0.0
 30
0.0
  9
$UCSXDIR
 10
1.0
 20
0.0
 30
0.0
  9
$UCSYDIR
 10
0.0
 20
1.0
 30
0.0
  9
$PUCSNAME
  2

  9
$PUCSORG
 10
0.0
 20
0.0
 30
0.0
  9
$PUCSXDIR
 10
1.0
 20
0.0
 30
0.0
  9
$PUCSYDIR
 10
0.0
 20
1.0
 30
0.0
  9
$USERI1
 70
     0
  9
$USERI2
 70
     0
  9
$USERI3
 70
     0
  9
$USERI4
 70
     0
  9
$USERI5
 70
     0
  9
$USERR1
 40
20.0
  9
$USERR2
 40
0.0
  9
$USERR3
 40
0.0
  9
$USERR4
 40
0.0
  9
$USERR5
 40
0.0
  9
$WORLDVIEW
 70
     1
  9
$SHADEDGE
 70
     3
  9
$SHADEDIF
 70
    70
  9
$TILEMODE
 70
     1
  9
$MAXACTVP
 70
    48
  9
$PINSBASE
 10
0.0
 20
0.0
 30
0.0
  9
$PLIMCHECK
 70
     0
  9
$PEXTMIN
 10
-100000000000000000000.0
 20
-100000000000000000000.0
 30
-100000000000000000000.0
  9
$PEXTMAX
 10
100000000000000000000.0
 20
100000000000000000000.0
 30
100000000000000000000.0
  9
$PLIMMIN
 10
0.0
 20
0.0
  9
$PLIMMAX
 10
12.0
 20
9.0
  9
$UNITMODE
 70
     0
  9
$VISRETAIN
 70
     0
  9
$PLINEGEN
 70
     0
  9
$PSLTSCALE
 70
     0
  9
$TREEDEPTH
 70
  3020
  9
$ATTDIA
 70
     0
  9
$ATTREQ
 70
     1
  9
$BLIPMODE
 70
     1
  9
$COORDS
 70
     1
  9
$DRAGMODE
 70
     2
  9
$OSMODE
 70
     0
  9
$HANDLING
 70
     0
  9
$HANDSEED
  5
F0C2
  0
ENDSEC
  0
SECTION
  2
TABLES
  0
TABLE
  2
LTYPE
 70
     3
  0
LTYPE
  2
CONTINUOUS
 70
     0
  3
実線
 72
    65
 73
     0
 40
0.0
  0
LTYPE
  2
DASHDOT
 70
     0
  3
____ _ ____ _ ____ _ ____ _ ____ _ ____ _ ____
 72
    65
 73
     4
 40
5.5
 49
4.0
 49
-0.6
 49
0.3
 49
-0.6
  0
LTYPE
  2
CENTER
 70
     0
  3
Center ____ _ ____ _ ____ _ ____ _ ____ _ ____
 72
    65
 73
     4
 40
1.0
 49
0.5
 49
-0.25
 49
0.0
 49
-0.25
  0
ENDTAB
  0
TABLE
  2
LAYER
 70
    12
  0
LAYER
  2
0
 70
     0
 62
     7
  6
CONTINUOUS
  0
LAYER
  2
BASIS
 70
     0
 62
     6
  6
DASHDOT
  0
LAYER
  2
OUTLINE
 70
     0
 62
     3
  6
CONTINUOUS
  0
LAYER
  2
DETAIL
 70
     0
 62
     5
  6
CONTINUOUS
  0
LAYER
  2
SIZE
 70
     0
 62
    30
  6
CONTINUOUS
  0
LAYER
  2
ARRANGE
 70
     0
 62
     1
  6
CONTINUOUS
  0
LAYER
  2
DEFPOINTS
 70
     0
 62
     7
  6
CONTINUOUS
  0
LAYER
  2
ETC
 70
     0
 62
    61
  6
CONTINUOUS
  0
LAYER
  2
FIX
 70
     0
 62
    11
  6
CONTINUOUS
  0
LAYER
  2
NOTE
 70
     0
 62
     4
  6
CONTINUOUS
  0
LAYER
  2
SERVICESPACE
 70
    64
 62
     2
  6
DASHDOT
  0
LAYER
  2
SYMBOLLINE
 70
    64
 62
    15
  6
CONTINUOUS
  0
ENDTAB
  0
TABLE
  2
STYLE
 70
     1
  0
STYLE
  2
STANDARD
 70
     0
 40
64.0
 41
0.9
 50
0.0
 71
     0
 42
64.0
  3
SIMPLEX.shx
  4
BIGFONT.shx
  0
ENDTAB
  0
TABLE
  2
APPID
 70
    19
  0
APPID
  2
ACAD
 70
     0
  0
APPID
  2
AUTOCAD_POSTSCRIPT_FIGURE
 70
     0
  0
APPID
  2
ACAD_EXEMPT_FROM_CAD_STANDARDS
 70
     0
  0
APPID
  2
ACAD_PSEXT
 70
     0
  0
APPID
  2
ACAUTHENVIRON
 70
     0
  0
APPID
  2
GENIUS_GENOENT_13
 70
     0
  0
APPID
  2
GENIUS_GENCFG_13
 70
     0
  0
APPID
  2
GENIUS_GENCFG0_13
 70
     0
  0
APPID
  2
GENIUS_GENCFG1_13
 70
     0
  0
APPID
  2
GENIUS_GENCFG2_13
 70
     0
  0
APPID
  2
GENIUS_GENCFG3_13
 70
     0
  0
APPID
  2
GENIUS_GENCFG4_13
 70
     0
  0
APPID
  2
GENIUS_GEVCFG0_13
 70
     0
  0
APPID
  2
CONTENTBLOCKICON
 70
     0
  0
APPID
  2
CONTENTBLOCKDESCRIPTION
 70
     0
  0
APPID
  2
ACAD_NAV_VCDISPLAY
 70
     0
  0
APPID
  2
ACAD_MLEADERVER
 70
     0
  0
APPID
  2
ACDBDYNAMICBLOCKTRUENAME
 70
     0
  0
APPID
  2
ACDBDYNAMICBLOCKGUID
 70
     0
  0
ENDTAB
  0
TABLE
  2
DIMSTYLE
 70
     1
  0
DIMSTYLE
  2
STANDARD
 70
     0
  3

  4

  5
_ORIGIN
  6

  7

 40
1.0
 41
12.0
 42
20.0
 43
200.0
 44
20.0
 45
0.0
 46
0.0
 47
0.0
 48
0.0
140
64.0
141
0.09
142
0.0
143
25.399999999999999
144
1.0
145
0.0
146
1.0
147
25.0
 71
     0
 72
     0
 73
     0
 74
     0
 75
     0
 76
     0
 77
     1
 78
     8
170
     0
171
     2
172
     1
173
     0
174
     1
175
     0
176
     7
177
     7
178
     7
  0
ENDTAB
  0
TABLE
  2
VIEW
 70
     1
  0
VIEW
  2
ALL
 70
     0
 40
4282.6198079999986
 10
0.0
 20
41.309904000000003
 41
5940.0
 11
0.0
 21
0.0
 31
1.0
 12
0.0
 22
0.0
 32
0.0
 42
50.0
 43
0.0
 44
0.0
 50
0.0
 71
     0
  0
ENDTAB
  0
TABLE
  2
UCS
 70
     0
  0
ENDTAB
  0
TABLE
  2
VPORT
 70
     1
  0
VPORT
  2
*ACTIVE
 70
     0
 10
0.0
 20
0.0
 11
1.0
 21
1.0
 12
455.2253866745441
 22
180.72510764552871
 13
0.0
 23
0.0
 14
1.0
 24
1.0
 15
0.0
 25
0.0
 16
0.0
 26
0.0
 36
1.0
 17
0.0
 27
0.0
 37
0.0
 40
1289.5908721944941
 41
1.747787610619469
 42
50.0
 43
0.0
 44
0.0
 50
0.0
 51
0.0
 71
     0
 72
  1000
 73
     1
 74
     3
 75
     0
 76
     0
 77
     0
 78
     0
  0
ENDTAB
  0
ENDSEC
  0
SECTION
  2
BLOCKS
  0
BLOCK
  8
0
  2
_ORIGIN
 70
     0
 10
0.0
 20
0.0
 30
0.0
  3
_ORIGIN
  1
_ORIGIN
  0
CIRCLE
  8
0
  6
CONTINUOUS
 62
     7
 10
0.0
 20
0.0
 30
0.0
 40
0.5
  0
LINE
  8
0
  6
CONTINUOUS
 62
     7
 10
0.0
 20
0.0
 30
0.0
 11
-1.0
 21
0.0
 31
0.0
  0
ENDBLK
  8
0
  0
ENDSEC
  0
SECTION
  2
ENTITIES
  0
TEXT
  8
NOTE
  6
CONTINUOUS
 62
     4
 10
226.4905975027832
 20
411.3535132196655
 30
0.0
 40
64.0
  1
EL
 41
0.9
  0
LINE
  8
NOTE
  6
CONTINUOUS
 62
     4
 10
375.32094509062063
 20
399.29841560060157
 30
0.0
 11
206.7964535642013
 21
399.29841560055911
 31
0.0
  0
LINE
  8
NOTE
  6
CONTINUOUS
 62
     4
 10
89.500000999999884
 20
182.7000000000003
 30
0.0
 11
206.7964535642013
 21
399.29841560055911
 31
0.0
  0
LINE
  8
NOTE
  6
CONTINUOUS
 62
     4
 10
89.500000999999884
 20
182.7000000000003
 30
0.0
 11
117.5733750441125
 21
209.34394918745031
 31
0.0
  0
LINE
  8
NOTE
  6
CONTINUOUS
 62
     4
 10
96.802563394578328
 20
221.9580497038456
 30
0.0
 11
89.500000999999884
 21
182.7000000000003
 31
0.0
  0
CIRCLE
  8
ARRANGE
  6
CONTINUOUS
 62
     1
 10
0.0
 20
0.0
 30
0.0
 40
40.0
  0
POINT
  8
ARRANGE
  6
CONTINUOUS
 62
     1
 10
0.0
 20
0.0
 30
0.0
 50
90.0
  0
CIRCLE
  8
FIX
  6
CONTINUOUS
 62
    11
 10
-141.5
 20
0.0
 30
0.0
 40
10.0
  0
CIRCLE
  8
FIX
  6
CONTINUOUS
 62
    11
 10
-85.0
 20
0.0
 30
0.0
 40
10.0
  0
CIRCLE
  8
FIX
  6
CONTINUOUS
 62
    11
 10
85.0
 20
0.0
 30
0.0
 40
10.0
  0
CIRCLE
  8
FIX
  6
CONTINUOUS
 62
    11
 10
141.5
 20
0.0
 30
0.0
 40
10.0
  0
LINE
  8
NOTE
  6
CONTINUOUS
 62
     4
 10
141.5
 20
0.0
 30
0.0
 11
376.78356798458663
 21
264.8116364789787
 31
0.0
  0
LINE
  8
NOTE
  6
CONTINUOUS
 62
     4
 10
141.5
 20
0.0
 30
0.0
 11
172.81274534757901
 21
22.683422418883421
 31
0.0
  0
LINE
  8
NOTE
  6
CONTINUOUS
 62
     4
 10
160.49527469402349
 20
35.19929633376114
 30
0.0
 11
141.5
 21
0.0
 31
0.0
  0
TEXT
  8
NOTE
  6
CONTINUOUS
 62
     4
 10
-36.384021390492762
 20
82.489568328613359
 30
0.0
 40
64.0
  1
EA
 41
0.9
  0
TEXT
  8
ETC
  6
CONTINUOUS
 62
    61
 10
688.72297562044014
 20
757.2011745468867
 30
0.0
 40
64.0
  1
VD-17ZFC13_2
 41
0.9
  0
TEXT
  8
ETC
  6
CONTINUOUS
 62
    61
 10
684.53698162043975
 20
639.24586453205552
 30
0.0
 40
64.0
  1
換気扇
 41
0.9
  0
TEXT
  8
ETC
  6
CONTINUOUS
 62
    61
 10
731.78746365547386
 20
539.36615982820354
 30
0.0
 40
40.0
  1
VD-17ZFC13
 41
0.9
  0
LINE
  8
NOTE
  6
CENTER
 62
     4
 10
90.0
 20
163.47697999999991
 30
0.0
 11
90.0
 21
197.38209099999989
 31
0.0
  0
LINE
  8
NOTE
  6
CENTER
 62
     4
 10
-141.5
 20
-7.0820240000000467
 30
0.0
 11
-141.5
 21
9.4269509999999173
 31
0.0
  0
LINE
  8
NOTE
  6
CENTER
 62
     4
 10
-85.0
 20
-7.0820240000000467
 30
0.0
 11
-85.0
 21
5.8380429999999706
 31
0.0
  0
LINE
  8
NOTE
  6
CENTER
 62
     4
 10
85.0
 20
-7.0820240000000467
 30
0.0
 11
85.0
 21
5.8380429999999706
 31
0.0
  0
LINE
  8
NOTE
  6
CENTER
 62
     4
 10
141.5
 20
-7.0820240000000467
 30
0.0
 11
141.5
 21
9.4269509999999173
 31
0.0
  0
LINE
  8
SIZE
  6
CONTINUOUS
 62
    30
 10
-127.09999999999989
 20
20.158501000000111
 30
0.0
 11
-127.09999999999989
 21
352.392238880082
 31
0.0
  0
LINE
  8
SIZE
  6
CONTINUOUS
 62
    30
 10
127.09999999999989
 20
20.0
 30
0.0
 11
127.09999999999989
 21
352.392238880082
 31
0.0
  0
LINE
  8
SIZE
  6
CONTINUOUS
 62
    30
 10
-115.09999999999989
 20
332.392238880082
 30
0.0
 11
115.09999999999989
 21
332.392238880082
 31
0.0
  0
CIRCLE
  8
SIZE
  6
CONTINUOUS
 62
    30
 10
-127.09999999999989
 20
332.392238880082
 30
0.0
 40
6.0
  0
LINE
  8
SIZE
  6
CONTINUOUS
 62
    30
 10
-127.09999999999989
 20
332.392238880082
 30
0.0
 11
-115.09999999999989
 21
332.392238880082
 31
0.0
  0
CIRCLE
  8
SIZE
  6
CONTINUOUS
 62
    30
 10
127.09999999999989
 20
332.392238880082
 30
0.0
 40
6.0
  0
LINE
  8
SIZE
  6
CONTINUOUS
 62
    30
 10
127.09999999999989
 20
332.392238880082
 30
0.0
 11
115.09999999999989
 21
332.392238880082
 31
0.0
  0
TEXT
  8
SIZE
  6
CONTINUOUS
 62
    30
 10
-111.90857142857141
 20
357.392238880082
 30
0.0
 40
64.0
  1
□254
 41
0.9
 72
     1
 11
0.0
 21
357.392238880082
 31
0.0
  0
POINT
  8
DEFPOINTS
  6
CONTINUOUS
 62
    30
 10
-127.09999999999989
 20
0.1585010000001148
 30
0.0
  0
POINT
  8
DEFPOINTS
  6
CONTINUOUS
 62
    30
 10
127.09999999999989
 20
0.0
 30
0.0
  0
POINT
  8
DEFPOINTS
  6
CONTINUOUS
 62
    30
 10
127.09999999999989
 20
332.392238880082
 30
0.0
  0
LINE
  8
SIZE
  6
CONTINUOUS
 62
    30
 10
74.500001999999995
 20
199.15039999999999
 30
0.0
 11
683.99298074231046
 21
199.15039999999979
 31
0.0
  0
LINE
  8
SIZE
  6
CONTINUOUS
 62
    30
 10
184.47310999999991
 20
0.0
 30
0.0
 11
683.99298074231046
 21
-0.0000000000001705
 31
0.0
  0
LINE
  8
SIZE
  6
CONTINUOUS
 62
    30
 10
663.99298074231046
 20
187.15039999999979
 30
0.0
 11
663.99298074231046
 21
11.99999999999989
 31
0.0
  0
CIRCLE
  8
SIZE
  6
CONTINUOUS
 62
    30
 10
663.99298074231046
 20
199.15039999999979
 30
0.0
 40
6.0
  0
LINE
  8
SIZE
  6
CONTINUOUS
 62
    30
 10
663.99298074231046
 20
199.15039999999979
 30
0.0
 11
663.99298074231046
 21
187.15039999999979
 31
0.0
  0
CIRCLE
  8
SIZE
  6
CONTINUOUS
 62
    30
 10
663.99298074231046
 20
-0.0000000000001137
 30
0.0
 40
6.0
  0
LINE
  8
SIZE
  6
CONTINUOUS
 62
    30
 10
663.99298074231046
 20
-0.0000000000001137
 30
0.0
 11
663.99298074231046
 21
11.999999999999829
 31
0.0
  0
TEXT
  8
SIZE
  6
CONTINUOUS
 62
    30
 10
638.99298074231046
 20
27.842903142857121
 30
0.0
 40
64.0
  1
200
 50
90.0
 41
0.9
 72
     1
 11
638.99298074231046
 21
101.900046
 31
0.0
  0
POINT
  8
DEFPOINTS
  6
CONTINUOUS
 62
    30
 10
54.500001999999988
 20
199.15039999999999
 30
0.0
  0
POINT
  8
DEFPOINTS
  6
CONTINUOUS
 62
    30
 10
164.47310999999991
 20
0.0
 30
0.0
  0
POINT
  8
DEFPOINTS
  6
CONTINUOUS
 62
    30
 10
663.99298074231046
 20
-0.0000000000001137
 30
0.0
  0
LINE
  8
SIZE
  6
CONTINUOUS
 62
    30
 10
184.47310999999991
 20
0.0
 30
0.0
 11
683.99298074231046
 21
-0.0000000000001705
 31
0.0
  0
LINE
  8
SIZE
  6
CONTINUOUS
 62
    30
 10
177.6494660000001
 20
-18.0
 30
0.0
 11
683.99298074231046
 21
-18.000000000000171
 31
0.0
  0
LINE
  8
SIZE
  6
CONTINUOUS
 62
    30
 10
663.99298074231046
 20
11.99999999999989
 30
0.0
 11
663.99298074231046
 21
23.99999999999989
 31
0.0
  0
LINE
  8
SIZE
  6
CONTINUOUS
 62
    30
 10
663.99298074231046
 20
-30.00000000000011
 30
0.0
 11
663.99298074231046
 21
-174.28571428571439
 31
0.0
  0
LINE
  8
SIZE
  6
CONTINUOUS
 62
    30
 10
663.99298074231046
 20
-0.0000000000001137
 30
0.0
 11
663.99298074231046
 21
-18.00000000000011
 31
0.0
  0
CIRCLE
  8
SIZE
  6
CONTINUOUS
 62
    30
 10
663.99298074231046
 20
-0.0000000000001137
 30
0.0
 40
6.0
  0
LINE
  8
SIZE
  6
CONTINUOUS
 62
    30
 10
663.99298074231046
 20
-0.0000000000001137
 30
0.0
 11
663.99298074231046
 21
11.999999999999829
 31
0.0
  0
CIRCLE
  8
SIZE
  6
CONTINUOUS
 62
    30
 10
663.99298074231046
 20
-18.00000000000011
 30
0.0
 40
6.0
  0
LINE
  8
SIZE
  6
CONTINUOUS
 62
    30
 10
663.99298074231046
 20
-18.00000000000011
 30
0.0
 11
663.99298074231046
 21
-30.00000000000011
 31
0.0
  0
TEXT
  8
SIZE
  6
CONTINUOUS
 62
    30
 10
638.99298074231046
 20
-149.28571428571439
 30
0.0
 40
64.0
  1
18
 50
90.0
 41
0.9
 72
     1
 11
638.99298074231046
 21
-108.1428571428572
 31
0.0
  0
POINT
  8
DEFPOINTS
  6
CONTINUOUS
 62
    30
 10
164.47310999999991
 20
0.0
 30
0.0
  0
POINT
  8
DEFPOINTS
  6
CONTINUOUS
 62
    30
 10
157.6494660000001
 20
-18.0
 30
0.0
  0
POINT
  8
DEFPOINTS
  6
CONTINUOUS
 62
    30
 10
663.99298074231046
 20
-18.00000000000011
 30
0.0
  0
LINE
  8
SIZE
  6
CONTINUOUS
 62
    30
 10
-85.0
 20
-27.08202400000005
 30
0.0
 11
-85.0
 21
-182.6682320155542
 31
0.0
  0
LINE
  8
SIZE
  6
CONTINUOUS
 62
    30
 10
85.0
 20
-27.08202400000005
 30
0.0
 11
85.0
 21
-182.6682320155542
 31
0.0
  0
LINE
  8
SIZE
  6
CONTINUOUS
 62
    30
 10
73.0
 20
-162.6682320155542
 30
0.0
 11
-73.0
 21
-162.6682320155542
 31
0.0
  0
LINE
  8
SIZE
  6
CONTINUOUS
 62
    30
 10
-85.0
 20
-162.6682320155542
 30
0.0
 11
-364.33609542226372
 21
-162.6682320155542
 31
0.0
  0
CIRCLE
  8
SIZE
  6
CONTINUOUS
 62
    30
 10
85.0
 20
-162.6682320155542
 30
0.0
 40
6.0
  0
LINE
  8
SIZE
  6
CONTINUOUS
 62
    30
 10
85.0
 20
-162.6682320155542
 30
0.0
 11
73.0
 21
-162.6682320155542
 31
0.0
  0
CIRCLE
  8
SIZE
  6
CONTINUOUS
 62
    30
 10
-85.0
 20
-162.6682320155542
 30
0.0
 40
6.0
  0
LINE
  8
SIZE
  6
CONTINUOUS
 62
    30
 10
-85.0
 20
-162.6682320155542
 30
0.0
 11
-73.0
 21
-162.6682320155542
 31
0.0
  0
TEXT
  8
SIZE
  6
CONTINUOUS
 62
    30
 10
-339.33609542226361
 20
-137.6682320155542
 30
0.0
 40
64.0
  1
170
 41
0.9
 72
     1
 11
-270.76466685083511
 21
-137.6682320155542
 31
0.0
  0
POINT
  8
DEFPOINTS
  6
CONTINUOUS
 62
    30
 10
-85.0
 20
-7.0820240000000467
 30
0.0
  0
POINT
  8
DEFPOINTS
  6
CONTINUOUS
 62
    30
 10
85.0
 20
-7.0820240000000467
 30
0.0
  0
POINT
  8
DEFPOINTS
  6
CONTINUOUS
 62
    30
 10
85.0
 20
-162.6682320155542
 30
0.0
  0
LINE
  8
SIZE
  6
CONTINUOUS
 62
    30
 10
-141.5
 20
-27.08202400000005
 30
0.0
 11
-141.5
 21
-331.59060550404052
 31
0.0
  0
LINE
  8
SIZE
  6
CONTINUOUS
 62
    30
 10
141.5
 20
-27.08202400000005
 30
0.0
 11
141.5
 21
-331.59060550404052
 31
0.0
  0
LINE
  8
SIZE
  6
CONTINUOUS
 62
    30
 10
-129.5
 20
-311.59060550404052
 30
0.0
 11
129.5
 21
-311.59060550404052
 31
0.0
  0
CIRCLE
  8
SIZE
  6
CONTINUOUS
 62
    30
 10
-141.5
 20
-311.59060550404052
 30
0.0
 40
6.0
  0
LINE
  8
SIZE
  6
CONTINUOUS
 62
    30
 10
-141.5
 20
-311.59060550404052
 30
0.0
 11
-129.5
 21
-311.59060550404052
 31
0.0
  0
CIRCLE
  8
SIZE
  6
CONTINUOUS
 62
    30
 10
141.5
 20
-311.59060550404052
 30
0.0
 40
6.0
  0
LINE
  8
SIZE
  6
CONTINUOUS
 62
    30
 10
141.5
 20
-311.59060550404052
 30
0.0
 11
129.5
 21
-311.59060550404052
 31
0.0
  0
TEXT
  8
SIZE
  6
CONTINUOUS
 62
    30
 10
-74.057142857142836
 20
-286.59060550404052
 30
0.0
 40
64.0
  1
283
 41
0.9
 72
     1
 11
0.0
 21
-286.59060550404052
 31
0.0
  0
POINT
  8
DEFPOINTS
  6
CONTINUOUS
 62
    30
 10
-141.5
 20
-7.0820240000000467
 30
0.0
  0
POINT
  8
DEFPOINTS
  6
CONTINUOUS
 62
    30
 10
141.5
 20
-7.0820240000000467
 30
0.0
  0
POINT
  8
DEFPOINTS
  6
CONTINUOUS
 62
    30
 10
141.5
 20
-311.59060550404052
 30
0.0
  0
LINE
  8
SIZE
  6
CONTINUOUS
 62
    30
 10
-164.9724247673773
 20
-20.526167978121521
 30
0.0
 11
-164.97242476737739
 21
-459.5070969264043
 31
0.0
  0
LINE
  8
SIZE
  6
CONTINUOUS
 62
    30
 10
164.9724249999999
 20
-20.526168000000101
 30
0.0
 11
164.9724249999999
 21
-459.5070969264043
 31
0.0
  0
LINE
  8
SIZE
  6
CONTINUOUS
 62
    30
 10
-152.97242476737739
 20
-439.5070969264043
 30
0.0
 11
152.9724249999999
 21
-439.5070969264043
 31
0.0
  0
CIRCLE
  8
SIZE
  6
CONTINUOUS
 62
    30
 10
-164.97242476737739
 20
-439.5070969264043
 30
0.0
 40
6.0
  0
LINE
  8
SIZE
  6
CONTINUOUS
 62
    30
 10
-164.97242476737739
 20
-439.5070969264043
 30
0.0
 11
-152.97242476737739
 21
-439.5070969264043
 31
0.0
  0
CIRCLE
  8
SIZE
  6
CONTINUOUS
 62
    30
 10
164.9724249999999
 20
-439.5070969264043
 30
0.0
 40
6.0
  0
LINE
  8
SIZE
  6
CONTINUOUS
 62
    30
 10
164.9724249999999
 20
-439.5070969264043
 30
0.0
 11
152.9724249999999
 21
-439.5070969264043
 31
0.0
  0
TEXT
  8
SIZE
  6
CONTINUOUS
 62
    30
 10
-110.5371427408316
 20
-414.5070969264043
 30
0.0
 40
64.0
  1
□330
 41
0.9
 72
     1
 11
0.0000001163112415
 21
-414.5070969264043
 31
0.0
  0
POINT
  8
DEFPOINTS
  6
CONTINUOUS
 62
    30
 10
-164.9724247673773
 20
-0.5261679781215207
 30
0.0
  0
POINT
  8
DEFPOINTS
  6
CONTINUOUS
 62
    30
 10
164.9724249999999
 20
-0.5261680000000979
 30
0.0
  0
POINT
  8
DEFPOINTS
  6
CONTINUOUS
 62
    30
 10
164.9724249999999
 20
-439.5070969264043
 30
0.0
  0
LINE
  8
SIZE
  6
CONTINUOUS
 62
    30
 10
101.7
 20
125.0003999999999
 30
0.0
 11
560.19646697491589
 21
125.0003999999998
 31
0.0
  0
LINE
  8
SIZE
  6
CONTINUOUS
 62
    30
 10
183.0
 20
0.0
 30
0.0
 11
560.19646697491589
 21
-0.0000000000001137
 31
0.0
  0
LINE
  8
SIZE
  6
CONTINUOUS
 62
    30
 10
540.19646697491589
 20
113.0003999999998
 30
0.0
 11
540.19646697491589
 21
11.99999999999989
 31
0.0
  0
LINE
  8
SIZE
  6
CONTINUOUS
 62
    30
 10
540.19646697491589
 20
-0.0000000000001137
 30
0.0
 11
540.19646697491589
 21
-199.14285714285731
 31
0.0
  0
CIRCLE
  8
SIZE
  6
CONTINUOUS
 62
    30
 10
540.19646697491589
 20
125.0003999999998
 30
0.0
 40
6.0
  0
LINE
  8
SIZE
  6
CONTINUOUS
 62
    30
 10
540.19646697491589
 20
125.0003999999998
 30
0.0
 11
540.19646697491589
 21
113.0003999999998
 31
0.0
  0
CIRCLE
  8
SIZE
  6
CONTINUOUS
 62
    30
 10
540.19646697491589
 20
-0.0000000000001137
 30
0.0
 40
6.0
  0
LINE
  8
SIZE
  6
CONTINUOUS
 62
    30
 10
540.19646697491589
 20
-0.0000000000001137
 30
0.0
 11
540.19646697491589
 21
11.99999999999989
 31
0.0
  0
TEXT
  8
SIZE
  6
CONTINUOUS
 62
    30
 10
515.19646697491589
 20
-174.1428571428572
 30
0.0
 40
64.0
  1
125
 50
90.0
 41
0.9
 72
     1
 11
515.19646697491589
 21
-105.5714285714287
 31
0.0
  0
POINT
  8
DEFPOINTS
  6
CONTINUOUS
 62
    30
 10
81.700000000000045
 20
125.0003999999999
 30
0.0
  0
POINT
  8
DEFPOINTS
  6
CONTINUOUS
 62
    30
 10
163.0
 20
0.0
 30
0.0
  0
POINT
  8
DEFPOINTS
  6
CONTINUOUS
 62
    30
 10
540.19646697491589
 20
-0.0000000000001137
 30
0.0
  0
LINE
  8
SIZE
  6
CONTINUOUS
 62
    30
 10
79.30671899999993
 20
48.299999999999947
 30
0.0
 11
435.63104259040119
 21
48.299999999999841
 31
0.0
  0
LINE
  8
SIZE
  6
CONTINUOUS
 62
    30
 10
183.0
 20
0.0
 30
0.0
 11
435.63104259040119
 21
-0.0000000000000568
 31
0.0
  0
LINE
  8
SIZE
  6
CONTINUOUS
 62
    30
 10
415.63104259040119
 20
60.299999999999841
 30
0.0
 11
415.63104259040119
 21
72.299999999999841
 31
0.0
  0
LINE
  8
SIZE
  6
CONTINUOUS
 62
    30
 10
415.63104259040119
 20
-12.00000000000006
 30
0.0
 11
415.63104259040108
 21
-167.2571428571429
 31
0.0
  0
LINE
  8
SIZE
  6
CONTINUOUS
 62
    30
 10
415.63104259040119
 20
48.299999999999841
 30
0.0
 11
415.63104259040119
 21
-0.0000000000000568
 31
0.0
  0
CIRCLE
  8
SIZE
  6
CONTINUOUS
 62
    30
 10
415.63104259040119
 20
48.299999999999841
 30
0.0
 40
6.0
  0
LINE
  8
SIZE
  6
CONTINUOUS
 62
    30
 10
415.63104259040119
 20
48.299999999999841
 30
0.0
 11
415.63104259040119
 21
60.299999999999841
 31
0.0
  0
CIRCLE
  8
SIZE
  6
CONTINUOUS
 62
    30
 10
415.63104259040119
 20
-0.0000000000000568
 30
0.0
 40
6.0
  0
LINE
  8
SIZE
  6
CONTINUOUS
 62
    30
 10
415.63104259040119
 20
-0.0000000000000568
 30
0.0
 11
415.63104259040119
 21
-12.00000000000006
 31
0.0
  0
TEXT
  8
SIZE
  6
CONTINUOUS
 62
    30
 10
390.63104259040119
 20
-142.2571428571429
 30
0.0
 40
64.0
  1
48
 50
90.0
 41
0.9
 72
     1
 11
390.63104259040119
 21
-95.628571428571433
 31
0.0
  0
POINT
  8
DEFPOINTS
  6
CONTINUOUS
 62
    30
 10
59.30671899999993
 20
48.299999999999947
 30
0.0
  0
POINT
  8
DEFPOINTS
  6
CONTINUOUS
 62
    30
 10
163.0
 20
0.0
 30
0.0
  0
POINT
  8
DEFPOINTS
  6
CONTINUOUS
 62
    30
 10
415.63104259040119
 20
-0.0000000000000568
 30
0.0
  0
LINE
  8
BASIS
  6
DASHDOT
 62
     6
 10
81.700000000000045
 20
125.0003999999999
 30
0.0
 11
-81.700000000000045
 21
125.0003999999999
 31
0.0
  0
CIRCLE
  8
DETAIL
  6
CONTINUOUS
 62
     5
 10
0.0
 20
125.0003999999999
 30
0.0
 40
76.700000000000003
  0
ARC
  8
OUTLINE
  6
CONTINUOUS
 62
     3
 10
0.0
 20
125.0003999999999
 30
0.0
 40
76.700000000000003
 50
75.184350999996624
 51
131.21204700000101
  0
CIRCLE
  8
DETAIL
  6
CONTINUOUS
 62
     5
 10
0.0
 20
125.0003999999999
 30
0.0
 40
69.0
  0
CIRCLE
  8
DETAIL
  6
CONTINUOUS
 62
     5
 10
0.0
 20
125.0003999999999
 30
0.0
 40
72.0
  0
LINE
  8
DETAIL
  6
CONTINUOUS
 62
     5
 10
0.0
 20
48.299999999999947
 30
0.0
 11
-59.30671899999993
 21
48.299999999999947
 31
0.0
  0
LINE
  8
DETAIL
  6
CONTINUOUS
 62
     5
 10
0.0
 20
48.299999999999947
 30
0.0
 11
59.30671899999993
 21
48.299999999999947
 31
0.0
  0
ARC
  8
DETAIL
  6
CONTINUOUS
 62
     5
 10
-59.700000000000053
 20
65.299999999999955
 30
0.0
 40
17.0
 50
180.0
 51
270.0
  0
ARC
  8
DETAIL
  6
CONTINUOUS
 62
     5
 10
59.700000000000053
 20
65.299999999999955
 30
0.0
 40
17.0
 50
270.0
 51
0.0
  0
LINE
  8
DETAIL
  6
CONTINUOUS
 62
     5
 10
-76.700000000000045
 20
65.299999999999955
 30
0.0
 11
-76.700000000000045
 21
125.0003999999999
 31
0.0
  0
LINE
  8
DETAIL
  6
CONTINUOUS
 62
     5
 10
76.700000000000045
 20
65.299999999999955
 30
0.0
 11
76.700000000000045
 21
125.0003999999999
 31
0.0
  0
LINE
  8
OUTLINE
  6
CONTINUOUS
 62
     3
 10
127.10000000000009
 20
0.0
 30
0.0
 11
164.4731100000001
 21
0.0
 31
0.0
  0
ARC
  8
OUTLINE
  6
CONTINUOUS
 62
     3
 10
157.64946699999999
 20
-17.0
 30
0.0
 40
1.0
 50
270.0
 51
313.499999999995
  0
LINE
  8
OUTLINE
  6
CONTINUOUS
 62
     3
 10
164.0817119999999
 20
-12.274626000000129
 30
0.0
 11
158.33782099999979
 21
-17.725374000000102
 31
0.0
  0
LINE
  8
OUTLINE
  6
CONTINUOUS
 62
     3
 10
164.97242500000019
 20
-0.5261680000000979
 30
0.0
 11
164.39198699999969
 21
-11.60158699999988
 31
0.0
  0
ARC
  8
OUTLINE
  6
CONTINUOUS
 62
     3
 10
163.3933569999997
 20
-11.54925100000014
 30
0.0
 40
1.0
 50
313.499999999995
 51
357.00000000000739
  0
ARC
  8
OUTLINE
  6
CONTINUOUS
 62
     3
 10
164.4731100000001
 20
-0.5
 30
0.0
 40
0.5
 50
357.00000000000739
 51
90.0
  0
LINE
  8
OUTLINE
  6
CONTINUOUS
 62
     3
 10
0.0
 20
-18.0
 30
0.0
 11
157.64946699999999
 21
-18.0
 31
0.0
  0
LINE
  8
OUTLINE
  6
CONTINUOUS
 62
     3
 10
-127.09999999999989
 20
0.0
 30
0.0
 11
-164.47310999999991
 21
0.0
 31
0.0
  0
LINE
  8
OUTLINE
  6
CONTINUOUS
 62
     3
 10
0.0
 20
-18.0
 30
0.0
 11
-157.6494660000001
 21
-18.0
 31
0.0
  0
ARC
  8
OUTLINE
  6
CONTINUOUS
 62
     3
 10
-157.6494660000001
 20
-17.0
 30
0.0
 40
1.0
 50
226.500000000005
 51
270.0
  0
LINE
  8
OUTLINE
  6
CONTINUOUS
 62
     3
 10
-164.08171100000001
 20
-12.274626000000129
 30
0.0
 11
-158.3378210000001
 21
-17.725374000000102
 31
0.0
  0
LINE
  8
OUTLINE
  6
CONTINUOUS
 62
     3
 10
-164.9724249999999
 20
-0.5261680000000979
 30
0.0
 11
-164.39198599999989
 21
-11.60158699999988
 31
0.0
  0
ARC
  8
OUTLINE
  6
CONTINUOUS
 62
     3
 10
-163.3933569999999
 20
-11.54925100000014
 30
0.0
 40
1.0
 50
182.99999999999261
 51
226.500000000005
  0
ARC
  8
OUTLINE
  6
CONTINUOUS
 62
     3
 10
-164.47310999999991
 20
-0.5
 30
0.0
 40
0.5
 50
90.0
 51
182.99999999999261
  0
ARC
  8
OUTLINE
  6
CONTINUOUS
 62
     3
 10
54.500001999999988
 20
193.65039999999999
 30
0.0
 40
5.5
 50
0.0
 51
90.0
  0
LINE
  8
OUTLINE
  6
CONTINUOUS
 62
     3
 10
60.000001999999988
 20
193.65039999999999
 30
0.0
 11
60.000001999999988
 21
182.69999999999999
 31
0.0
  0
LINE
  8
OUTLINE
  6
CONTINUOUS
 62
     3
 10
19.612941999999979
 20
199.15039999999999
 30
0.0
 11
54.500001999999988
 21
199.15039999999999
 31
0.0
  0
LINE
  8
OUTLINE
  6
CONTINUOUS
 62
     3
 10
60.000001999999988
 20
182.69999999999999
 30
0.0
 11
118.9999999999998
 21
182.69999999999999
 31
0.0
  0
LINE
  8
OUTLINE
  6
CONTINUOUS
 62
     3
 10
124.132077
 20
177.78345899999999
 30
0.0
 11
127.10000000000009
 21
0.0
 31
0.0
  0
ARC
  8
OUTLINE
  6
CONTINUOUS
 62
     3
 10
119.1327739999999
 20
177.69999999999999
 30
0.0
 40
5.0
 50
0.9564089999985347
 51
90.0
  0
LINE
  8
OUTLINE
  6
CONTINUOUS
 62
     3
 10
-50.533614000000171
 20
182.69999999999999
 30
0.0
 11
-119.0
 21
182.69999999999999
 31
0.0
  0
LINE
  8
OUTLINE
  6
CONTINUOUS
 62
     3
 10
-124.132077
 20
177.78345899999999
 30
0.0
 11
-127.09999999999989
 21
0.0
 31
0.0
  0
ARC
  8
OUTLINE
  6
CONTINUOUS
 62
     3
 10
-119.132773
 20
177.69999999999999
 30
0.0
 40
5.0
 50
90.0
 51
179.0435910000015
  0
ARC
  8
DETAIL
  6
CONTINUOUS
 62
     5
 10
-119.132773
 20
177.69999999999999
 30
0.0
 40
5.0
 50
90.0
 51
179.0435910000015
  0
LINE
  8
DETAIL
  6
CONTINUOUS
 62
     5
 10
-124.132077
 20
177.78345899999999
 30
0.0
 11
-127.09999999999989
 21
0.0
 31
0.0
  0
LINE
  8
DETAIL
  6
CONTINUOUS
 62
     5
 10
-124.166858
 20
175.69999999999999
 30
0.0
 11
-57.553806000000122
 21
175.69999999999999
 31
0.0
  0
LINE
  8
DETAIL
  6
CONTINUOUS
 62
     5
 10
-50.533614000000171
 20
182.69999999999999
 30
0.0
 11
-119.0
 21
182.69999999999999
 31
0.0
  0
ARC
  8
DETAIL
  6
CONTINUOUS
 62
     5
 10
119.1327739999999
 20
177.69999999999999
 30
0.0
 40
5.0
 50
0.9564089999985347
 51
90.0
  0
LINE
  8
DETAIL
  6
CONTINUOUS
 62
     5
 10
124.132077
 20
177.78345899999999
 30
0.0
 11
127.10000000000009
 21
0.0
 31
0.0
  0
LINE
  8
DETAIL
  6
CONTINUOUS
 62
     5
 10
124.1668580000003
 20
175.69999999999999
 30
0.0
 11
57.553806000000122
 21
175.69999999999999
 31
0.0
  0
LINE
  8
DETAIL
  6
CONTINUOUS
 62
     5
 10
50.533614000000171
 20
182.69999999999999
 30
0.0
 11
118.9999999999998
 21
182.69999999999999
 31
0.0
  0
LINE
  8
DETAIL
  6
CONTINUOUS
 62
     5
 10
19.612941999999979
 20
199.15039999999999
 30
0.0
 11
54.500001999999988
 21
199.15039999999999
 31
0.0
  0
LINE
  8
DETAIL
  6
CONTINUOUS
 62
     5
 10
60.000001999999988
 20
193.65039999999999
 30
0.0
 11
60.000001999999988
 21
182.69999999999999
 31
0.0
  0
ARC
  8
DETAIL
  6
CONTINUOUS
 62
     5
 10
54.500001999999988
 20
193.65039999999999
 30
0.0
 40
5.5
 50
0.0
 51
90.0
  0
LINE
  8
DETAIL
  6
CONTINUOUS
 62
     5
 10
-164.28600800000001
 20
-12.0
 30
0.0
 11
0.0
 21
-12.0
 31
0.0
  0
ARC
  8
DETAIL
  6
CONTINUOUS
 62
     5
 10
-164.47310999999991
 20
-0.5
 30
0.0
 40
0.5
 50
90.0
 51
182.99999999999261
  0
ARC
  8
DETAIL
  6
CONTINUOUS
 62
     5
 10
-163.3933569999999
 20
-11.54925100000003
 30
0.0
 40
1.0
 50
182.99999999999261
 51
226.500000000005
  0
LINE
  8
DETAIL
  6
CONTINUOUS
 62
     5
 10
-164.9724249999999
 20
-0.5261679999999842
 30
0.0
 11
-164.39198599999989
 21
-11.60158699999999
 31
0.0
  0
LINE
  8
DETAIL
  6
CONTINUOUS
 62
     5
 10
-164.08171100000001
 20
-12.27462600000001
 30
0.0
 11
-158.3378210000001
 21
-17.725373999999992
 31
0.0
  0
ARC
  8
DETAIL
  6
CONTINUOUS
 62
     5
 10
-157.6494660000001
 20
-17.0
 30
0.0
 40
1.0
 50
226.500000000005
 51
270.0
  0
LINE
  8
DETAIL
  6
CONTINUOUS
 62
     5
 10
0.0
 20
-18.0
 30
0.0
 11
-157.6494660000001
 21
-18.0
 31
0.0
  0
LINE
  8
DETAIL
  6
CONTINUOUS
 62
     5
 10
0.0
 20
0.0
 30
0.0
 11
-164.47310999999991
 21
0.0
 31
0.0
  0
LINE
  8
DETAIL
  6
CONTINUOUS
 62
     5
 10
164.28600799999981
 20
-12.0
 30
0.0
 11
0.0
 21
-12.0
 31
0.0
  0
LINE
  8
DETAIL
  6
CONTINUOUS
 62
     5
 10
0.0
 20
-18.0
 30
0.0
 11
157.64946699999999
 21
-18.0
 31
0.0
  0
ARC
  8
DETAIL
  6
CONTINUOUS
 62
     5
 10
164.4731100000001
 20
-0.5
 30
0.0
 40
0.5
 50
357.00000000000739
 51
90.0
  0
ARC
  8
DETAIL
  6
CONTINUOUS
 62
     5
 10
163.3933569999997
 20
-11.54925100000003
 30
0.0
 40
1.0
 50
313.499999999995
 51
357.00000000000739
  0
LINE
  8
DETAIL
  6
CONTINUOUS
 62
     5
 10
164.97242500000019
 20
-0.5261679999999842
 30
0.0
 11
164.39198699999969
 21
-11.60158699999999
 31
0.0
  0
LINE
  8
DETAIL
  6
CONTINUOUS
 62
     5
 10
164.0817119999999
 20
-12.27462600000001
 30
0.0
 11
158.33782099999979
 21
-17.725373999999992
 31
0.0
  0
ARC
  8
DETAIL
  6
CONTINUOUS
 62
     5
 10
157.64946699999999
 20
-17.0
 30
0.0
 40
1.0
 50
270.0
 51
313.499999999995
  0
LINE
  8
DETAIL
  6
CONTINUOUS
 62
     5
 10
0.0
 20
0.0
 30
0.0
 11
164.4731100000001
 21
0.0
 31
0.0
  0
ARC
  8
DETAIL
  6
CONTINUOUS
 62
     5
 10
-98.5
 20
192.5
 30
0.0
 40
0.5
 50
0.0
 51
90.0
  0
LINE
  8
DETAIL
  6
CONTINUOUS
 62
     5
 10
-98.5
 20
193.0
 30
0.0
 11
-99.5
 21
193.0
 31
0.0
  0
ARC
  8
DETAIL
  6
CONTINUOUS
 62
     5
 10
-99.5
 20
192.5
 30
0.0
 40
0.5
 50
90.0
 51
180.0
  0
LINE
  8
DETAIL
  6
CONTINUOUS
 62
     5
 10
-103.5989970000001
 20
182.69999999999999
 30
0.0
 11
-99.969846000000189
 21
192.67101
 31
0.0
  0
LINE
  8
DETAIL
  6
CONTINUOUS
 62
     5
 10
-98.0
 20
182.69999999999999
 30
0.0
 11
-98.0
 21
192.5
 31
0.0
  0
ARC
  8
DETAIL
  6
CONTINUOUS
 62
     5
 10
-81.5
 20
192.5
 30
0.0
 40
0.5
 50
90.0
 51
180.0
  0
LINE
  8
DETAIL
  6
CONTINUOUS
 62
     5
 10
-81.5
 20
193.0
 30
0.0
 11
-80.5
 21
193.0
 31
0.0
  0
ARC
  8
DETAIL
  6
CONTINUOUS
 62
     5
 10
-80.5
 20
192.5
 30
0.0
 40
0.5
 50
0.0
 51
90.0
  0
LINE
  8
DETAIL
  6
CONTINUOUS
 62
     5
 10
-76.401002999999946
 20
182.69999999999999
 30
0.0
 11
-80.030154000000039
 21
192.67101
 31
0.0
  0
LINE
  8
DETAIL
  6
CONTINUOUS
 62
     5
 10
-82.0
 20
182.69999999999999
 30
0.0
 11
-82.0
 21
192.5
 31
0.0
  0
ARC
  8
DETAIL
  6
CONTINUOUS
 62
     5
 10
98.499999999999773
 20
192.5
 30
0.0
 40
0.5
 50
90.0
 51
180.0
  0
LINE
  8
DETAIL
  6
CONTINUOUS
 62
     5
 10
98.499999999999773
 20
193.0
 30
0.0
 11
99.499999999999773
 21
193.0
 31
0.0
  0
ARC
  8
DETAIL
  6
CONTINUOUS
 62
     5
 10
99.499999999999773
 20
192.5
 30
0.0
 40
0.5
 50
0.0
 51
90.0
  0
LINE
  8
DETAIL
  6
CONTINUOUS
 62
     5
 10
103.5989969999998
 20
182.69999999999999
 30
0.0
 11
99.969845999999734
 21
192.67101
 31
0.0
  0
LINE
  8
DETAIL
  6
CONTINUOUS
 62
     5
 10
97.999999999999773
 20
182.69999999999999
 30
0.0
 11
97.999999999999773
 21
192.5
 31
0.0
  0
ARC
  8
DETAIL
  6
CONTINUOUS
 62
     5
 10
81.499999999999773
 20
192.5
 30
0.0
 40
0.5
 50
0.0
 51
90.0
  0
LINE
  8
DETAIL
  6
CONTINUOUS
 62
     5
 10
81.499999999999773
 20
193.0
 30
0.0
 11
80.499999999999773
 21
193.0
 31
0.0
  0
ARC
  8
DETAIL
  6
CONTINUOUS
 62
     5
 10
80.499999999999773
 20
192.5
 30
0.0
 40
0.5
 50
90.0
 51
180.0
  0
LINE
  8
DETAIL
  6
CONTINUOUS
 62
     5
 10
76.401002999999719
 20
182.69999999999999
 30
0.0
 11
80.030153999999811
 21
192.67101
 31
0.0
  0
LINE
  8
DETAIL
  6
CONTINUOUS
 62
     5
 10
81.999999999999773
 20
182.69999999999999
 30
0.0
 11
81.999999999999773
 21
192.5
 31
0.0
  0
LINE
  8
BASIS
  6
DASHDOT
 62
     6
 10
0.0
 20
-25.687899000000019
 30
0.0
 11
0.0
 21
214.96338700000001
 31
0.0
  0
LINE
  8
SIZE
  6
CONTINUOUS
 62
    30
 10
-425.6531335920381
 20
200.5319441276857
 30
0.0
 11
-82.707938552264068
 21
139.67680625067649
 31
0.0
  0
LINE
  8
SIZE
  6
CONTINUOUS
 62
    30
 10
82.707938552264125
 20
110.32399374932329
 30
0.0
 11
94.523358345444763
 21
108.2273642849409
 31
0.0
  0
TEXT
  8
SIZE
  6
CONTINUOUS
 62
    30
 10
-410.71316802153359
 20
223.27141785701471
 30
0.0
 40
64.0
  1
φ144
 50
349.9376868346385
 41
0.9
 72
     1
 11
-302.14633929333718
 21
204.00638826428991
 31
0.0
  0
LINE
  8
SIZE
  6
CONTINUOUS
 62
    30
 10
70.8925187590836
 20
112.4206232137058
 30
0.0
 11
-70.8925187590836
 21
137.580176786294
 31
0.0
  0
CIRCLE
  8
SIZE
  6
CONTINUOUS
 62
    30
 10
70.8925187590836
 20
112.4206232137058
 30
0.0
 40
6.0
  0
LINE
  8
SIZE
  6
CONTINUOUS
 62
    30
 10
70.8925187590836
 20
112.4206232137058
 30
0.0
 11
82.707938552264181
 21
110.32399374932329
 31
0.0
  0
CIRCLE
  8
SIZE
  6
CONTINUOUS
 62
    30
 10
-70.8925187590836
 20
137.580176786294
 30
0.0
 40
6.0
  0
LINE
  8
SIZE
  6
CONTINUOUS
 62
    30
 10
-70.8925187590836
 20
137.580176786294
 30
0.0
 11
-82.707938552264068
 21
139.67680625067649
 31
0.0
  0
POINT
  8
DEFPOINTS
  6
CONTINUOUS
 62
    30
 10
-70.8925187590836
 20
137.580176786294
 30
0.0
  0
POINT
  8
DEFPOINTS
  6
CONTINUOUS
 62
    30
 10
70.8925187590836
 20
112.4206232137058
 30
0.0
  0
LINE
  8
SIZE
  6
CONTINUOUS
 62
    30
 10
-379.64408306293791
 20
383.11834773856822
 30
0.0
 11
-73.351976793004951
 21
174.87201016609001
 31
0.0
  0
LINE
  8
SIZE
  6
CONTINUOUS
 62
    30
 10
73.351976793004951
 20
75.128789833909877
 30
0.0
 11
83.275581319679873
 21
68.381785076377923
 31
0.0
  0
TEXT
  8
SIZE
  6
CONTINUOUS
 62
    30
 10
-358.97681232626172
 20
399.29773352352788
 30
0.0
 40
64.0
  1
φ152
 50
325.78842903765252
 41
0.9
 72
     1
 11
-268.92718953563491
 21
338.07348463803851
 31
0.0
  0
LINE
  8
SIZE
  6
CONTINUOUS
 62
    30
 10
63.428372266330143
 20
81.875794591441718
 30
0.0
 11
-63.428372266330143
 21
168.12500540855811
 31
0.0
  0
CIRCLE
  8
SIZE
  6
CONTINUOUS
 62
    30
 10
63.428372266330143
 20
81.875794591441718
 30
0.0
 40
6.0
  0
LINE
  8
SIZE
  6
CONTINUOUS
 62
    30
 10
63.428372266330143
 20
81.875794591441718
 30
0.0
 11
73.351976793004951
 21
75.128789833909877
 31
0.0
  0
CIRCLE
  8
SIZE
  6
CONTINUOUS
 62
    30
 10
-63.428372266330143
 20
168.12500540855811
 30
0.0
 40
6.0
  0
LINE
  8
SIZE
  6
CONTINUOUS
 62
    30
 10
-63.428372266330143
 20
168.12500540855811
 30
0.0
 11
-73.351976793004951
 21
174.87201016609001
 31
0.0
  0
POINT
  8
DEFPOINTS
  6
CONTINUOUS
 62
    30
 10
-63.428372266330143
 20
168.12500540855811
 30
0.0
  0
POINT
  8
DEFPOINTS
  6
CONTINUOUS
 62
    30
 10
63.428372266330143
 20
81.875794591441718
 30
0.0
  0
LINE
  8
SIZE
  6
CONTINUOUS
 62
    30
 10
20.0
 20
201.70039999999989
 30
0.0
 11
809.82202230215262
 21
201.70039999999969
 31
0.0
  0
LINE
  8
SIZE
  6
CONTINUOUS
 62
    30
 10
182.92056190582659
 20
0.0
 30
0.0
 11
809.82202230215262
 21
-0.0000000000001705
 31
0.0
  0
LINE
  8
SIZE
  6
CONTINUOUS
 62
    30
 10
789.82202230215262
 20
189.70039999999969
 30
0.0
 11
789.82202230215262
 21
11.999999999999829
 31
0.0
  0
CIRCLE
  8
SIZE
  6
CONTINUOUS
 62
    30
 10
789.82202230215262
 20
201.70039999999969
 30
0.0
 40
6.0
  0
LINE
  8
SIZE
  6
CONTINUOUS
 62
    30
 10
789.82202230215262
 20
201.70039999999969
 30
0.0
 11
789.82202230215262
 21
189.70039999999969
 31
0.0
  0
CIRCLE
  8
SIZE
  6
CONTINUOUS
 62
    30
 10
789.82202230215262
 20
-0.0000000000001705
 30
0.0
 40
6.0
  0
LINE
  8
SIZE
  6
CONTINUOUS
 62
    30
 10
789.82202230215262
 20
-0.0000000000001705
 30
0.0
 11
789.82202230215262
 21
11.999999999999829
 31
0.0
  0
TEXT
  8
SIZE
  6
CONTINUOUS
 62
    30
 10
764.82202230215262
 20
26.79305714285702
 30
0.0
 40
64.0
  1
202
 50
90.0
 41
0.9
 72
     1
 11
764.82202230215262
 21
100.8501999999999
 31
0.0
  0
POINT
  8
DEFPOINTS
  6
CONTINUOUS
 62
    30
 10
0.0
 20
201.70039999999989
 30
0.0
  0
POINT
  8
DEFPOINTS
  6
CONTINUOUS
 62
    30
 10
162.92056190582659
 20
0.0
 30
0.0
  0
POINT
  8
DEFPOINTS
  6
CONTINUOUS
 62
    30
 10
789.82202230215262
 20
-0.0000000000001705
 30
0.0
  0
TEXT
  8
NOTE
  6
CONTINUOUS
 62
     4
 10
405.20928374857522
 20
298.12119584812763
 30
0.0
 40
63.999999999999993
  1
8-φ5
 41
0.9
  0
LINE
  8
NOTE
  6
CONTINUOUS
 62
     4
 10
658.36576284140119
 20
264.81163520242472
 30
0.0
 11
376.78357073026609
 21
264.81166468140327
 31
0.0
  0
ENDSEC
  0
EOF
