  0
SECTION
  2
HEADER
  9
$ACADVER
  1
AC1009
  9
$DWGCODEPAGE
  3
dos932
  9
$INSBASE
 10
0.0
 20
0.0
 30
0.0
  9
$EXTMIN
 10
-518.07897282408339
 20
-742.76732262546102
 30
-0.0038144062317542
  9
$EXTMAX
 10
843.28938421520434
 20
444.12232230431619
 30
0.0057221914242405
  9
$LIMMIN
 10
-2970.0
 20
-2100.0
  9
$LIMMAX
 10
2970.0
 20
2100.0
  9
$ORTHOMODE
 70
     1
  9
$REGENMODE
 70
     1
  9
$FILLMODE
 70
     1
  9
$QTEXTMODE
 70
     0
  9
$MIRRTEXT
 70
     0
  9
$LTSCALE
 40
20.0
  9
$ATTMODE
 70
     1
  9
$TEXTSIZE
 40
64.0
  9
$TRACEWID
 40
0.05
  9
$TEXTSTYLE
  7
STANDARD
  9
$CLAYER
  8
OUTLINE
  9
$CELTYPE
  6
CONTINUOUS
  9
$CECOLOR
 62
     7
  9
$DIMSCALE
 40
1.0
  9
$DIMASZ
 40
12.0
  9
$DIMEXO
 40
20.0
  9
$DIMDLI
 40
200.0
  9
$DIMRND
 40
0.0
  9
$DIMDLE
 40
0.0
  9
$DIMEXE
 40
20.0
  9
$DIMTP
 40
0.0
  9
$DIMTM
 40
0.0
  9
$DIMTXT
 40
64.0
  9
$DIMCEN
 40
0.09
  9
$DIMTSZ
 40
0.0
  9
$DIMTOL
 70
     0
  9
$DIMLIM
 70
     0
  9
$DIMTIH
 70
     0
  9
$DIMTOH
 70
     0
  9
$DIMSE1
 70
     0
  9
$DIMSE2
 70
     0
  9
$DIMTAD
 70
     1
  9
$DIMZIN
 70
     8
  9
$DIMBLK
  1

  9
$DIMASO
 70
     1
  9
$DIMSHO
 70
     0
  9
$DIMPOST
  1

  9
$DIMAPOST
  1

  9
$DIMALT
 70
     0
  9
$DIMALTD
 70
     2
  9
$DIMALTF
 40
25.399999999999999
  9
$DIMLFAC
 40
1.0
  9
$DIMTOFL
 70
     1
  9
$DIMTVP
 40
0.0
  9
$DIMTIX
 70
     1
  9
$DIMSOXD
 70
     0
  9
$DIMSAH
 70
     0
  9
$DIMBLK1
  1

  9
$DIMBLK2
  1

  9
$DIMSTYLE
  2
STANDARD
  9
$DIMCLRD
 70
     7
  9
$DIMCLRE
 70
     7
  9
$DIMCLRT
 70
     7
  9
$DIMTFAC
 40
1.0
  9
$DIMGAP
 40
25.0
  9
$LUNITS
 70
     2
  9
$LUPREC
 70
     4
  9
$SKETCHINC
 40
0.1
  9
$FILLETRAD
 40
3.0
  9
$AUNITS
 70
     1
  9
$AUPREC
 70
     3
  9
$MENU
  1
ACAD
  9
$ELEVATION
 40
0.0
  9
$PELEVATION
 40
0.0
  9
$THICKNESS
 40
50.0
  9
$LIMCHECK
 70
     0
  9
$CHAMFERA
 40
0.0
  9
$CHAMFERB
 40
0.0
  9
$SKPOLY
 70
     0
  9
$TDCREATE
 40
2453019.62301037
  9
$TDUPDATE
 40
2458899.49983272
  9
$TDINDWG
 40
1.8950431134
  9
$TDUSRTIMER
 40
1.8950431134
  9
$USRTIMER
 70
     1
  9
$ANGBASE
 50
0.0
  9
$ANGDIR
 70
     0
  9
$PDMODE
 70
     3
  9
$PDSIZE
 40
-2.0
  9
$PLINEWID
 40
0.0
  9
$SPLFRAME
 70
     0
  9
$SPLINETYPE
 70
     6
  9
$SPLINESEGS
 70
     8
  9
$SURFTAB1
 70
     6
  9
$SURFTAB2
 70
     6
  9
$SURFTYPE
 70
     6
  9
$SURFU
 70
     6
  9
$SURFV
 70
     6
  9
$UCSNAME
  2

  9
$UCSORG
 10
0.0
 20
0.0
 30
0.0
  9
$UCSXDIR
 10
1.0
 20
0.0
 30
0.0
  9
$UCSYDIR
 10
0.0
 20
1.0
 30
0.0
  9
$PUCSNAME
  2

  9
$PUCSORG
 10
0.0
 20
0.0
 30
0.0
  9
$PUCSXDIR
 10
1.0
 20
0.0
 30
0.0
  9
$PUCSYDIR
 10
0.0
 20
1.0
 30
0.0
  9
$USERI1
 70
     0
  9
$USERI2
 70
     0
  9
$USERI3
 70
     0
  9
$USERI4
 70
     0
  9
$USERI5
 70
     0
  9
$USERR1
 40
20.0
  9
$USERR2
 40
0.0
  9
$USERR3
 40
0.0
  9
$USERR4
 40
0.0
  9
$USERR5
 40
0.0
  9
$WORLDVIEW
 70
     1
  9
$SHADEDGE
 70
     3
  9
$SHADEDIF
 70
    70
  9
$TILEMODE
 70
     1
  9
$MAXACTVP
 70
    48
  9
$PINSBASE
 10
0.0
 20
0.0
 30
0.0
  9
$PLIMCHECK
 70
     0
  9
$PEXTMIN
 10
-100000000000000000000.0
 20
-100000000000000000000.0
 30
-100000000000000000000.0
  9
$PEXTMAX
 10
100000000000000000000.0
 20
100000000000000000000.0
 30
100000000000000000000.0
  9
$PLIMMIN
 10
0.0
 20
0.0
  9
$PLIMMAX
 10
12.0
 20
9.0
  9
$UNITMODE
 70
     0
  9
$VISRETAIN
 70
     0
  9
$PLINEGEN
 70
     0
  9
$PSLTSCALE
 70
     0
  9
$TREEDEPTH
 70
  3020
  9
$ATTDIA
 70
     0
  9
$ATTREQ
 70
     1
  9
$BLIPMODE
 70
     1
  9
$COORDS
 70
     1
  9
$DRAGMODE
 70
     2
  9
$OSMODE
 70
     0
  9
$HANDLING
 70
     0
  9
$HANDSEED
  5
28497
  0
ENDSEC
  0
SECTION
  2
TABLES
  0
TABLE
  2
LTYPE
 70
     3
  0
LTYPE
  2
CONTINUOUS
 70
     0
  3
実線
 72
    65
 73
     0
 40
0.0
  0
LTYPE
  2
DASHDOT
 70
     0
  3
____ _ ____ _ ____ _ ____ _ ____ _ ____ _ ____
 72
    65
 73
     4
 40
5.5
 49
4.0
 49
-0.6
 49
0.3
 49
-0.6
  0
LTYPE
  2
CONTINOUS
 70
     0
  3
Solid line
 72
    65
 73
     0
 40
0.0
  0
ENDTAB
  0
TABLE
  2
LAYER
 70
    12
  0
LAYER
  2
0
 70
     0
 62
     7
  6
CONTINUOUS
  0
LAYER
  2
BASIS
 70
     0
 62
     6
  6
DASHDOT
  0
LAYER
  2
OUTLINE
 70
     0
 62
     3
  6
CONTINUOUS
  0
LAYER
  2
DETAIL
 70
     0
 62
     5
  6
CONTINUOUS
  0
LAYER
  2
SIZE
 70
     0
 62
    30
  6
CONTINUOUS
  0
LAYER
  2
ARRANGE
 70
     0
 62
     1
  6
CONTINUOUS
  0
LAYER
  2
DEFPOINTS
 70
     0
 62
     7
  6
CONTINUOUS
  0
LAYER
  2
ETC
 70
     0
 62
    61
  6
CONTINUOUS
  0
LAYER
  2
NOTE
 70
     0
 62
     4
  6
CONTINUOUS
  0
LAYER
  2
FIX
 70
    64
 62
    11
  6
CONTINUOUS
  0
LAYER
  2
SERVICESPACE
 70
    64
 62
     2
  6
DASHDOT
  0
LAYER
  2
SYMBOLLINE
 70
    64
 62
    15
  6
CONTINUOUS
  0
ENDTAB
  0
TABLE
  2
STYLE
 70
     1
  0
STYLE
  2
STANDARD
 70
     0
 40
64.0
 41
0.9
 50
0.0
 71
     0
 42
64.0
  3
SIMPLEX.shx
  4
BIGFONT.shx
  0
ENDTAB
  0
TABLE
  2
APPID
 70
    17
  0
APPID
  2
ACAD
 70
     0
  0
APPID
  2
AUTOCAD_POSTSCRIPT_FIGURE
 70
     0
  0
APPID
  2
ACAD_EXEMPT_FROM_CAD_STANDARDS
 70
     0
  0
APPID
  2
ACAD_PSEXT
 70
     0
  0
APPID
  2
ACAUTHENVIRON
 70
     0
  0
APPID
  2
GENIUS_GENOENT_13
 70
     0
  0
APPID
  2
GENIUS_GENCFG_13
 70
     0
  0
APPID
  2
GENIUS_GENCFG0_13
 70
     0
  0
APPID
  2
GENIUS_GENCFG1_13
 70
     0
  0
APPID
  2
GENIUS_GENCFG2_13
 70
     0
  0
APPID
  2
GENIUS_GENCFG3_13
 70
     0
  0
APPID
  2
GENIUS_GENCFG4_13
 70
     0
  0
APPID
  2
GENIUS_GEVCFG0_13
 70
     0
  0
APPID
  2
CONTENTBLOCKICON
 70
     0
  0
APPID
  2
CONTENTBLOCKDESCRIPTION
 70
     0
  0
APPID
  2
ACAD_NAV_VCDISPLAY
 70
     0
  0
APPID
  2
ACAD_MLEADERVER
 70
     0
  0
ENDTAB
  0
TABLE
  2
DIMSTYLE
 70
     1
  0
DIMSTYLE
  2
STANDARD
 70
     0
  3

  4

  5
_ORIGIN
  6

  7

 40
1.0
 41
12.0
 42
20.0
 43
200.0
 44
20.0
 45
0.0
 46
0.0
 47
0.0
 48
0.0
140
64.0
141
0.09
142
0.0
143
25.399999999999999
144
1.0
145
0.0
146
1.0
147
25.0
 71
     0
 72
     0
 73
     0
 74
     0
 75
     0
 76
     0
 77
     1
 78
     8
170
     0
171
     2
172
     1
173
     0
174
     1
175
     0
176
     7
177
     7
178
     7
  0
ENDTAB
  0
TABLE
  2
VIEW
 70
     1
  0
VIEW
  2
ALL
 70
     0
 40
4282.6198079999986
 10
0.0
 20
41.309904000000003
 41
5940.0
 11
0.0
 21
0.0
 31
1.0
 12
0.0
 22
0.0
 32
0.0
 42
50.0
 43
0.0
 44
0.0
 50
0.0
 71
     0
  0
ENDTAB
  0
TABLE
  2
UCS
 70
     0
  0
ENDTAB
  0
TABLE
  2
VPORT
 70
     1
  0
VPORT
  2
*ACTIVE
 70
     0
 10
0.0
 20
0.0
 11
1.0
 21
1.0
 12
162.6052056955605
 22
-149.32250016057239
 13
0.0
 23
0.0
 14
1.0
 24
1.0
 15
0.0
 25
0.0
 16
0.0
 26
0.0
 36
1.0
 17
0.0
 27
0.0
 37
0.0
 40
1194.246398927276
 41
1.6339193381592549
 42
50.0
 43
0.0
 44
0.0
 50
0.0
 51
0.0
 71
     0
 72
  1000
 73
     1
 74
     3
 75
     0
 76
     0
 77
     0
 78
     0
  0
ENDTAB
  0
ENDSEC
  0
SECTION
  2
BLOCKS
  0
BLOCK
  8
0
  2
_ORIGIN
 70
     0
 10
0.0
 20
0.0
 30
0.0
  3
_ORIGIN
  1
_ORIGIN
  0
CIRCLE
  8
0
  6
CONTINUOUS
 62
     7
 10
0.0
 20
0.0
 30
0.0
 40
0.5
  0
LINE
  8
0
  6
CONTINUOUS
 62
     7
 10
0.0
 20
0.0
 30
0.0
 11
-1.0
 21
0.0
 31
0.0
  0
ENDBLK
  8
0
  0
ENDSEC
  0
SECTION
  2
ENTITIES
  0
LINE
  8
DETAIL
  6
CONTINUOUS
 62
     5
 10
-139.0
 20
-277.0
 30
0.0
 11
5.0
 21
-277.0
 31
0.0
  0
TEXT
  8
SIZE
  6
CONTINUOUS
 62
    30
 10
-111.90857142857141
 20
321.19570500000009
 30
0.0
 40
64.0
  1
□334
 41
0.9
 72
     1
 11
0.0
 21
321.19570500000009
 31
0.0
  0
LINE
  8
SIZE
  6
CONTINUOUS
 62
    30
 10
155.0
 20
296.19570500000009
 30
0.0
 11
-155.0
 21
296.19570500000009
 31
0.0
  0
LINE
  8
SIZE
  6
CONTINUOUS
 62
    30
 10
8.7887699999999995
 20
-722.65748399999984
 30
0.0
 11
-3.21123
 21
-722.65748399999984
 31
0.0
  0
LINE
  8
SIZE
  6
CONTINUOUS
 62
    30
 10
5.0
 20
-580.97579099999996
 30
0.0
 11
-7.0
 21
-580.97579099999996
 31
0.0
  0
CIRCLE
  8
SIZE
  6
CONTINUOUS
 62
    30
 10
5.0
 20
-580.97579099999996
 30
0.0
 40
6.0
  0
LINE
  8
DETAIL
  6
CONTINUOUS
 62
     5
 10
-147.0
 20
-220.0
 30
0.0
 11
13.0
 21
-220.0
 31
0.0
  0
LINE
  8
DETAIL
  6
CONTINUOUS
 62
     5
 10
-143.0
 20
-250.0
 30
0.0
 11
9.0
 21
-250.0
 31
0.0
  0
LINE
  8
OUTLINE
  6
CONTINUOUS
 62
     3
 10
-149.0
 20
-167.0
 30
0.0
 11
149.0
 21
-167.0
 31
0.0
  0
LINE
  8
OUTLINE
  6
CONTINUOUS
 62
     3
 10
-149.0
 20
167.0
 30
0.0
 11
149.0
 21
167.0
 31
0.0
  0
LINE
  8
DETAIL
  6
CONTINUOUS
 62
     5
 10
-149.0
 20
-167.0
 30
0.0
 11
149.0
 21
-167.0
 31
0.0
  0
LINE
  8
DETAIL
  6
CONTINUOUS
 62
     5
 10
-149.0
 20
167.0
 30
0.0
 11
149.0
 21
167.0
 31
0.0
  0
CIRCLE
  8
ARRANGE
  6
CONTINUOUS
 62
     1
 10
0.0
 20
0.0
 30
0.0
 40
40.0
  0
POINT
  8
ARRANGE
  6
CONTINUOUS
 62
     1
 10
0.0
 20
0.0
 30
0.0
  0
LINE
  8
DETAIL
  6
CONTINUOUS
 62
     5
 10
-151.0
 20
-163.0
 30
0.0
 11
151.0
 21
-163.0
 31
0.0
  0
LINE
  8
DETAIL
  6
CONTINUOUS
 62
     5
 10
-151.0
 20
163.0
 30
0.0
 11
151.0
 21
163.0
 31
0.0
  0
LINE
  8
BASIS
  6
DASHDOT
 62
     6
 10
-207.15975499999999
 20
0.0
 30
0.0
 11
206.926771
 21
0.0
 31
0.0
  0
LINE
  8
OUTLINE
  6
CONTINUOUS
 62
     3
 10
-167.0
 20
-149.0
 30
0.0
 11
-167.0
 21
149.0
 31
0.0
  0
LINE
  8
DETAIL
  6
CONTINUOUS
 62
     5
 10
-167.0
 20
-149.0
 30
0.0
 11
-167.0
 21
149.0
 31
0.0
  0
LINE
  8
DETAIL
  6
CONTINUOUS
 62
     5
 10
-163.0
 20
-151.0
 30
0.0
 11
-163.0
 21
151.0
 31
0.0
  0
LINE
  8
BASIS
  6
DASHDOT
 62
     6
 10
0.0
 20
-206.09844899999999
 30
0.0
 11
0.0
 21
204.6067909999999
 31
0.0
  0
TEXT
  8
SIZE
  6
CONTINUOUS
 62
    30
 10
-385.19773414285709
 20
-697.65748399999995
 30
0.0
 40
64.0
  1
φ152
 41
0.9
 72
     1
 11
-286.45487700000001
 21
-697.65748399999995
 31
0.0
  0
LINE
  8
SIZE
  6
CONTINUOUS
 62
    30
 10
-143.21123
 20
-269.60827399999999
 30
0.0
 11
-143.21123
 21
-742.65748399999984
 31
0.0
  0
LINE
  8
SIZE
  6
CONTINUOUS
 62
    30
 10
-147.21123
 20
-722.65748399999984
 30
0.0
 11
-402.94879500000002
 21
-722.65748399999984
 31
0.0
  0
LINE
  8
SIZE
  6
CONTINUOUS
 62
    30
 10
-408.82630499999999
 20
-722.65748399999984
 30
0.0
 11
-143.21123
 21
-722.65748399999984
 31
0.0
  0
LINE
  8
SIZE
  6
CONTINUOUS
 62
    30
 10
-3.21123
 20
-722.65748399999984
 30
0.0
 11
-131.21123
 21
-722.65748399999984
 31
0.0
  0
POINT
  8
DEFPOINTS
  6
CONTINUOUS
 62
    30
 10
-143.21123
 20
-722.65748399999984
 30
0.0
  0
LINE
  8
SIZE
  6
CONTINUOUS
 62
    30
 10
-143.21123
 20
-722.65748399999984
 30
0.0
 11
-131.21123
 21
-722.65748399999984
 31
0.0
  0
CIRCLE
  8
SIZE
  6
CONTINUOUS
 62
    30
 10
-143.21123
 20
-722.65748399999984
 30
0.0
 40
6.0
  0
TEXT
  8
SIZE
  6
CONTINUOUS
 62
    30
 10
-453.77334300000001
 20
-393.28610942857142
 30
0.0
 40
64.0
  1
57
 50
90.0
 41
0.9
 72
     1
 11
-453.77334300000001
 21
-346.65753799999999
 31
0.0
  0
LINE
  8
SIZE
  6
CONTINUOUS
 62
    30
 10
-300.06717900000001
 20
-261.5
 30
0.0
 11
-300.06717900000001
 21
-404.13275299999998
 31
0.0
  0
LINE
  8
SIZE
  6
CONTINUOUS
 62
    30
 10
-428.74547799999999
 20
-257.5
 30
0.0
 11
-428.74547799999999
 21
-406.69194499999998
 31
0.0
  0
TEXT
  8
SIZE
  6
CONTINUOUS
 62
    30
 10
-324.96700499999997
 20
-392.49669242857141
 30
0.0
 40
64.0
  1
27
 50
90.0
 41
0.9
 72
     1
 11
-324.96700499999997
 21
-345.86812099999997
 31
0.0
  0
LINE
  8
SIZE
  6
CONTINUOUS
 62
    30
 10
-139.0
 20
-297.0
 30
0.0
 11
-139.0
 21
-600.97579099999996
 31
0.0
  0
TEXT
  8
NOTE
  6
CONTINUOUS
 62
     4
 10
-107.637322
 20
-370.14950900000002
 30
0.0
 40
64.0
  1
EA
 41
0.9
  0
LINE
  8
SIZE
  6
CONTINUOUS
 62
    30
 10
-139.21123
 20
-580.97579099999996
 30
0.0
 11
-402.36528299999998
 21
-580.97579099999996
 31
0.0
  0
TEXT
  8
SIZE
  6
CONTINUOUS
 62
    30
 10
-387.19989671428573
 20
-555.97579099999996
 30
0.0
 40
64.0
  1
φ144
 41
0.9
 72
     1
 11
-287.08561099999997
 21
-555.97579099999996
 31
0.0
  0
LINE
  8
SIZE
  6
CONTINUOUS
 62
    30
 10
-410.82846799999999
 20
-580.97579099999996
 30
0.0
 11
-139.0
 21
-580.97579099999996
 31
0.0
  0
LINE
  8
SIZE
  6
CONTINUOUS
 62
    30
 10
-7.0
 20
-580.97579099999996
 30
0.0
 11
-127.0
 21
-580.97579099999996
 31
0.0
  0
POINT
  8
DEFPOINTS
  6
CONTINUOUS
 62
    30
 10
-139.0
 20
-580.97579099999996
 30
0.0
  0
LINE
  8
SIZE
  6
CONTINUOUS
 62
    30
 10
-139.0
 20
-580.97579099999996
 30
0.0
 11
-127.0
 21
-580.97579099999996
 31
0.0
  0
CIRCLE
  8
SIZE
  6
CONTINUOUS
 62
    30
 10
-139.0
 20
-580.97579099999996
 30
0.0
 40
6.0
  0
LINE
  8
SIZE
  6
CONTINUOUS
 62
    30
 10
-167.0
 20
-220.0
 30
0.0
 11
-448.74547799999999
 21
-220.0
 31
0.0
  0
LINE
  8
SIZE
  6
CONTINUOUS
 62
    30
 10
-159.0
 20
-277.0
 30
0.0
 11
-448.74547799999999
 21
-277.0
 31
0.0
  0
LINE
  8
SIZE
  6
CONTINUOUS
 62
    30
 10
-163.0
 20
-250.0
 30
0.0
 11
-320.06717900000001
 21
-250.0
 31
0.0
  0
LINE
  8
SIZE
  6
CONTINUOUS
 62
    30
 10
-159.0
 20
-277.0
 30
0.0
 11
-320.06717900000001
 21
-277.0
 31
0.0
  0
LINE
  8
SIZE
  6
CONTINUOUS
 62
    30
 10
-428.74547799999999
 20
-277.0
 30
0.0
 11
-428.74547799999999
 21
-220.0
 31
0.0
  0
LINE
  8
SIZE
  6
CONTINUOUS
 62
    30
 10
-428.74547799999999
 20
-277.0
 30
0.0
 11
-428.74547799999999
 21
-220.0
 31
0.0
  0
LINE
  8
SIZE
  6
CONTINUOUS
 62
    30
 10
-428.74547799999999
 20
-277.0
 30
0.0
 11
-428.74547799999999
 21
-289.0
 31
0.0
  0
CIRCLE
  8
SIZE
  6
CONTINUOUS
 62
    30
 10
-428.74547799999999
 20
-277.0
 30
0.0
 40
6.0
  0
LINE
  8
SIZE
  6
CONTINUOUS
 62
    30
 10
-428.74547799999999
 20
-289.0
 30
0.0
 11
-428.74547799999999
 21
-301.0
 31
0.0
  0
POINT
  8
DEFPOINTS
  6
CONTINUOUS
 62
    30
 10
-428.74547799999999
 20
-220.0
 30
0.0
  0
CIRCLE
  8
SIZE
  6
CONTINUOUS
 62
    30
 10
-428.74547799999999
 20
-220.0
 30
0.0
 40
6.0
  0
LINE
  8
SIZE
  6
CONTINUOUS
 62
    30
 10
-300.06717900000001
 20
-250.0
 30
0.0
 11
-300.06717900000001
 21
-238.0
 31
0.0
  0
CIRCLE
  8
SIZE
  6
CONTINUOUS
 62
    30
 10
-300.06717900000001
 20
-250.0
 30
0.0
 40
6.0
  0
POINT
  8
DEFPOINTS
  6
CONTINUOUS
 62
    30
 10
-300.06717900000001
 20
-250.0
 30
0.0
  0
LINE
  8
SIZE
  6
CONTINUOUS
 62
    30
 10
-300.06717900000001
 20
-277.0
 30
0.0
 11
-300.06717900000001
 21
-289.0
 31
0.0
  0
CIRCLE
  8
SIZE
  6
CONTINUOUS
 62
    30
 10
-300.06717900000001
 20
-277.0
 30
0.0
 40
6.0
  0
LINE
  8
SIZE
  6
CONTINUOUS
 62
    30
 10
-300.06717900000001
 20
-277.0
 30
0.0
 11
-300.06717900000001
 21
-250.0
 31
0.0
  0
LINE
  8
SIZE
  6
CONTINUOUS
 62
    30
 10
-300.06717900000001
 20
-277.0
 30
0.0
 11
-300.06717900000001
 21
-250.0
 31
0.0
  0
LINE
  8
SIZE
  6
CONTINUOUS
 62
    30
 10
-300.06717900000001
 20
-289.0
 30
0.0
 11
-300.06717900000001
 21
-301.0
 31
0.0
  0
LINE
  8
SIZE
  6
CONTINUOUS
 62
    30
 10
-300.06717900000001
 20
-238.0
 30
0.0
 11
-300.06717900000001
 21
-226.0
 31
0.0
  0
ARC
  8
OUTLINE
  6
CONTINUOUS
 62
     3
 10
-149.0
 20
-149.0
 30
0.0
 40
18.0
 50
180.0
 51
270.0
  0
ARC
  8
DETAIL
  6
CONTINUOUS
 62
     5
 10
-149.0
 20
-149.0
 30
0.0
 40
18.0
 50
180.0
 51
270.0
  0
ARC
  8
DETAIL
  6
CONTINUOUS
 62
     5
 10
-151.0
 20
-151.0
 30
0.0
 40
12.0
 50
180.0
 51
270.0
  0
LINE
  8
BASIS
  6
DASHDOT
 62
     6
 10
-67.0
 20
-299.5
 30
0.0
 11
-67.0
 21
-105.5986809999999
 31
0.0
  0
LINE
  8
DETAIL
  6
CONTINUOUS
 62
     5
 10
-143.0
 20
-250.0
 30
0.0
 11
-143.0
 21
-220.0
 31
0.0
  0
POINT
  8
DEFPOINTS
  6
CONTINUOUS
 62
    30
 10
-139.0
 20
-277.0
 30
0.0
  0
POINT
  8
DEFPOINTS
  6
CONTINUOUS
 62
    30
 10
-143.0
 20
-250.0
 30
0.0
  0
POINT
  8
DEFPOINTS
  6
CONTINUOUS
 62
    30
 10
-139.0
 20
-277.0
 30
0.0
  0
POINT
  8
DEFPOINTS
  6
CONTINUOUS
 62
    30
 10
-143.21123
 20
-249.60827399999999
 30
0.0
  0
POINT
  8
DEFPOINTS
  6
CONTINUOUS
 62
    30
 10
-139.0
 20
-277.0
 30
0.0
  0
LINE
  8
DETAIL
  6
CONTINUOUS
 62
     5
 10
-139.0
 20
-277.0
 30
0.0
 11
-139.0
 21
-250.0
 31
0.0
  0
POINT
  8
DEFPOINTS
  6
CONTINUOUS
 62
    30
 10
-147.0
 20
-220.0
 30
0.0
  0
POINT
  8
DEFPOINTS
  6
CONTINUOUS
 62
    30
 10
-147.21123
 20
-219.60827399999991
 30
0.0
  0
LINE
  8
DETAIL
  6
CONTINUOUS
 62
     5
 10
-149.0
 20
-167.0
 30
0.0
 11
-147.0
 21
-167.0
 31
0.0
  0
LINE
  8
DETAIL
  6
CONTINUOUS
 62
     5
 10
-147.0
 20
-220.0
 30
0.0
 11
-147.0
 21
-167.0
 31
0.0
  0
LINE
  8
DETAIL
  6
CONTINOUS
 62
     5
 10
-106.90000000000001
 20
-1.899999999999977
 30
0.0
 11
-117.90000000000001
 21
-1.899999999999977
 31
0.0
  0
LINE
  8
DETAIL
  6
CONTINOUS
 62
     5
 10
-106.90000000000001
 20
-9.2999999999999545
 30
0.0
 11
-117.90000000000001
 21
-9.2999999999999545
 31
0.0
  0
LINE
  8
DETAIL
  6
CONTINOUS
 62
     5
 10
-106.90000000000001
 20
-19.299999999999951
 30
0.0
 11
-117.90000000000001
 21
-19.299999999999951
 31
0.0
  0
LINE
  8
DETAIL
  6
CONTINOUS
 62
     5
 10
-106.90000000000001
 20
-11.899999999999981
 30
0.0
 11
-117.90000000000001
 21
-11.899999999999981
 31
0.0
  0
LINE
  8
DETAIL
  6
CONTINOUS
 62
     5
 10
-106.90000000000001
 20
-29.299999999999951
 30
0.0
 11
-117.90000000000001
 21
-29.299999999999951
 31
0.0
  0
LINE
  8
DETAIL
  6
CONTINOUS
 62
     5
 10
-106.90000000000001
 20
-21.899999999999981
 30
0.0
 11
-117.90000000000001
 21
-21.899999999999981
 31
0.0
  0
LINE
  8
DETAIL
  6
CONTINOUS
 62
     5
 10
-106.90000000000001
 20
-39.299999999999947
 30
0.0
 11
-117.90000000000001
 21
-39.299999999999947
 31
0.0
  0
LINE
  8
DETAIL
  6
CONTINOUS
 62
     5
 10
-106.90000000000001
 20
-31.899999999999981
 30
0.0
 11
-117.90000000000001
 21
-31.899999999999981
 31
0.0
  0
LINE
  8
DETAIL
  6
CONTINOUS
 62
     5
 10
-106.90000000000001
 20
-49.299999999999947
 30
0.0
 11
-117.90000000000001
 21
-49.299999999999947
 31
0.0
  0
LINE
  8
DETAIL
  6
CONTINOUS
 62
     5
 10
-106.90000000000001
 20
-41.899999999999977
 30
0.0
 11
-117.90000000000001
 21
-41.899999999999977
 31
0.0
  0
LINE
  8
DETAIL
  6
CONTINOUS
 62
     5
 10
-106.90000000000001
 20
-59.299999999999947
 30
0.0
 11
-117.90000000000001
 21
-59.299999999999947
 31
0.0
  0
LINE
  8
DETAIL
  6
CONTINOUS
 62
     5
 10
-106.90000000000001
 20
-51.899999999999977
 30
0.0
 11
-117.90000000000001
 21
-51.899999999999977
 31
0.0
  0
LINE
  8
DETAIL
  6
CONTINOUS
 62
     5
 10
-106.90000000000001
 20
-69.299999999999955
 30
0.0
 11
-117.90000000000001
 21
-69.299999999999955
 31
0.0
  0
LINE
  8
DETAIL
  6
CONTINOUS
 62
     5
 10
-106.90000000000001
 20
-61.899999999999977
 30
0.0
 11
-117.90000000000001
 21
-61.899999999999977
 31
0.0
  0
LINE
  8
DETAIL
  6
CONTINOUS
 62
     5
 10
-106.90000000000001
 20
-79.299999999999955
 30
0.0
 11
-117.90000000000001
 21
-79.299999999999955
 31
0.0
  0
LINE
  8
DETAIL
  6
CONTINOUS
 62
     5
 10
-106.90000000000001
 20
-71.899999999999977
 30
0.0
 11
-117.90000000000001
 21
-71.899999999999977
 31
0.0
  0
LINE
  8
DETAIL
  6
CONTINOUS
 62
     5
 10
-106.90000000000001
 20
-89.299999999999955
 30
0.0
 11
-117.90000000000001
 21
-89.299999999999955
 31
0.0
  0
LINE
  8
DETAIL
  6
CONTINOUS
 62
     5
 10
-106.90000000000001
 20
-81.899999999999977
 30
0.0
 11
-117.90000000000001
 21
-81.899999999999977
 31
0.0
  0
LINE
  8
DETAIL
  6
CONTINOUS
 62
     5
 10
-106.90000000000001
 20
-99.299999999999955
 30
0.0
 11
-117.90000000000001
 21
-99.299999999999955
 31
0.0
  0
LINE
  8
DETAIL
  6
CONTINOUS
 62
     5
 10
-106.90000000000001
 20
-91.899999999999977
 30
0.0
 11
-117.90000000000001
 21
-91.899999999999977
 31
0.0
  0
LINE
  8
DETAIL
  6
CONTINOUS
 62
     5
 10
-106.90000000000001
 20
-109.3
 30
0.0
 11
-117.90000000000001
 21
-109.3
 31
0.0
  0
LINE
  8
DETAIL
  6
CONTINOUS
 62
     5
 10
-106.90000000000001
 20
-101.90000000000001
 30
0.0
 11
-117.90000000000001
 21
-101.90000000000001
 31
0.0
  0
LINE
  8
DETAIL
  6
CONTINOUS
 62
     5
 10
-106.90000000000001
 20
-119.3
 30
0.0
 11
-117.90000000000001
 21
-119.3
 31
0.0
  0
LINE
  8
DETAIL
  6
CONTINOUS
 62
     5
 10
-106.90000000000001
 20
-111.90000000000001
 30
0.0
 11
-117.90000000000001
 21
-111.90000000000001
 31
0.0
  0
ARC
  8
DETAIL
  6
CONTINOUS
 62
     5
 10
-117.90000000000001
 20
-84.200000000000045
 30
0.0
 40
2.2999999999999998
 50
90.0
 51
180.0
  0
ARC
  8
DETAIL
  6
CONTINOUS
 62
     5
 10
-117.90000000000001
 20
-87.0
 30
0.0
 40
2.2999999999999998
 50
180.0
 51
270.0
  0
LINE
  8
DETAIL
  6
CONTINOUS
 62
     5
 10
-120.2
 20
-84.200000000000045
 30
0.0
 11
-120.2
 21
-87.0
 31
0.0
  0
ARC
  8
DETAIL
  6
CONTINOUS
 62
     5
 10
-117.90000000000001
 20
-97.0
 30
0.0
 40
2.2999999999999998
 50
180.0
 51
270.0
  0
LINE
  8
DETAIL
  6
CONTINOUS
 62
     5
 10
-120.2
 20
-94.200000000000045
 30
0.0
 11
-120.2
 21
-97.0
 31
0.0
  0
ARC
  8
DETAIL
  6
CONTINOUS
 62
     5
 10
-117.90000000000001
 20
-94.200000000000045
 30
0.0
 40
2.2999999999999998
 50
90.0
 51
180.0
  0
ARC
  8
DETAIL
  6
CONTINOUS
 62
     5
 10
-117.90000000000001
 20
-107.0
 30
0.0
 40
2.2999999999999998
 50
180.0
 51
270.0
  0
LINE
  8
DETAIL
  6
CONTINOUS
 62
     5
 10
-120.2
 20
-104.2
 30
0.0
 11
-120.2
 21
-107.0
 31
0.0
  0
ARC
  8
DETAIL
  6
CONTINOUS
 62
     5
 10
-117.90000000000001
 20
-104.2
 30
0.0
 40
2.2999999999999998
 50
90.0
 51
180.0
  0
ARC
  8
DETAIL
  6
CONTINOUS
 62
     5
 10
-117.90000000000001
 20
-117.0
 30
0.0
 40
2.2999999999999998
 50
180.0
 51
270.0
  0
LINE
  8
DETAIL
  6
CONTINOUS
 62
     5
 10
-120.2
 20
-114.2
 30
0.0
 11
-120.2
 21
-117.0
 31
0.0
  0
ARC
  8
DETAIL
  6
CONTINOUS
 62
     5
 10
-117.90000000000001
 20
-114.2
 30
0.0
 40
2.2999999999999998
 50
90.0
 51
180.0
  0
ARC
  8
DETAIL
  6
CONTINOUS
 62
     5
 10
-117.90000000000001
 20
-4.2000000000000446
 30
0.0
 40
2.2999999999999998
 50
90.0
 51
180.0
  0
LINE
  8
DETAIL
  6
CONTINOUS
 62
     5
 10
-120.2
 20
-4.2000000000000446
 30
0.0
 11
-120.2
 21
-7.0
 31
0.0
  0
ARC
  8
DETAIL
  6
CONTINOUS
 62
     5
 10
-117.90000000000001
 20
-7.0
 30
0.0
 40
2.2999999999999998
 50
180.0
 51
270.0
  0
ARC
  8
DETAIL
  6
CONTINOUS
 62
     5
 10
-117.90000000000001
 20
-17.0
 30
0.0
 40
2.2999999999999998
 50
180.0
 51
270.0
  0
LINE
  8
DETAIL
  6
CONTINOUS
 62
     5
 10
-120.2
 20
-14.200000000000051
 30
0.0
 11
-120.2
 21
-17.0
 31
0.0
  0
ARC
  8
DETAIL
  6
CONTINOUS
 62
     5
 10
-117.90000000000001
 20
-14.200000000000051
 30
0.0
 40
2.2999999999999998
 50
90.0
 51
180.0
  0
ARC
  8
DETAIL
  6
CONTINOUS
 62
     5
 10
-117.90000000000001
 20
-27.0
 30
0.0
 40
2.2999999999999998
 50
180.0
 51
270.0
  0
LINE
  8
DETAIL
  6
CONTINOUS
 62
     5
 10
-120.2
 20
-24.200000000000049
 30
0.0
 11
-120.2
 21
-27.0
 31
0.0
  0
ARC
  8
DETAIL
  6
CONTINOUS
 62
     5
 10
-117.90000000000001
 20
-24.200000000000049
 30
0.0
 40
2.2999999999999998
 50
90.0
 51
180.0
  0
ARC
  8
DETAIL
  6
CONTINOUS
 62
     5
 10
-117.90000000000001
 20
-37.0
 30
0.0
 40
2.2999999999999998
 50
180.0
 51
270.0
  0
LINE
  8
DETAIL
  6
CONTINOUS
 62
     5
 10
-120.2
 20
-34.200000000000053
 30
0.0
 11
-120.2
 21
-37.0
 31
0.0
  0
ARC
  8
DETAIL
  6
CONTINOUS
 62
     5
 10
-117.90000000000001
 20
-34.200000000000053
 30
0.0
 40
2.2999999999999998
 50
90.0
 51
180.0
  0
ARC
  8
DETAIL
  6
CONTINOUS
 62
     5
 10
-117.90000000000001
 20
-47.0
 30
0.0
 40
2.2999999999999998
 50
180.0
 51
270.0
  0
LINE
  8
DETAIL
  6
CONTINOUS
 62
     5
 10
-120.2
 20
-44.200000000000053
 30
0.0
 11
-120.2
 21
-47.0
 31
0.0
  0
ARC
  8
DETAIL
  6
CONTINOUS
 62
     5
 10
-117.90000000000001
 20
-44.200000000000053
 30
0.0
 40
2.2999999999999998
 50
90.0
 51
180.0
  0
ARC
  8
DETAIL
  6
CONTINOUS
 62
     5
 10
-117.90000000000001
 20
-57.0
 30
0.0
 40
2.2999999999999998
 50
180.0
 51
270.0
  0
LINE
  8
DETAIL
  6
CONTINOUS
 62
     5
 10
-120.2
 20
-54.200000000000053
 30
0.0
 11
-120.2
 21
-57.0
 31
0.0
  0
ARC
  8
DETAIL
  6
CONTINOUS
 62
     5
 10
-117.90000000000001
 20
-54.200000000000053
 30
0.0
 40
2.2999999999999998
 50
90.0
 51
180.0
  0
ARC
  8
DETAIL
  6
CONTINOUS
 62
     5
 10
-117.90000000000001
 20
-67.0
 30
0.0
 40
2.2999999999999998
 50
180.0
 51
270.0
  0
LINE
  8
DETAIL
  6
CONTINOUS
 62
     5
 10
-120.2
 20
-64.200000000000045
 30
0.0
 11
-120.2
 21
-67.0
 31
0.0
  0
ARC
  8
DETAIL
  6
CONTINOUS
 62
     5
 10
-117.90000000000001
 20
-64.200000000000045
 30
0.0
 40
2.2999999999999998
 50
90.0
 51
180.0
  0
ARC
  8
DETAIL
  6
CONTINOUS
 62
     5
 10
-117.90000000000001
 20
-77.0
 30
0.0
 40
2.2999999999999998
 50
180.0
 51
270.0
  0
LINE
  8
DETAIL
  6
CONTINOUS
 62
     5
 10
-120.2
 20
-74.200000000000045
 30
0.0
 11
-120.2
 21
-77.0
 31
0.0
  0
ARC
  8
DETAIL
  6
CONTINOUS
 62
     5
 10
-117.90000000000001
 20
-74.200000000000045
 30
0.0
 40
2.2999999999999998
 50
90.0
 51
180.0
  0
ARC
  8
DETAIL
  6
CONTINOUS
 62
     5
 10
-5.7000000000000446
 20
-84.200000000000045
 30
0.0
 40
2.2999999999999998
 50
0.0
 51
90.0
  0
ARC
  8
DETAIL
  6
CONTINOUS
 62
     5
 10
-16.699999999999989
 20
-84.200000000000045
 30
0.0
 40
2.2999999999999998
 50
90.0
 51
180.0
  0
ARC
  8
DETAIL
  6
CONTINOUS
 62
     5
 10
-35.5
 20
-84.200000000000045
 30
0.0
 40
2.2999999999999998
 50
90.0
 51
180.0
  0
ARC
  8
DETAIL
  6
CONTINOUS
 62
     5
 10
-24.5
 20
-84.200000000000045
 30
0.0
 40
2.2999999999999998
 50
0.0
 51
90.0
  0
ARC
  8
DETAIL
  6
CONTINOUS
 62
     5
 10
-65.699999999999989
 20
-84.200000000000045
 30
0.0
 40
2.2999999999999998
 50
0.0
 51
90.0
  0
ARC
  8
DETAIL
  6
CONTINOUS
 62
     5
 10
-76.699999999999989
 20
-84.200000000000045
 30
0.0
 40
2.2999999999999998
 50
90.0
 51
180.0
  0
ARC
  8
DETAIL
  6
CONTINOUS
 62
     5
 10
-57.899999999999977
 20
-84.200000000000045
 30
0.0
 40
2.2999999999999998
 50
90.0
 51
180.0
  0
ARC
  8
DETAIL
  6
CONTINOUS
 62
     5
 10
-46.899999999999977
 20
-84.200000000000045
 30
0.0
 40
2.2999999999999998
 50
0.0
 51
90.0
  0
ARC
  8
DETAIL
  6
CONTINOUS
 62
     5
 10
-106.90000000000001
 20
-84.200000000000045
 30
0.0
 40
2.2999999999999998
 50
0.0
 51
90.0
  0
ARC
  8
DETAIL
  6
CONTINOUS
 62
     5
 10
-99.100000000000023
 20
-84.200000000000045
 30
0.0
 40
2.2999999999999998
 50
90.0
 51
180.0
  0
ARC
  8
DETAIL
  6
CONTINOUS
 62
     5
 10
-88.099999999999966
 20
-84.200000000000045
 30
0.0
 40
2.2999999999999998
 50
0.0
 51
90.0
  0
ARC
  8
DETAIL
  6
CONTINOUS
 62
     5
 10
-57.899999999999977
 20
-114.2
 30
0.0
 40
2.2999999999999998
 50
90.0
 51
180.0
  0
ARC
  8
DETAIL
  6
CONTINOUS
 62
     5
 10
-57.899999999999977
 20
-117.0
 30
0.0
 40
2.2999999999999998
 50
180.0
 51
270.0
  0
ARC
  8
DETAIL
  6
CONTINOUS
 62
     5
 10
-57.899999999999977
 20
-104.2
 30
0.0
 40
2.2999999999999998
 50
90.0
 51
180.0
  0
ARC
  8
DETAIL
  6
CONTINOUS
 62
     5
 10
-57.899999999999977
 20
-107.0
 30
0.0
 40
2.2999999999999998
 50
180.0
 51
270.0
  0
ARC
  8
DETAIL
  6
CONTINOUS
 62
     5
 10
-57.899999999999977
 20
-94.200000000000045
 30
0.0
 40
2.2999999999999998
 50
90.0
 51
180.0
  0
ARC
  8
DETAIL
  6
CONTINOUS
 62
     5
 10
-57.899999999999977
 20
-97.0
 30
0.0
 40
2.2999999999999998
 50
180.0
 51
270.0
  0
ARC
  8
DETAIL
  6
CONTINOUS
 62
     5
 10
-57.899999999999977
 20
-87.0
 30
0.0
 40
2.2999999999999998
 50
180.0
 51
270.0
  0
ARC
  8
DETAIL
  6
CONTINOUS
 62
     5
 10
-65.699999999999989
 20
-87.0
 30
0.0
 40
2.2999999999999998
 50
270.0
 51
0.0
  0
LINE
  8
DETAIL
  6
CONTINOUS
 62
     5
 10
-65.699999999999989
 20
-89.299999999999955
 30
0.0
 11
-76.699999999999989
 21
-89.299999999999955
 31
0.0
  0
LINE
  8
DETAIL
  6
CONTINOUS
 62
     5
 10
-63.399999999999977
 20
-84.200000000000045
 30
0.0
 11
-63.399999999999977
 21
-87.0
 31
0.0
  0
ARC
  8
DETAIL
  6
CONTINOUS
 62
     5
 10
-76.699999999999989
 20
-87.0
 30
0.0
 40
2.2999999999999998
 50
180.0
 51
270.0
  0
LINE
  8
DETAIL
  6
CONTINOUS
 62
     5
 10
-79.0
 20
-84.200000000000045
 30
0.0
 11
-79.0
 21
-87.0
 31
0.0
  0
ARC
  8
DETAIL
  6
CONTINOUS
 62
     5
 10
-65.699999999999989
 20
-97.0
 30
0.0
 40
2.2999999999999998
 50
270.0
 51
0.0
  0
LINE
  8
DETAIL
  6
CONTINOUS
 62
     5
 10
-65.699999999999989
 20
-99.299999999999955
 30
0.0
 11
-76.699999999999989
 21
-99.299999999999955
 31
0.0
  0
LINE
  8
DETAIL
  6
CONTINOUS
 62
     5
 10
-63.399999999999977
 20
-94.200000000000045
 30
0.0
 11
-63.399999999999977
 21
-97.0
 31
0.0
  0
ARC
  8
DETAIL
  6
CONTINOUS
 62
     5
 10
-65.699999999999989
 20
-94.200000000000045
 30
0.0
 40
2.2999999999999998
 50
0.0
 51
90.0
  0
LINE
  8
DETAIL
  6
CONTINOUS
 62
     5
 10
-65.699999999999989
 20
-91.899999999999977
 30
0.0
 11
-76.699999999999989
 21
-91.899999999999977
 31
0.0
  0
ARC
  8
DETAIL
  6
CONTINOUS
 62
     5
 10
-76.699999999999989
 20
-97.0
 30
0.0
 40
2.2999999999999998
 50
180.0
 51
270.0
  0
LINE
  8
DETAIL
  6
CONTINOUS
 62
     5
 10
-79.0
 20
-94.200000000000045
 30
0.0
 11
-79.0
 21
-97.0
 31
0.0
  0
ARC
  8
DETAIL
  6
CONTINOUS
 62
     5
 10
-76.699999999999989
 20
-94.200000000000045
 30
0.0
 40
2.2999999999999998
 50
90.0
 51
180.0
  0
ARC
  8
DETAIL
  6
CONTINOUS
 62
     5
 10
-65.699999999999989
 20
-107.0
 30
0.0
 40
2.2999999999999998
 50
270.0
 51
0.0
  0
LINE
  8
DETAIL
  6
CONTINOUS
 62
     5
 10
-65.699999999999989
 20
-109.3
 30
0.0
 11
-76.699999999999989
 21
-109.3
 31
0.0
  0
LINE
  8
DETAIL
  6
CONTINOUS
 62
     5
 10
-63.399999999999977
 20
-104.2
 30
0.0
 11
-63.399999999999977
 21
-107.0
 31
0.0
  0
ARC
  8
DETAIL
  6
CONTINOUS
 62
     5
 10
-65.699999999999989
 20
-104.2
 30
0.0
 40
2.2999999999999998
 50
0.0
 51
90.0
  0
LINE
  8
DETAIL
  6
CONTINOUS
 62
     5
 10
-65.699999999999989
 20
-101.90000000000001
 30
0.0
 11
-76.699999999999989
 21
-101.90000000000001
 31
0.0
  0
ARC
  8
DETAIL
  6
CONTINOUS
 62
     5
 10
-76.699999999999989
 20
-107.0
 30
0.0
 40
2.2999999999999998
 50
180.0
 51
270.0
  0
LINE
  8
DETAIL
  6
CONTINOUS
 62
     5
 10
-79.0
 20
-104.2
 30
0.0
 11
-79.0
 21
-107.0
 31
0.0
  0
ARC
  8
DETAIL
  6
CONTINOUS
 62
     5
 10
-76.699999999999989
 20
-104.2
 30
0.0
 40
2.2999999999999998
 50
90.0
 51
180.0
  0
ARC
  8
DETAIL
  6
CONTINOUS
 62
     5
 10
-65.699999999999989
 20
-117.0
 30
0.0
 40
2.2999999999999998
 50
270.0
 51
0.0
  0
LINE
  8
DETAIL
  6
CONTINOUS
 62
     5
 10
-65.699999999999989
 20
-119.3
 30
0.0
 11
-76.699999999999989
 21
-119.3
 31
0.0
  0
LINE
  8
DETAIL
  6
CONTINOUS
 62
     5
 10
-63.399999999999977
 20
-114.2
 30
0.0
 11
-63.399999999999977
 21
-117.0
 31
0.0
  0
ARC
  8
DETAIL
  6
CONTINOUS
 62
     5
 10
-65.699999999999989
 20
-114.2
 30
0.0
 40
2.2999999999999998
 50
0.0
 51
90.0
  0
LINE
  8
DETAIL
  6
CONTINOUS
 62
     5
 10
-65.699999999999989
 20
-111.90000000000001
 30
0.0
 11
-76.699999999999989
 21
-111.90000000000001
 31
0.0
  0
ARC
  8
DETAIL
  6
CONTINOUS
 62
     5
 10
-76.699999999999989
 20
-117.0
 30
0.0
 40
2.2999999999999998
 50
180.0
 51
270.0
  0
LINE
  8
DETAIL
  6
CONTINOUS
 62
     5
 10
-79.0
 20
-114.2
 30
0.0
 11
-79.0
 21
-117.0
 31
0.0
  0
ARC
  8
DETAIL
  6
CONTINOUS
 62
     5
 10
-76.699999999999989
 20
-114.2
 30
0.0
 40
2.2999999999999998
 50
90.0
 51
180.0
  0
LINE
  8
DETAIL
  6
CONTINOUS
 62
     5
 10
-60.199999999999989
 20
-114.2
 30
0.0
 11
-60.199999999999989
 21
-117.0
 31
0.0
  0
LINE
  8
DETAIL
  6
CONTINOUS
 62
     5
 10
-60.199999999999989
 20
-104.2
 30
0.0
 11
-60.199999999999989
 21
-107.0
 31
0.0
  0
LINE
  8
DETAIL
  6
CONTINOUS
 62
     5
 10
-60.199999999999989
 20
-94.200000000000045
 30
0.0
 11
-60.199999999999989
 21
-97.0
 31
0.0
  0
LINE
  8
DETAIL
  6
CONTINOUS
 62
     5
 10
-60.199999999999989
 20
-84.200000000000045
 30
0.0
 11
-60.199999999999989
 21
-87.0
 31
0.0
  0
ARC
  8
DETAIL
  6
CONTINOUS
 62
     5
 10
-106.90000000000001
 20
-87.0
 30
0.0
 40
2.2999999999999998
 50
270.0
 51
0.0
  0
LINE
  8
DETAIL
  6
CONTINOUS
 62
     5
 10
-104.59999999999999
 20
-84.200000000000045
 30
0.0
 11
-104.59999999999999
 21
-87.0
 31
0.0
  0
ARC
  8
DETAIL
  6
CONTINOUS
 62
     5
 10
-106.90000000000001
 20
-97.0
 30
0.0
 40
2.2999999999999998
 50
270.0
 51
0.0
  0
LINE
  8
DETAIL
  6
CONTINOUS
 62
     5
 10
-104.59999999999999
 20
-94.200000000000045
 30
0.0
 11
-104.59999999999999
 21
-97.0
 31
0.0
  0
ARC
  8
DETAIL
  6
CONTINOUS
 62
     5
 10
-106.90000000000001
 20
-94.200000000000045
 30
0.0
 40
2.2999999999999998
 50
0.0
 51
90.0
  0
ARC
  8
DETAIL
  6
CONTINOUS
 62
     5
 10
-106.90000000000001
 20
-107.0
 30
0.0
 40
2.2999999999999998
 50
270.0
 51
0.0
  0
LINE
  8
DETAIL
  6
CONTINOUS
 62
     5
 10
-104.59999999999999
 20
-104.2
 30
0.0
 11
-104.59999999999999
 21
-107.0
 31
0.0
  0
ARC
  8
DETAIL
  6
CONTINOUS
 62
     5
 10
-106.90000000000001
 20
-104.2
 30
0.0
 40
2.2999999999999998
 50
0.0
 51
90.0
  0
ARC
  8
DETAIL
  6
CONTINOUS
 62
     5
 10
-106.90000000000001
 20
-117.0
 30
0.0
 40
2.2999999999999998
 50
270.0
 51
0.0
  0
LINE
  8
DETAIL
  6
CONTINOUS
 62
     5
 10
-104.59999999999999
 20
-114.2
 30
0.0
 11
-104.59999999999999
 21
-117.0
 31
0.0
  0
ARC
  8
DETAIL
  6
CONTINOUS
 62
     5
 10
-106.90000000000001
 20
-114.2
 30
0.0
 40
2.2999999999999998
 50
0.0
 51
90.0
  0
ARC
  8
DETAIL
  6
CONTINOUS
 62
     5
 10
-99.100000000000023
 20
-114.2
 30
0.0
 40
2.2999999999999998
 50
90.0
 51
180.0
  0
LINE
  8
DETAIL
  6
CONTINOUS
 62
     5
 10
-101.40000000000001
 20
-114.2
 30
0.0
 11
-101.40000000000001
 21
-117.0
 31
0.0
  0
ARC
  8
DETAIL
  6
CONTINOUS
 62
     5
 10
-99.100000000000023
 20
-117.0
 30
0.0
 40
2.2999999999999998
 50
180.0
 51
270.0
  0
LINE
  8
DETAIL
  6
CONTINOUS
 62
     5
 10
-88.099999999999966
 20
-111.90000000000001
 30
0.0
 11
-99.100000000000023
 21
-111.90000000000001
 31
0.0
  0
ARC
  8
DETAIL
  6
CONTINOUS
 62
     5
 10
-88.099999999999966
 20
-114.2
 30
0.0
 40
2.2999999999999998
 50
0.0
 51
90.0
  0
LINE
  8
DETAIL
  6
CONTINOUS
 62
     5
 10
-85.799999999999955
 20
-114.2
 30
0.0
 11
-85.799999999999955
 21
-117.0
 31
0.0
  0
LINE
  8
DETAIL
  6
CONTINOUS
 62
     5
 10
-88.099999999999966
 20
-119.3
 30
0.0
 11
-99.100000000000023
 21
-119.3
 31
0.0
  0
ARC
  8
DETAIL
  6
CONTINOUS
 62
     5
 10
-88.099999999999966
 20
-117.0
 30
0.0
 40
2.2999999999999998
 50
270.0
 51
0.0
  0
ARC
  8
DETAIL
  6
CONTINOUS
 62
     5
 10
-99.100000000000023
 20
-104.2
 30
0.0
 40
2.2999999999999998
 50
90.0
 51
180.0
  0
LINE
  8
DETAIL
  6
CONTINOUS
 62
     5
 10
-101.40000000000001
 20
-104.2
 30
0.0
 11
-101.40000000000001
 21
-107.0
 31
0.0
  0
ARC
  8
DETAIL
  6
CONTINOUS
 62
     5
 10
-99.100000000000023
 20
-107.0
 30
0.0
 40
2.2999999999999998
 50
180.0
 51
270.0
  0
LINE
  8
DETAIL
  6
CONTINOUS
 62
     5
 10
-88.099999999999966
 20
-101.90000000000001
 30
0.0
 11
-99.100000000000023
 21
-101.90000000000001
 31
0.0
  0
ARC
  8
DETAIL
  6
CONTINOUS
 62
     5
 10
-88.099999999999966
 20
-104.2
 30
0.0
 40
2.2999999999999998
 50
0.0
 51
90.0
  0
LINE
  8
DETAIL
  6
CONTINOUS
 62
     5
 10
-85.799999999999955
 20
-104.2
 30
0.0
 11
-85.799999999999955
 21
-107.0
 31
0.0
  0
LINE
  8
DETAIL
  6
CONTINOUS
 62
     5
 10
-88.099999999999966
 20
-109.3
 30
0.0
 11
-99.100000000000023
 21
-109.3
 31
0.0
  0
ARC
  8
DETAIL
  6
CONTINOUS
 62
     5
 10
-88.099999999999966
 20
-107.0
 30
0.0
 40
2.2999999999999998
 50
270.0
 51
0.0
  0
ARC
  8
DETAIL
  6
CONTINOUS
 62
     5
 10
-99.100000000000023
 20
-94.200000000000045
 30
0.0
 40
2.2999999999999998
 50
90.0
 51
180.0
  0
LINE
  8
DETAIL
  6
CONTINOUS
 62
     5
 10
-101.40000000000001
 20
-94.200000000000045
 30
0.0
 11
-101.40000000000001
 21
-97.0
 31
0.0
  0
ARC
  8
DETAIL
  6
CONTINOUS
 62
     5
 10
-99.100000000000023
 20
-97.0
 30
0.0
 40
2.2999999999999998
 50
180.0
 51
270.0
  0
LINE
  8
DETAIL
  6
CONTINOUS
 62
     5
 10
-88.099999999999966
 20
-91.899999999999977
 30
0.0
 11
-99.100000000000023
 21
-91.899999999999977
 31
0.0
  0
ARC
  8
DETAIL
  6
CONTINOUS
 62
     5
 10
-88.099999999999966
 20
-94.200000000000045
 30
0.0
 40
2.2999999999999998
 50
0.0
 51
90.0
  0
LINE
  8
DETAIL
  6
CONTINOUS
 62
     5
 10
-85.799999999999955
 20
-94.200000000000045
 30
0.0
 11
-85.799999999999955
 21
-97.0
 31
0.0
  0
LINE
  8
DETAIL
  6
CONTINOUS
 62
     5
 10
-88.099999999999966
 20
-99.299999999999955
 30
0.0
 11
-99.100000000000023
 21
-99.299999999999955
 31
0.0
  0
ARC
  8
DETAIL
  6
CONTINOUS
 62
     5
 10
-88.099999999999966
 20
-97.0
 30
0.0
 40
2.2999999999999998
 50
270.0
 51
0.0
  0
LINE
  8
DETAIL
  6
CONTINOUS
 62
     5
 10
-101.40000000000001
 20
-84.200000000000045
 30
0.0
 11
-101.40000000000001
 21
-87.0
 31
0.0
  0
ARC
  8
DETAIL
  6
CONTINOUS
 62
     5
 10
-99.100000000000023
 20
-87.0
 30
0.0
 40
2.2999999999999998
 50
180.0
 51
270.0
  0
LINE
  8
DETAIL
  6
CONTINOUS
 62
     5
 10
-85.799999999999955
 20
-84.200000000000045
 30
0.0
 11
-85.799999999999955
 21
-87.0
 31
0.0
  0
LINE
  8
DETAIL
  6
CONTINOUS
 62
     5
 10
-88.099999999999966
 20
-89.299999999999955
 30
0.0
 11
-99.100000000000023
 21
-89.299999999999955
 31
0.0
  0
ARC
  8
DETAIL
  6
CONTINOUS
 62
     5
 10
-88.099999999999966
 20
-87.0
 30
0.0
 40
2.2999999999999998
 50
270.0
 51
0.0
  0
ARC
  8
DETAIL
  6
CONTINOUS
 62
     5
 10
-5.7000000000000446
 20
-87.0
 30
0.0
 40
2.2999999999999998
 50
270.0
 51
0.0
  0
LINE
  8
DETAIL
  6
CONTINOUS
 62
     5
 10
-5.7000000000000446
 20
-89.299999999999955
 30
0.0
 11
-16.699999999999989
 21
-89.299999999999955
 31
0.0
  0
LINE
  8
DETAIL
  6
CONTINOUS
 62
     5
 10
-3.3999999999999768
 20
-84.200000000000045
 30
0.0
 11
-3.3999999999999768
 21
-87.0
 31
0.0
  0
ARC
  8
DETAIL
  6
CONTINOUS
 62
     5
 10
-16.699999999999989
 20
-87.0
 30
0.0
 40
2.2999999999999998
 50
180.0
 51
270.0
  0
LINE
  8
DETAIL
  6
CONTINOUS
 62
     5
 10
-19.0
 20
-84.200000000000045
 30
0.0
 11
-19.0
 21
-87.0
 31
0.0
  0
ARC
  8
DETAIL
  6
CONTINOUS
 62
     5
 10
-5.7000000000000446
 20
-97.0
 30
0.0
 40
2.2999999999999998
 50
270.0
 51
0.0
  0
LINE
  8
DETAIL
  6
CONTINOUS
 62
     5
 10
-5.7000000000000446
 20
-99.299999999999955
 30
0.0
 11
-16.699999999999989
 21
-99.299999999999955
 31
0.0
  0
LINE
  8
DETAIL
  6
CONTINOUS
 62
     5
 10
-3.3999999999999768
 20
-94.200000000000045
 30
0.0
 11
-3.3999999999999768
 21
-97.0
 31
0.0
  0
ARC
  8
DETAIL
  6
CONTINOUS
 62
     5
 10
-5.7000000000000446
 20
-94.200000000000045
 30
0.0
 40
2.2999999999999998
 50
0.0
 51
90.0
  0
LINE
  8
DETAIL
  6
CONTINOUS
 62
     5
 10
-5.7000000000000446
 20
-91.899999999999977
 30
0.0
 11
-16.699999999999989
 21
-91.899999999999977
 31
0.0
  0
ARC
  8
DETAIL
  6
CONTINOUS
 62
     5
 10
-16.699999999999989
 20
-97.0
 30
0.0
 40
2.2999999999999998
 50
180.0
 51
270.0
  0
LINE
  8
DETAIL
  6
CONTINOUS
 62
     5
 10
-19.0
 20
-94.200000000000045
 30
0.0
 11
-19.0
 21
-97.0
 31
0.0
  0
ARC
  8
DETAIL
  6
CONTINOUS
 62
     5
 10
-16.699999999999989
 20
-94.200000000000045
 30
0.0
 40
2.2999999999999998
 50
90.0
 51
180.0
  0
ARC
  8
DETAIL
  6
CONTINOUS
 62
     5
 10
-5.7000000000000446
 20
-107.0
 30
0.0
 40
2.2999999999999998
 50
270.0
 51
0.0
  0
LINE
  8
DETAIL
  6
CONTINOUS
 62
     5
 10
-5.7000000000000446
 20
-109.3
 30
0.0
 11
-16.699999999999989
 21
-109.3
 31
0.0
  0
LINE
  8
DETAIL
  6
CONTINOUS
 62
     5
 10
-3.3999999999999768
 20
-104.2
 30
0.0
 11
-3.3999999999999768
 21
-107.0
 31
0.0
  0
ARC
  8
DETAIL
  6
CONTINOUS
 62
     5
 10
-5.7000000000000446
 20
-104.2
 30
0.0
 40
2.2999999999999998
 50
0.0
 51
90.0
  0
LINE
  8
DETAIL
  6
CONTINOUS
 62
     5
 10
-5.7000000000000446
 20
-101.90000000000001
 30
0.0
 11
-16.699999999999989
 21
-101.90000000000001
 31
0.0
  0
ARC
  8
DETAIL
  6
CONTINOUS
 62
     5
 10
-16.699999999999989
 20
-107.0
 30
0.0
 40
2.2999999999999998
 50
180.0
 51
270.0
  0
LINE
  8
DETAIL
  6
CONTINOUS
 62
     5
 10
-19.0
 20
-104.2
 30
0.0
 11
-19.0
 21
-107.0
 31
0.0
  0
ARC
  8
DETAIL
  6
CONTINOUS
 62
     5
 10
-16.699999999999989
 20
-104.2
 30
0.0
 40
2.2999999999999998
 50
90.0
 51
180.0
  0
ARC
  8
DETAIL
  6
CONTINOUS
 62
     5
 10
-5.7000000000000446
 20
-117.0
 30
0.0
 40
2.2999999999999998
 50
270.0
 51
0.0
  0
LINE
  8
DETAIL
  6
CONTINOUS
 62
     5
 10
-5.7000000000000446
 20
-119.3
 30
0.0
 11
-16.699999999999989
 21
-119.3
 31
0.0
  0
LINE
  8
DETAIL
  6
CONTINOUS
 62
     5
 10
-3.3999999999999768
 20
-114.2
 30
0.0
 11
-3.3999999999999768
 21
-117.0
 31
0.0
  0
ARC
  8
DETAIL
  6
CONTINOUS
 62
     5
 10
-5.7000000000000446
 20
-114.2
 30
0.0
 40
2.2999999999999998
 50
0.0
 51
90.0
  0
LINE
  8
DETAIL
  6
CONTINOUS
 62
     5
 10
-5.7000000000000446
 20
-111.90000000000001
 30
0.0
 11
-16.699999999999989
 21
-111.90000000000001
 31
0.0
  0
ARC
  8
DETAIL
  6
CONTINOUS
 62
     5
 10
-16.699999999999989
 20
-117.0
 30
0.0
 40
2.2999999999999998
 50
180.0
 51
270.0
  0
LINE
  8
DETAIL
  6
CONTINOUS
 62
     5
 10
-19.0
 20
-114.2
 30
0.0
 11
-19.0
 21
-117.0
 31
0.0
  0
ARC
  8
DETAIL
  6
CONTINOUS
 62
     5
 10
-16.699999999999989
 20
-114.2
 30
0.0
 40
2.2999999999999998
 50
90.0
 51
180.0
  0
ARC
  8
DETAIL
  6
CONTINOUS
 62
     5
 10
-35.5
 20
-114.2
 30
0.0
 40
2.2999999999999998
 50
90.0
 51
180.0
  0
LINE
  8
DETAIL
  6
CONTINOUS
 62
     5
 10
-37.800000000000011
 20
-114.2
 30
0.0
 11
-37.800000000000011
 21
-117.0
 31
0.0
  0
ARC
  8
DETAIL
  6
CONTINOUS
 62
     5
 10
-35.5
 20
-117.0
 30
0.0
 40
2.2999999999999998
 50
180.0
 51
270.0
  0
LINE
  8
DETAIL
  6
CONTINOUS
 62
     5
 10
-24.5
 20
-111.90000000000001
 30
0.0
 11
-35.5
 21
-111.90000000000001
 31
0.0
  0
ARC
  8
DETAIL
  6
CONTINOUS
 62
     5
 10
-24.5
 20
-114.2
 30
0.0
 40
2.2999999999999998
 50
0.0
 51
90.0
  0
LINE
  8
DETAIL
  6
CONTINOUS
 62
     5
 10
-22.199999999999989
 20
-114.2
 30
0.0
 11
-22.199999999999989
 21
-117.0
 31
0.0
  0
LINE
  8
DETAIL
  6
CONTINOUS
 62
     5
 10
-24.5
 20
-119.3
 30
0.0
 11
-35.5
 21
-119.3
 31
0.0
  0
ARC
  8
DETAIL
  6
CONTINOUS
 62
     5
 10
-24.5
 20
-117.0
 30
0.0
 40
2.2999999999999998
 50
270.0
 51
0.0
  0
ARC
  8
DETAIL
  6
CONTINOUS
 62
     5
 10
-35.5
 20
-104.2
 30
0.0
 40
2.2999999999999998
 50
90.0
 51
180.0
  0
LINE
  8
DETAIL
  6
CONTINOUS
 62
     5
 10
-37.800000000000011
 20
-104.2
 30
0.0
 11
-37.800000000000011
 21
-107.0
 31
0.0
  0
ARC
  8
DETAIL
  6
CONTINOUS
 62
     5
 10
-35.5
 20
-107.0
 30
0.0
 40
2.2999999999999998
 50
180.0
 51
270.0
  0
LINE
  8
DETAIL
  6
CONTINOUS
 62
     5
 10
-24.5
 20
-101.90000000000001
 30
0.0
 11
-35.5
 21
-101.90000000000001
 31
0.0
  0
ARC
  8
DETAIL
  6
CONTINOUS
 62
     5
 10
-24.5
 20
-104.2
 30
0.0
 40
2.2999999999999998
 50
0.0
 51
90.0
  0
LINE
  8
DETAIL
  6
CONTINOUS
 62
     5
 10
-22.199999999999989
 20
-104.2
 30
0.0
 11
-22.199999999999989
 21
-107.0
 31
0.0
  0
LINE
  8
DETAIL
  6
CONTINOUS
 62
     5
 10
-24.5
 20
-109.3
 30
0.0
 11
-35.5
 21
-109.3
 31
0.0
  0
ARC
  8
DETAIL
  6
CONTINOUS
 62
     5
 10
-24.5
 20
-107.0
 30
0.0
 40
2.2999999999999998
 50
270.0
 51
0.0
  0
ARC
  8
DETAIL
  6
CONTINOUS
 62
     5
 10
-35.5
 20
-94.200000000000045
 30
0.0
 40
2.2999999999999998
 50
90.0
 51
180.0
  0
LINE
  8
DETAIL
  6
CONTINOUS
 62
     5
 10
-37.800000000000011
 20
-94.200000000000045
 30
0.0
 11
-37.800000000000011
 21
-97.0
 31
0.0
  0
ARC
  8
DETAIL
  6
CONTINOUS
 62
     5
 10
-35.5
 20
-97.0
 30
0.0
 40
2.2999999999999998
 50
180.0
 51
270.0
  0
LINE
  8
DETAIL
  6
CONTINOUS
 62
     5
 10
-24.5
 20
-91.899999999999977
 30
0.0
 11
-35.5
 21
-91.899999999999977
 31
0.0
  0
ARC
  8
DETAIL
  6
CONTINOUS
 62
     5
 10
-24.5
 20
-94.200000000000045
 30
0.0
 40
2.2999999999999998
 50
0.0
 51
90.0
  0
LINE
  8
DETAIL
  6
CONTINOUS
 62
     5
 10
-22.199999999999989
 20
-94.200000000000045
 30
0.0
 11
-22.199999999999989
 21
-97.0
 31
0.0
  0
LINE
  8
DETAIL
  6
CONTINOUS
 62
     5
 10
-24.5
 20
-99.299999999999955
 30
0.0
 11
-35.5
 21
-99.299999999999955
 31
0.0
  0
ARC
  8
DETAIL
  6
CONTINOUS
 62
     5
 10
-24.5
 20
-97.0
 30
0.0
 40
2.2999999999999998
 50
270.0
 51
0.0
  0
LINE
  8
DETAIL
  6
CONTINOUS
 62
     5
 10
-37.800000000000011
 20
-84.200000000000045
 30
0.0
 11
-37.800000000000011
 21
-87.0
 31
0.0
  0
ARC
  8
DETAIL
  6
CONTINOUS
 62
     5
 10
-35.5
 20
-87.0
 30
0.0
 40
2.2999999999999998
 50
180.0
 51
270.0
  0
LINE
  8
DETAIL
  6
CONTINOUS
 62
     5
 10
-22.199999999999989
 20
-84.200000000000045
 30
0.0
 11
-22.199999999999989
 21
-87.0
 31
0.0
  0
LINE
  8
DETAIL
  6
CONTINOUS
 62
     5
 10
-24.5
 20
-89.299999999999955
 30
0.0
 11
-35.5
 21
-89.299999999999955
 31
0.0
  0
ARC
  8
DETAIL
  6
CONTINOUS
 62
     5
 10
-24.5
 20
-87.0
 30
0.0
 40
2.2999999999999998
 50
270.0
 51
0.0
  0
LINE
  8
DETAIL
  6
CONTINOUS
 62
     5
 10
-46.899999999999977
 20
-111.90000000000001
 30
0.0
 11
-57.899999999999977
 21
-111.90000000000001
 31
0.0
  0
ARC
  8
DETAIL
  6
CONTINOUS
 62
     5
 10
-46.899999999999977
 20
-114.2
 30
0.0
 40
2.2999999999999998
 50
0.0
 51
90.0
  0
LINE
  8
DETAIL
  6
CONTINOUS
 62
     5
 10
-44.600000000000023
 20
-114.2
 30
0.0
 11
-44.600000000000023
 21
-117.0
 31
0.0
  0
LINE
  8
DETAIL
  6
CONTINOUS
 62
     5
 10
-46.899999999999977
 20
-119.3
 30
0.0
 11
-57.899999999999977
 21
-119.3
 31
0.0
  0
ARC
  8
DETAIL
  6
CONTINOUS
 62
     5
 10
-46.899999999999977
 20
-117.0
 30
0.0
 40
2.2999999999999998
 50
270.0
 51
0.0
  0
LINE
  8
DETAIL
  6
CONTINOUS
 62
     5
 10
-46.899999999999977
 20
-101.90000000000001
 30
0.0
 11
-57.899999999999977
 21
-101.90000000000001
 31
0.0
  0
ARC
  8
DETAIL
  6
CONTINOUS
 62
     5
 10
-46.899999999999977
 20
-104.2
 30
0.0
 40
2.2999999999999998
 50
0.0
 51
90.0
  0
LINE
  8
DETAIL
  6
CONTINOUS
 62
     5
 10
-44.600000000000023
 20
-104.2
 30
0.0
 11
-44.600000000000023
 21
-107.0
 31
0.0
  0
LINE
  8
DETAIL
  6
CONTINOUS
 62
     5
 10
-46.899999999999977
 20
-109.3
 30
0.0
 11
-57.899999999999977
 21
-109.3
 31
0.0
  0
ARC
  8
DETAIL
  6
CONTINOUS
 62
     5
 10
-46.899999999999977
 20
-107.0
 30
0.0
 40
2.2999999999999998
 50
270.0
 51
0.0
  0
LINE
  8
DETAIL
  6
CONTINOUS
 62
     5
 10
-46.899999999999977
 20
-91.899999999999977
 30
0.0
 11
-57.899999999999977
 21
-91.899999999999977
 31
0.0
  0
ARC
  8
DETAIL
  6
CONTINOUS
 62
     5
 10
-46.899999999999977
 20
-94.200000000000045
 30
0.0
 40
2.2999999999999998
 50
0.0
 51
90.0
  0
LINE
  8
DETAIL
  6
CONTINOUS
 62
     5
 10
-44.600000000000023
 20
-94.200000000000045
 30
0.0
 11
-44.600000000000023
 21
-97.0
 31
0.0
  0
LINE
  8
DETAIL
  6
CONTINOUS
 62
     5
 10
-46.899999999999977
 20
-99.299999999999955
 30
0.0
 11
-57.899999999999977
 21
-99.299999999999955
 31
0.0
  0
ARC
  8
DETAIL
  6
CONTINOUS
 62
     5
 10
-46.899999999999977
 20
-97.0
 30
0.0
 40
2.2999999999999998
 50
270.0
 51
0.0
  0
LINE
  8
DETAIL
  6
CONTINOUS
 62
     5
 10
-44.600000000000023
 20
-84.200000000000045
 30
0.0
 11
-44.600000000000023
 21
-87.0
 31
0.0
  0
LINE
  8
DETAIL
  6
CONTINOUS
 62
     5
 10
-46.899999999999977
 20
-89.299999999999955
 30
0.0
 11
-57.899999999999977
 21
-89.299999999999955
 31
0.0
  0
ARC
  8
DETAIL
  6
CONTINOUS
 62
     5
 10
-46.899999999999977
 20
-87.0
 30
0.0
 40
2.2999999999999998
 50
270.0
 51
0.0
  0
ARC
  8
DETAIL
  6
CONTINOUS
 62
     5
 10
-57.899999999999977
 20
-74.200000000000045
 30
0.0
 40
2.2999999999999998
 50
90.0
 51
180.0
  0
ARC
  8
DETAIL
  6
CONTINOUS
 62
     5
 10
-57.899999999999977
 20
-77.0
 30
0.0
 40
2.2999999999999998
 50
180.0
 51
270.0
  0
ARC
  8
DETAIL
  6
CONTINOUS
 62
     5
 10
-57.899999999999977
 20
-64.200000000000045
 30
0.0
 40
2.2999999999999998
 50
90.0
 51
180.0
  0
ARC
  8
DETAIL
  6
CONTINOUS
 62
     5
 10
-57.899999999999977
 20
-67.0
 30
0.0
 40
2.2999999999999998
 50
180.0
 51
270.0
  0
ARC
  8
DETAIL
  6
CONTINOUS
 62
     5
 10
-57.899999999999977
 20
-54.200000000000053
 30
0.0
 40
2.2999999999999998
 50
90.0
 51
180.0
  0
ARC
  8
DETAIL
  6
CONTINOUS
 62
     5
 10
-57.899999999999977
 20
-57.0
 30
0.0
 40
2.2999999999999998
 50
180.0
 51
270.0
  0
ARC
  8
DETAIL
  6
CONTINOUS
 62
     5
 10
-57.899999999999977
 20
-44.200000000000053
 30
0.0
 40
2.2999999999999998
 50
90.0
 51
180.0
  0
ARC
  8
DETAIL
  6
CONTINOUS
 62
     5
 10
-57.899999999999977
 20
-47.0
 30
0.0
 40
2.2999999999999998
 50
180.0
 51
270.0
  0
ARC
  8
DETAIL
  6
CONTINOUS
 62
     5
 10
-57.899999999999977
 20
-34.200000000000053
 30
0.0
 40
2.2999999999999998
 50
90.0
 51
180.0
  0
ARC
  8
DETAIL
  6
CONTINOUS
 62
     5
 10
-57.899999999999977
 20
-37.0
 30
0.0
 40
2.2999999999999998
 50
180.0
 51
270.0
  0
ARC
  8
DETAIL
  6
CONTINOUS
 62
     5
 10
-57.899999999999977
 20
-24.200000000000049
 30
0.0
 40
2.2999999999999998
 50
90.0
 51
180.0
  0
ARC
  8
DETAIL
  6
CONTINOUS
 62
     5
 10
-57.899999999999977
 20
-27.0
 30
0.0
 40
2.2999999999999998
 50
180.0
 51
270.0
  0
ARC
  8
DETAIL
  6
CONTINOUS
 62
     5
 10
-57.899999999999977
 20
-14.200000000000051
 30
0.0
 40
2.2999999999999998
 50
90.0
 51
180.0
  0
ARC
  8
DETAIL
  6
CONTINOUS
 62
     5
 10
-57.899999999999977
 20
-17.0
 30
0.0
 40
2.2999999999999998
 50
180.0
 51
270.0
  0
ARC
  8
DETAIL
  6
CONTINOUS
 62
     5
 10
-57.899999999999977
 20
-7.0
 30
0.0
 40
2.2999999999999998
 50
180.0
 51
270.0
  0
ARC
  8
DETAIL
  6
CONTINOUS
 62
     5
 10
-57.899999999999977
 20
-4.2000000000000446
 30
0.0
 40
2.2999999999999998
 50
90.0
 51
180.0
  0
ARC
  8
DETAIL
  6
CONTINOUS
 62
     5
 10
-76.699999999999989
 20
-4.2000000000000446
 30
0.0
 40
2.2999999999999998
 50
90.0
 51
180.0
  0
LINE
  8
DETAIL
  6
CONTINOUS
 62
     5
 10
-79.0
 20
-4.2000000000000446
 30
0.0
 11
-79.0
 21
-7.0
 31
0.0
  0
ARC
  8
DETAIL
  6
CONTINOUS
 62
     5
 10
-76.699999999999989
 20
-7.0
 30
0.0
 40
2.2999999999999998
 50
180.0
 51
270.0
  0
LINE
  8
DETAIL
  6
CONTINOUS
 62
     5
 10
-65.699999999999989
 20
-1.899999999999977
 30
0.0
 11
-76.699999999999989
 21
-1.899999999999977
 31
0.0
  0
ARC
  8
DETAIL
  6
CONTINOUS
 62
     5
 10
-65.699999999999989
 20
-4.2000000000000446
 30
0.0
 40
2.2999999999999998
 50
0.0
 51
90.0
  0
LINE
  8
DETAIL
  6
CONTINOUS
 62
     5
 10
-63.399999999999977
 20
-4.2000000000000446
 30
0.0
 11
-63.399999999999977
 21
-7.0
 31
0.0
  0
LINE
  8
DETAIL
  6
CONTINOUS
 62
     5
 10
-65.699999999999989
 20
-9.2999999999999545
 30
0.0
 11
-76.699999999999989
 21
-9.2999999999999545
 31
0.0
  0
ARC
  8
DETAIL
  6
CONTINOUS
 62
     5
 10
-65.699999999999989
 20
-7.0
 30
0.0
 40
2.2999999999999998
 50
270.0
 51
0.0
  0
ARC
  8
DETAIL
  6
CONTINOUS
 62
     5
 10
-65.699999999999989
 20
-17.0
 30
0.0
 40
2.2999999999999998
 50
270.0
 51
0.0
  0
LINE
  8
DETAIL
  6
CONTINOUS
 62
     5
 10
-65.699999999999989
 20
-19.299999999999951
 30
0.0
 11
-76.699999999999989
 21
-19.299999999999951
 31
0.0
  0
LINE
  8
DETAIL
  6
CONTINOUS
 62
     5
 10
-63.399999999999977
 20
-14.200000000000051
 30
0.0
 11
-63.399999999999977
 21
-17.0
 31
0.0
  0
ARC
  8
DETAIL
  6
CONTINOUS
 62
     5
 10
-65.699999999999989
 20
-14.200000000000051
 30
0.0
 40
2.2999999999999998
 50
0.0
 51
90.0
  0
LINE
  8
DETAIL
  6
CONTINOUS
 62
     5
 10
-65.699999999999989
 20
-11.899999999999981
 30
0.0
 11
-76.699999999999989
 21
-11.899999999999981
 31
0.0
  0
ARC
  8
DETAIL
  6
CONTINOUS
 62
     5
 10
-76.699999999999989
 20
-17.0
 30
0.0
 40
2.2999999999999998
 50
180.0
 51
270.0
  0
LINE
  8
DETAIL
  6
CONTINOUS
 62
     5
 10
-79.0
 20
-14.200000000000051
 30
0.0
 11
-79.0
 21
-17.0
 31
0.0
  0
ARC
  8
DETAIL
  6
CONTINOUS
 62
     5
 10
-76.699999999999989
 20
-14.200000000000051
 30
0.0
 40
2.2999999999999998
 50
90.0
 51
180.0
  0
ARC
  8
DETAIL
  6
CONTINOUS
 62
     5
 10
-65.699999999999989
 20
-27.0
 30
0.0
 40
2.2999999999999998
 50
270.0
 51
0.0
  0
LINE
  8
DETAIL
  6
CONTINOUS
 62
     5
 10
-65.699999999999989
 20
-29.299999999999951
 30
0.0
 11
-76.699999999999989
 21
-29.299999999999951
 31
0.0
  0
LINE
  8
DETAIL
  6
CONTINOUS
 62
     5
 10
-63.399999999999977
 20
-24.200000000000049
 30
0.0
 11
-63.399999999999977
 21
-27.0
 31
0.0
  0
ARC
  8
DETAIL
  6
CONTINOUS
 62
     5
 10
-65.699999999999989
 20
-24.200000000000049
 30
0.0
 40
2.2999999999999998
 50
0.0
 51
90.0
  0
LINE
  8
DETAIL
  6
CONTINOUS
 62
     5
 10
-65.699999999999989
 20
-21.899999999999981
 30
0.0
 11
-76.699999999999989
 21
-21.899999999999981
 31
0.0
  0
ARC
  8
DETAIL
  6
CONTINOUS
 62
     5
 10
-76.699999999999989
 20
-27.0
 30
0.0
 40
2.2999999999999998
 50
180.0
 51
270.0
  0
LINE
  8
DETAIL
  6
CONTINOUS
 62
     5
 10
-79.0
 20
-24.200000000000049
 30
0.0
 11
-79.0
 21
-27.0
 31
0.0
  0
ARC
  8
DETAIL
  6
CONTINOUS
 62
     5
 10
-76.699999999999989
 20
-24.200000000000049
 30
0.0
 40
2.2999999999999998
 50
90.0
 51
180.0
  0
ARC
  8
DETAIL
  6
CONTINOUS
 62
     5
 10
-65.699999999999989
 20
-37.0
 30
0.0
 40
2.2999999999999998
 50
270.0
 51
0.0
  0
LINE
  8
DETAIL
  6
CONTINOUS
 62
     5
 10
-65.699999999999989
 20
-39.299999999999947
 30
0.0
 11
-76.699999999999989
 21
-39.299999999999947
 31
0.0
  0
LINE
  8
DETAIL
  6
CONTINOUS
 62
     5
 10
-63.399999999999977
 20
-34.200000000000053
 30
0.0
 11
-63.399999999999977
 21
-37.0
 31
0.0
  0
ARC
  8
DETAIL
  6
CONTINOUS
 62
     5
 10
-65.699999999999989
 20
-34.200000000000053
 30
0.0
 40
2.2999999999999998
 50
0.0
 51
90.0
  0
LINE
  8
DETAIL
  6
CONTINOUS
 62
     5
 10
-65.699999999999989
 20
-31.899999999999981
 30
0.0
 11
-76.699999999999989
 21
-31.899999999999981
 31
0.0
  0
ARC
  8
DETAIL
  6
CONTINOUS
 62
     5
 10
-76.699999999999989
 20
-37.0
 30
0.0
 40
2.2999999999999998
 50
180.0
 51
270.0
  0
LINE
  8
DETAIL
  6
CONTINOUS
 62
     5
 10
-79.0
 20
-34.200000000000053
 30
0.0
 11
-79.0
 21
-37.0
 31
0.0
  0
ARC
  8
DETAIL
  6
CONTINOUS
 62
     5
 10
-76.699999999999989
 20
-34.200000000000053
 30
0.0
 40
2.2999999999999998
 50
90.0
 51
180.0
  0
ARC
  8
DETAIL
  6
CONTINOUS
 62
     5
 10
-65.699999999999989
 20
-47.0
 30
0.0
 40
2.2999999999999998
 50
270.0
 51
0.0
  0
LINE
  8
DETAIL
  6
CONTINOUS
 62
     5
 10
-65.699999999999989
 20
-49.299999999999947
 30
0.0
 11
-76.699999999999989
 21
-49.299999999999947
 31
0.0
  0
LINE
  8
DETAIL
  6
CONTINOUS
 62
     5
 10
-63.399999999999977
 20
-44.200000000000053
 30
0.0
 11
-63.399999999999977
 21
-47.0
 31
0.0
  0
ARC
  8
DETAIL
  6
CONTINOUS
 62
     5
 10
-65.699999999999989
 20
-44.200000000000053
 30
0.0
 40
2.2999999999999998
 50
0.0
 51
90.0
  0
LINE
  8
DETAIL
  6
CONTINOUS
 62
     5
 10
-65.699999999999989
 20
-41.899999999999977
 30
0.0
 11
-76.699999999999989
 21
-41.899999999999977
 31
0.0
  0
ARC
  8
DETAIL
  6
CONTINOUS
 62
     5
 10
-76.699999999999989
 20
-47.0
 30
0.0
 40
2.2999999999999998
 50
180.0
 51
270.0
  0
LINE
  8
DETAIL
  6
CONTINOUS
 62
     5
 10
-79.0
 20
-44.200000000000053
 30
0.0
 11
-79.0
 21
-47.0
 31
0.0
  0
ARC
  8
DETAIL
  6
CONTINOUS
 62
     5
 10
-76.699999999999989
 20
-44.200000000000053
 30
0.0
 40
2.2999999999999998
 50
90.0
 51
180.0
  0
ARC
  8
DETAIL
  6
CONTINOUS
 62
     5
 10
-65.699999999999989
 20
-57.0
 30
0.0
 40
2.2999999999999998
 50
270.0
 51
0.0
  0
LINE
  8
DETAIL
  6
CONTINOUS
 62
     5
 10
-65.699999999999989
 20
-59.299999999999947
 30
0.0
 11
-76.699999999999989
 21
-59.299999999999947
 31
0.0
  0
LINE
  8
DETAIL
  6
CONTINOUS
 62
     5
 10
-63.399999999999977
 20
-54.200000000000053
 30
0.0
 11
-63.399999999999977
 21
-57.0
 31
0.0
  0
ARC
  8
DETAIL
  6
CONTINOUS
 62
     5
 10
-65.699999999999989
 20
-54.200000000000053
 30
0.0
 40
2.2999999999999998
 50
0.0
 51
90.0
  0
LINE
  8
DETAIL
  6
CONTINOUS
 62
     5
 10
-65.699999999999989
 20
-51.899999999999977
 30
0.0
 11
-76.699999999999989
 21
-51.899999999999977
 31
0.0
  0
ARC
  8
DETAIL
  6
CONTINOUS
 62
     5
 10
-76.699999999999989
 20
-57.0
 30
0.0
 40
2.2999999999999998
 50
180.0
 51
270.0
  0
LINE
  8
DETAIL
  6
CONTINOUS
 62
     5
 10
-79.0
 20
-54.200000000000053
 30
0.0
 11
-79.0
 21
-57.0
 31
0.0
  0
ARC
  8
DETAIL
  6
CONTINOUS
 62
     5
 10
-76.699999999999989
 20
-54.200000000000053
 30
0.0
 40
2.2999999999999998
 50
90.0
 51
180.0
  0
ARC
  8
DETAIL
  6
CONTINOUS
 62
     5
 10
-65.699999999999989
 20
-67.0
 30
0.0
 40
2.2999999999999998
 50
270.0
 51
0.0
  0
LINE
  8
DETAIL
  6
CONTINOUS
 62
     5
 10
-65.699999999999989
 20
-69.299999999999955
 30
0.0
 11
-76.699999999999989
 21
-69.299999999999955
 31
0.0
  0
LINE
  8
DETAIL
  6
CONTINOUS
 62
     5
 10
-63.399999999999977
 20
-64.200000000000045
 30
0.0
 11
-63.399999999999977
 21
-67.0
 31
0.0
  0
ARC
  8
DETAIL
  6
CONTINOUS
 62
     5
 10
-65.699999999999989
 20
-64.200000000000045
 30
0.0
 40
2.2999999999999998
 50
0.0
 51
90.0
  0
LINE
  8
DETAIL
  6
CONTINOUS
 62
     5
 10
-65.699999999999989
 20
-61.899999999999977
 30
0.0
 11
-76.699999999999989
 21
-61.899999999999977
 31
0.0
  0
ARC
  8
DETAIL
  6
CONTINOUS
 62
     5
 10
-76.699999999999989
 20
-67.0
 30
0.0
 40
2.2999999999999998
 50
180.0
 51
270.0
  0
LINE
  8
DETAIL
  6
CONTINOUS
 62
     5
 10
-79.0
 20
-64.200000000000045
 30
0.0
 11
-79.0
 21
-67.0
 31
0.0
  0
ARC
  8
DETAIL
  6
CONTINOUS
 62
     5
 10
-76.699999999999989
 20
-64.200000000000045
 30
0.0
 40
2.2999999999999998
 50
90.0
 51
180.0
  0
ARC
  8
DETAIL
  6
CONTINOUS
 62
     5
 10
-65.699999999999989
 20
-77.0
 30
0.0
 40
2.2999999999999998
 50
270.0
 51
0.0
  0
LINE
  8
DETAIL
  6
CONTINOUS
 62
     5
 10
-65.699999999999989
 20
-79.299999999999955
 30
0.0
 11
-76.699999999999989
 21
-79.299999999999955
 31
0.0
  0
LINE
  8
DETAIL
  6
CONTINOUS
 62
     5
 10
-63.399999999999977
 20
-74.200000000000045
 30
0.0
 11
-63.399999999999977
 21
-77.0
 31
0.0
  0
ARC
  8
DETAIL
  6
CONTINOUS
 62
     5
 10
-65.699999999999989
 20
-74.200000000000045
 30
0.0
 40
2.2999999999999998
 50
0.0
 51
90.0
  0
LINE
  8
DETAIL
  6
CONTINOUS
 62
     5
 10
-65.699999999999989
 20
-71.899999999999977
 30
0.0
 11
-76.699999999999989
 21
-71.899999999999977
 31
0.0
  0
ARC
  8
DETAIL
  6
CONTINOUS
 62
     5
 10
-76.699999999999989
 20
-77.0
 30
0.0
 40
2.2999999999999998
 50
180.0
 51
270.0
  0
LINE
  8
DETAIL
  6
CONTINOUS
 62
     5
 10
-79.0
 20
-74.200000000000045
 30
0.0
 11
-79.0
 21
-77.0
 31
0.0
  0
ARC
  8
DETAIL
  6
CONTINOUS
 62
     5
 10
-76.699999999999989
 20
-74.200000000000045
 30
0.0
 40
2.2999999999999998
 50
90.0
 51
180.0
  0
LINE
  8
DETAIL
  6
CONTINOUS
 62
     5
 10
-65.699999999999989
 20
-81.899999999999977
 30
0.0
 11
-76.699999999999989
 21
-81.899999999999977
 31
0.0
  0
LINE
  8
DETAIL
  6
CONTINOUS
 62
     5
 10
-60.199999999999989
 20
-74.200000000000045
 30
0.0
 11
-60.199999999999989
 21
-77.0
 31
0.0
  0
LINE
  8
DETAIL
  6
CONTINOUS
 62
     5
 10
-60.199999999999989
 20
-64.200000000000045
 30
0.0
 11
-60.199999999999989
 21
-67.0
 31
0.0
  0
LINE
  8
DETAIL
  6
CONTINOUS
 62
     5
 10
-60.199999999999989
 20
-54.200000000000053
 30
0.0
 11
-60.199999999999989
 21
-57.0
 31
0.0
  0
LINE
  8
DETAIL
  6
CONTINOUS
 62
     5
 10
-60.199999999999989
 20
-44.200000000000053
 30
0.0
 11
-60.199999999999989
 21
-47.0
 31
0.0
  0
LINE
  8
DETAIL
  6
CONTINOUS
 62
     5
 10
-60.199999999999989
 20
-34.200000000000053
 30
0.0
 11
-60.199999999999989
 21
-37.0
 31
0.0
  0
LINE
  8
DETAIL
  6
CONTINOUS
 62
     5
 10
-60.199999999999989
 20
-24.200000000000049
 30
0.0
 11
-60.199999999999989
 21
-27.0
 31
0.0
  0
LINE
  8
DETAIL
  6
CONTINOUS
 62
     5
 10
-60.199999999999989
 20
-14.200000000000051
 30
0.0
 11
-60.199999999999989
 21
-17.0
 31
0.0
  0
LINE
  8
DETAIL
  6
CONTINOUS
 62
     5
 10
-60.199999999999989
 20
-4.2000000000000446
 30
0.0
 11
-60.199999999999989
 21
-7.0
 31
0.0
  0
ARC
  8
DETAIL
  6
CONTINOUS
 62
     5
 10
-106.90000000000001
 20
-4.2000000000000446
 30
0.0
 40
2.2999999999999998
 50
0.0
 51
90.0
  0
LINE
  8
DETAIL
  6
CONTINOUS
 62
     5
 10
-104.59999999999999
 20
-4.2000000000000446
 30
0.0
 11
-104.59999999999999
 21
-7.0
 31
0.0
  0
ARC
  8
DETAIL
  6
CONTINOUS
 62
     5
 10
-106.90000000000001
 20
-7.0
 30
0.0
 40
2.2999999999999998
 50
270.0
 51
0.0
  0
ARC
  8
DETAIL
  6
CONTINOUS
 62
     5
 10
-106.90000000000001
 20
-17.0
 30
0.0
 40
2.2999999999999998
 50
270.0
 51
0.0
  0
LINE
  8
DETAIL
  6
CONTINOUS
 62
     5
 10
-104.59999999999999
 20
-14.200000000000051
 30
0.0
 11
-104.59999999999999
 21
-17.0
 31
0.0
  0
ARC
  8
DETAIL
  6
CONTINOUS
 62
     5
 10
-106.90000000000001
 20
-14.200000000000051
 30
0.0
 40
2.2999999999999998
 50
0.0
 51
90.0
  0
ARC
  8
DETAIL
  6
CONTINOUS
 62
     5
 10
-106.90000000000001
 20
-27.0
 30
0.0
 40
2.2999999999999998
 50
270.0
 51
0.0
  0
LINE
  8
DETAIL
  6
CONTINOUS
 62
     5
 10
-104.59999999999999
 20
-24.200000000000049
 30
0.0
 11
-104.59999999999999
 21
-27.0
 31
0.0
  0
ARC
  8
DETAIL
  6
CONTINOUS
 62
     5
 10
-106.90000000000001
 20
-24.200000000000049
 30
0.0
 40
2.2999999999999998
 50
0.0
 51
90.0
  0
ARC
  8
DETAIL
  6
CONTINOUS
 62
     5
 10
-106.90000000000001
 20
-37.0
 30
0.0
 40
2.2999999999999998
 50
270.0
 51
0.0
  0
LINE
  8
DETAIL
  6
CONTINOUS
 62
     5
 10
-104.59999999999999
 20
-34.200000000000053
 30
0.0
 11
-104.59999999999999
 21
-37.0
 31
0.0
  0
ARC
  8
DETAIL
  6
CONTINOUS
 62
     5
 10
-106.90000000000001
 20
-34.200000000000053
 30
0.0
 40
2.2999999999999998
 50
0.0
 51
90.0
  0
ARC
  8
DETAIL
  6
CONTINOUS
 62
     5
 10
-106.90000000000001
 20
-47.0
 30
0.0
 40
2.2999999999999998
 50
270.0
 51
0.0
  0
LINE
  8
DETAIL
  6
CONTINOUS
 62
     5
 10
-104.59999999999999
 20
-44.200000000000053
 30
0.0
 11
-104.59999999999999
 21
-47.0
 31
0.0
  0
ARC
  8
DETAIL
  6
CONTINOUS
 62
     5
 10
-106.90000000000001
 20
-44.200000000000053
 30
0.0
 40
2.2999999999999998
 50
0.0
 51
90.0
  0
ARC
  8
DETAIL
  6
CONTINOUS
 62
     5
 10
-106.90000000000001
 20
-57.0
 30
0.0
 40
2.2999999999999998
 50
270.0
 51
0.0
  0
LINE
  8
DETAIL
  6
CONTINOUS
 62
     5
 10
-104.59999999999999
 20
-54.200000000000053
 30
0.0
 11
-104.59999999999999
 21
-57.0
 31
0.0
  0
ARC
  8
DETAIL
  6
CONTINOUS
 62
     5
 10
-106.90000000000001
 20
-54.200000000000053
 30
0.0
 40
2.2999999999999998
 50
0.0
 51
90.0
  0
ARC
  8
DETAIL
  6
CONTINOUS
 62
     5
 10
-106.90000000000001
 20
-67.0
 30
0.0
 40
2.2999999999999998
 50
270.0
 51
0.0
  0
LINE
  8
DETAIL
  6
CONTINOUS
 62
     5
 10
-104.59999999999999
 20
-64.200000000000045
 30
0.0
 11
-104.59999999999999
 21
-67.0
 31
0.0
  0
ARC
  8
DETAIL
  6
CONTINOUS
 62
     5
 10
-106.90000000000001
 20
-64.200000000000045
 30
0.0
 40
2.2999999999999998
 50
0.0
 51
90.0
  0
ARC
  8
DETAIL
  6
CONTINOUS
 62
     5
 10
-106.90000000000001
 20
-77.0
 30
0.0
 40
2.2999999999999998
 50
270.0
 51
0.0
  0
LINE
  8
DETAIL
  6
CONTINOUS
 62
     5
 10
-104.59999999999999
 20
-74.200000000000045
 30
0.0
 11
-104.59999999999999
 21
-77.0
 31
0.0
  0
ARC
  8
DETAIL
  6
CONTINOUS
 62
     5
 10
-106.90000000000001
 20
-74.200000000000045
 30
0.0
 40
2.2999999999999998
 50
0.0
 51
90.0
  0
LINE
  8
DETAIL
  6
CONTINOUS
 62
     5
 10
-88.099999999999966
 20
-81.899999999999977
 30
0.0
 11
-99.100000000000023
 21
-81.899999999999977
 31
0.0
  0
ARC
  8
DETAIL
  6
CONTINOUS
 62
     5
 10
-99.100000000000023
 20
-74.200000000000045
 30
0.0
 40
2.2999999999999998
 50
90.0
 51
180.0
  0
LINE
  8
DETAIL
  6
CONTINOUS
 62
     5
 10
-101.40000000000001
 20
-74.200000000000045
 30
0.0
 11
-101.40000000000001
 21
-77.0
 31
0.0
  0
ARC
  8
DETAIL
  6
CONTINOUS
 62
     5
 10
-99.100000000000023
 20
-77.0
 30
0.0
 40
2.2999999999999998
 50
180.0
 51
270.0
  0
LINE
  8
DETAIL
  6
CONTINOUS
 62
     5
 10
-88.099999999999966
 20
-71.899999999999977
 30
0.0
 11
-99.100000000000023
 21
-71.899999999999977
 31
0.0
  0
ARC
  8
DETAIL
  6
CONTINOUS
 62
     5
 10
-88.099999999999966
 20
-74.200000000000045
 30
0.0
 40
2.2999999999999998
 50
0.0
 51
90.0
  0
LINE
  8
DETAIL
  6
CONTINOUS
 62
     5
 10
-85.799999999999955
 20
-74.200000000000045
 30
0.0
 11
-85.799999999999955
 21
-77.0
 31
0.0
  0
LINE
  8
DETAIL
  6
CONTINOUS
 62
     5
 10
-88.099999999999966
 20
-79.299999999999955
 30
0.0
 11
-99.100000000000023
 21
-79.299999999999955
 31
0.0
  0
ARC
  8
DETAIL
  6
CONTINOUS
 62
     5
 10
-88.099999999999966
 20
-77.0
 30
0.0
 40
2.2999999999999998
 50
270.0
 51
0.0
  0
ARC
  8
DETAIL
  6
CONTINOUS
 62
     5
 10
-99.100000000000023
 20
-64.200000000000045
 30
0.0
 40
2.2999999999999998
 50
90.0
 51
180.0
  0
LINE
  8
DETAIL
  6
CONTINOUS
 62
     5
 10
-101.40000000000001
 20
-64.200000000000045
 30
0.0
 11
-101.40000000000001
 21
-67.0
 31
0.0
  0
ARC
  8
DETAIL
  6
CONTINOUS
 62
     5
 10
-99.100000000000023
 20
-67.0
 30
0.0
 40
2.2999999999999998
 50
180.0
 51
270.0
  0
LINE
  8
DETAIL
  6
CONTINOUS
 62
     5
 10
-88.099999999999966
 20
-61.899999999999977
 30
0.0
 11
-99.100000000000023
 21
-61.899999999999977
 31
0.0
  0
ARC
  8
DETAIL
  6
CONTINOUS
 62
     5
 10
-88.099999999999966
 20
-64.200000000000045
 30
0.0
 40
2.2999999999999998
 50
0.0
 51
90.0
  0
LINE
  8
DETAIL
  6
CONTINOUS
 62
     5
 10
-85.799999999999955
 20
-64.200000000000045
 30
0.0
 11
-85.799999999999955
 21
-67.0
 31
0.0
  0
LINE
  8
DETAIL
  6
CONTINOUS
 62
     5
 10
-88.099999999999966
 20
-69.299999999999955
 30
0.0
 11
-99.100000000000023
 21
-69.299999999999955
 31
0.0
  0
ARC
  8
DETAIL
  6
CONTINOUS
 62
     5
 10
-88.099999999999966
 20
-67.0
 30
0.0
 40
2.2999999999999998
 50
270.0
 51
0.0
  0
ARC
  8
DETAIL
  6
CONTINOUS
 62
     5
 10
-99.100000000000023
 20
-54.200000000000053
 30
0.0
 40
2.2999999999999998
 50
90.0
 51
180.0
  0
LINE
  8
DETAIL
  6
CONTINOUS
 62
     5
 10
-101.40000000000001
 20
-54.200000000000053
 30
0.0
 11
-101.40000000000001
 21
-57.0
 31
0.0
  0
ARC
  8
DETAIL
  6
CONTINOUS
 62
     5
 10
-99.100000000000023
 20
-57.0
 30
0.0
 40
2.2999999999999998
 50
180.0
 51
270.0
  0
LINE
  8
DETAIL
  6
CONTINOUS
 62
     5
 10
-88.099999999999966
 20
-51.899999999999977
 30
0.0
 11
-99.100000000000023
 21
-51.899999999999977
 31
0.0
  0
ARC
  8
DETAIL
  6
CONTINOUS
 62
     5
 10
-88.099999999999966
 20
-54.200000000000053
 30
0.0
 40
2.2999999999999998
 50
0.0
 51
90.0
  0
LINE
  8
DETAIL
  6
CONTINOUS
 62
     5
 10
-85.799999999999955
 20
-54.200000000000053
 30
0.0
 11
-85.799999999999955
 21
-57.0
 31
0.0
  0
LINE
  8
DETAIL
  6
CONTINOUS
 62
     5
 10
-88.099999999999966
 20
-59.299999999999947
 30
0.0
 11
-99.100000000000023
 21
-59.299999999999947
 31
0.0
  0
ARC
  8
DETAIL
  6
CONTINOUS
 62
     5
 10
-88.099999999999966
 20
-57.0
 30
0.0
 40
2.2999999999999998
 50
270.0
 51
0.0
  0
ARC
  8
DETAIL
  6
CONTINOUS
 62
     5
 10
-99.100000000000023
 20
-44.200000000000053
 30
0.0
 40
2.2999999999999998
 50
90.0
 51
180.0
  0
LINE
  8
DETAIL
  6
CONTINOUS
 62
     5
 10
-101.40000000000001
 20
-44.200000000000053
 30
0.0
 11
-101.40000000000001
 21
-47.0
 31
0.0
  0
ARC
  8
DETAIL
  6
CONTINOUS
 62
     5
 10
-99.100000000000023
 20
-47.0
 30
0.0
 40
2.2999999999999998
 50
180.0
 51
270.0
  0
LINE
  8
DETAIL
  6
CONTINOUS
 62
     5
 10
-88.099999999999966
 20
-41.899999999999977
 30
0.0
 11
-99.100000000000023
 21
-41.899999999999977
 31
0.0
  0
ARC
  8
DETAIL
  6
CONTINOUS
 62
     5
 10
-88.099999999999966
 20
-44.200000000000053
 30
0.0
 40
2.2999999999999998
 50
0.0
 51
90.0
  0
LINE
  8
DETAIL
  6
CONTINOUS
 62
     5
 10
-85.799999999999955
 20
-44.200000000000053
 30
0.0
 11
-85.799999999999955
 21
-47.0
 31
0.0
  0
LINE
  8
DETAIL
  6
CONTINOUS
 62
     5
 10
-88.099999999999966
 20
-49.299999999999947
 30
0.0
 11
-99.100000000000023
 21
-49.299999999999947
 31
0.0
  0
ARC
  8
DETAIL
  6
CONTINOUS
 62
     5
 10
-88.099999999999966
 20
-47.0
 30
0.0
 40
2.2999999999999998
 50
270.0
 51
0.0
  0
ARC
  8
DETAIL
  6
CONTINOUS
 62
     5
 10
-99.100000000000023
 20
-34.200000000000053
 30
0.0
 40
2.2999999999999998
 50
90.0
 51
180.0
  0
LINE
  8
DETAIL
  6
CONTINOUS
 62
     5
 10
-101.40000000000001
 20
-34.200000000000053
 30
0.0
 11
-101.40000000000001
 21
-37.0
 31
0.0
  0
ARC
  8
DETAIL
  6
CONTINOUS
 62
     5
 10
-99.100000000000023
 20
-37.0
 30
0.0
 40
2.2999999999999998
 50
180.0
 51
270.0
  0
LINE
  8
DETAIL
  6
CONTINOUS
 62
     5
 10
-88.099999999999966
 20
-31.899999999999981
 30
0.0
 11
-99.100000000000023
 21
-31.899999999999981
 31
0.0
  0
ARC
  8
DETAIL
  6
CONTINOUS
 62
     5
 10
-88.099999999999966
 20
-34.200000000000053
 30
0.0
 40
2.2999999999999998
 50
0.0
 51
90.0
  0
LINE
  8
DETAIL
  6
CONTINOUS
 62
     5
 10
-85.799999999999955
 20
-34.200000000000053
 30
0.0
 11
-85.799999999999955
 21
-37.0
 31
0.0
  0
LINE
  8
DETAIL
  6
CONTINOUS
 62
     5
 10
-88.099999999999966
 20
-39.299999999999947
 30
0.0
 11
-99.100000000000023
 21
-39.299999999999947
 31
0.0
  0
ARC
  8
DETAIL
  6
CONTINOUS
 62
     5
 10
-88.099999999999966
 20
-37.0
 30
0.0
 40
2.2999999999999998
 50
270.0
 51
0.0
  0
ARC
  8
DETAIL
  6
CONTINOUS
 62
     5
 10
-99.100000000000023
 20
-24.200000000000049
 30
0.0
 40
2.2999999999999998
 50
90.0
 51
180.0
  0
LINE
  8
DETAIL
  6
CONTINOUS
 62
     5
 10
-101.40000000000001
 20
-24.200000000000049
 30
0.0
 11
-101.40000000000001
 21
-27.0
 31
0.0
  0
ARC
  8
DETAIL
  6
CONTINOUS
 62
     5
 10
-99.100000000000023
 20
-27.0
 30
0.0
 40
2.2999999999999998
 50
180.0
 51
270.0
  0
LINE
  8
DETAIL
  6
CONTINOUS
 62
     5
 10
-88.099999999999966
 20
-21.899999999999981
 30
0.0
 11
-99.100000000000023
 21
-21.899999999999981
 31
0.0
  0
ARC
  8
DETAIL
  6
CONTINOUS
 62
     5
 10
-88.099999999999966
 20
-24.200000000000049
 30
0.0
 40
2.2999999999999998
 50
0.0
 51
90.0
  0
LINE
  8
DETAIL
  6
CONTINOUS
 62
     5
 10
-85.799999999999955
 20
-24.200000000000049
 30
0.0
 11
-85.799999999999955
 21
-27.0
 31
0.0
  0
LINE
  8
DETAIL
  6
CONTINOUS
 62
     5
 10
-88.099999999999966
 20
-29.299999999999951
 30
0.0
 11
-99.100000000000023
 21
-29.299999999999951
 31
0.0
  0
ARC
  8
DETAIL
  6
CONTINOUS
 62
     5
 10
-88.099999999999966
 20
-27.0
 30
0.0
 40
2.2999999999999998
 50
270.0
 51
0.0
  0
ARC
  8
DETAIL
  6
CONTINOUS
 62
     5
 10
-99.100000000000023
 20
-14.200000000000051
 30
0.0
 40
2.2999999999999998
 50
90.0
 51
180.0
  0
LINE
  8
DETAIL
  6
CONTINOUS
 62
     5
 10
-101.40000000000001
 20
-14.200000000000051
 30
0.0
 11
-101.40000000000001
 21
-17.0
 31
0.0
  0
ARC
  8
DETAIL
  6
CONTINOUS
 62
     5
 10
-99.100000000000023
 20
-17.0
 30
0.0
 40
2.2999999999999998
 50
180.0
 51
270.0
  0
LINE
  8
DETAIL
  6
CONTINOUS
 62
     5
 10
-88.099999999999966
 20
-11.899999999999981
 30
0.0
 11
-99.100000000000023
 21
-11.899999999999981
 31
0.0
  0
ARC
  8
DETAIL
  6
CONTINOUS
 62
     5
 10
-88.099999999999966
 20
-14.200000000000051
 30
0.0
 40
2.2999999999999998
 50
0.0
 51
90.0
  0
LINE
  8
DETAIL
  6
CONTINOUS
 62
     5
 10
-85.799999999999955
 20
-14.200000000000051
 30
0.0
 11
-85.799999999999955
 21
-17.0
 31
0.0
  0
LINE
  8
DETAIL
  6
CONTINOUS
 62
     5
 10
-88.099999999999966
 20
-19.299999999999951
 30
0.0
 11
-99.100000000000023
 21
-19.299999999999951
 31
0.0
  0
ARC
  8
DETAIL
  6
CONTINOUS
 62
     5
 10
-88.099999999999966
 20
-17.0
 30
0.0
 40
2.2999999999999998
 50
270.0
 51
0.0
  0
ARC
  8
DETAIL
  6
CONTINOUS
 62
     5
 10
-88.099999999999966
 20
-7.0
 30
0.0
 40
2.2999999999999998
 50
270.0
 51
0.0
  0
LINE
  8
DETAIL
  6
CONTINOUS
 62
     5
 10
-88.099999999999966
 20
-9.2999999999999545
 30
0.0
 11
-99.100000000000023
 21
-9.2999999999999545
 31
0.0
  0
LINE
  8
DETAIL
  6
CONTINOUS
 62
     5
 10
-85.799999999999955
 20
-4.2000000000000446
 30
0.0
 11
-85.799999999999955
 21
-7.0
 31
0.0
  0
ARC
  8
DETAIL
  6
CONTINOUS
 62
     5
 10
-88.099999999999966
 20
-4.2000000000000446
 30
0.0
 40
2.2999999999999998
 50
0.0
 51
90.0
  0
LINE
  8
DETAIL
  6
CONTINOUS
 62
     5
 10
-88.099999999999966
 20
-1.899999999999977
 30
0.0
 11
-99.100000000000023
 21
-1.899999999999977
 31
0.0
  0
ARC
  8
DETAIL
  6
CONTINOUS
 62
     5
 10
-99.100000000000023
 20
-7.0
 30
0.0
 40
2.2999999999999998
 50
180.0
 51
270.0
  0
LINE
  8
DETAIL
  6
CONTINOUS
 62
     5
 10
-101.40000000000001
 20
-4.2000000000000446
 30
0.0
 11
-101.40000000000001
 21
-7.0
 31
0.0
  0
ARC
  8
DETAIL
  6
CONTINOUS
 62
     5
 10
-99.100000000000023
 20
-4.2000000000000446
 30
0.0
 40
2.2999999999999998
 50
90.0
 51
180.0
  0
ARC
  8
DETAIL
  6
CONTINOUS
 62
     5
 10
-16.699999999999989
 20
-4.2000000000000446
 30
0.0
 40
2.2999999999999998
 50
90.0
 51
180.0
  0
LINE
  8
DETAIL
  6
CONTINOUS
 62
     5
 10
-19.0
 20
-4.2000000000000446
 30
0.0
 11
-19.0
 21
-7.0
 31
0.0
  0
ARC
  8
DETAIL
  6
CONTINOUS
 62
     5
 10
-16.699999999999989
 20
-7.0
 30
0.0
 40
2.2999999999999998
 50
180.0
 51
270.0
  0
LINE
  8
DETAIL
  6
CONTINOUS
 62
     5
 10
-5.7000000000000446
 20
-1.899999999999977
 30
0.0
 11
-16.699999999999989
 21
-1.899999999999977
 31
0.0
  0
ARC
  8
DETAIL
  6
CONTINOUS
 62
     5
 10
-5.7000000000000446
 20
-4.2000000000000446
 30
0.0
 40
2.2999999999999998
 50
0.0
 51
90.0
  0
LINE
  8
DETAIL
  6
CONTINOUS
 62
     5
 10
-3.3999999999999768
 20
-4.2000000000000446
 30
0.0
 11
-3.3999999999999768
 21
-7.0
 31
0.0
  0
LINE
  8
DETAIL
  6
CONTINOUS
 62
     5
 10
-5.7000000000000446
 20
-9.2999999999999545
 30
0.0
 11
-16.699999999999989
 21
-9.2999999999999545
 31
0.0
  0
ARC
  8
DETAIL
  6
CONTINOUS
 62
     5
 10
-5.7000000000000446
 20
-7.0
 30
0.0
 40
2.2999999999999998
 50
270.0
 51
0.0
  0
ARC
  8
DETAIL
  6
CONTINOUS
 62
     5
 10
-5.7000000000000446
 20
-17.0
 30
0.0
 40
2.2999999999999998
 50
270.0
 51
0.0
  0
LINE
  8
DETAIL
  6
CONTINOUS
 62
     5
 10
-5.7000000000000446
 20
-19.299999999999951
 30
0.0
 11
-16.699999999999989
 21
-19.299999999999951
 31
0.0
  0
LINE
  8
DETAIL
  6
CONTINOUS
 62
     5
 10
-3.3999999999999768
 20
-14.200000000000051
 30
0.0
 11
-3.3999999999999768
 21
-17.0
 31
0.0
  0
ARC
  8
DETAIL
  6
CONTINOUS
 62
     5
 10
-5.7000000000000446
 20
-14.200000000000051
 30
0.0
 40
2.2999999999999998
 50
0.0
 51
90.0
  0
LINE
  8
DETAIL
  6
CONTINOUS
 62
     5
 10
-5.7000000000000446
 20
-11.899999999999981
 30
0.0
 11
-16.699999999999989
 21
-11.899999999999981
 31
0.0
  0
ARC
  8
DETAIL
  6
CONTINOUS
 62
     5
 10
-16.699999999999989
 20
-17.0
 30
0.0
 40
2.2999999999999998
 50
180.0
 51
270.0
  0
LINE
  8
DETAIL
  6
CONTINOUS
 62
     5
 10
-19.0
 20
-14.200000000000051
 30
0.0
 11
-19.0
 21
-17.0
 31
0.0
  0
ARC
  8
DETAIL
  6
CONTINOUS
 62
     5
 10
-16.699999999999989
 20
-14.200000000000051
 30
0.0
 40
2.2999999999999998
 50
90.0
 51
180.0
  0
ARC
  8
DETAIL
  6
CONTINOUS
 62
     5
 10
-5.7000000000000446
 20
-27.0
 30
0.0
 40
2.2999999999999998
 50
270.0
 51
0.0
  0
LINE
  8
DETAIL
  6
CONTINOUS
 62
     5
 10
-5.7000000000000446
 20
-29.299999999999951
 30
0.0
 11
-16.699999999999989
 21
-29.299999999999951
 31
0.0
  0
LINE
  8
DETAIL
  6
CONTINOUS
 62
     5
 10
-3.3999999999999768
 20
-24.200000000000049
 30
0.0
 11
-3.3999999999999768
 21
-27.0
 31
0.0
  0
ARC
  8
DETAIL
  6
CONTINOUS
 62
     5
 10
-5.7000000000000446
 20
-24.200000000000049
 30
0.0
 40
2.2999999999999998
 50
0.0
 51
90.0
  0
LINE
  8
DETAIL
  6
CONTINOUS
 62
     5
 10
-5.7000000000000446
 20
-21.899999999999981
 30
0.0
 11
-16.699999999999989
 21
-21.899999999999981
 31
0.0
  0
ARC
  8
DETAIL
  6
CONTINOUS
 62
     5
 10
-16.699999999999989
 20
-27.0
 30
0.0
 40
2.2999999999999998
 50
180.0
 51
270.0
  0
LINE
  8
DETAIL
  6
CONTINOUS
 62
     5
 10
-19.0
 20
-24.200000000000049
 30
0.0
 11
-19.0
 21
-27.0
 31
0.0
  0
ARC
  8
DETAIL
  6
CONTINOUS
 62
     5
 10
-16.699999999999989
 20
-24.200000000000049
 30
0.0
 40
2.2999999999999998
 50
90.0
 51
180.0
  0
ARC
  8
DETAIL
  6
CONTINOUS
 62
     5
 10
-5.7000000000000446
 20
-37.0
 30
0.0
 40
2.2999999999999998
 50
270.0
 51
0.0
  0
LINE
  8
DETAIL
  6
CONTINOUS
 62
     5
 10
-5.7000000000000446
 20
-39.299999999999947
 30
0.0
 11
-16.699999999999989
 21
-39.299999999999947
 31
0.0
  0
LINE
  8
DETAIL
  6
CONTINOUS
 62
     5
 10
-3.3999999999999768
 20
-34.200000000000053
 30
0.0
 11
-3.3999999999999768
 21
-37.0
 31
0.0
  0
ARC
  8
DETAIL
  6
CONTINOUS
 62
     5
 10
-5.7000000000000446
 20
-34.200000000000053
 30
0.0
 40
2.2999999999999998
 50
0.0
 51
90.0
  0
LINE
  8
DETAIL
  6
CONTINOUS
 62
     5
 10
-5.7000000000000446
 20
-31.899999999999981
 30
0.0
 11
-16.699999999999989
 21
-31.899999999999981
 31
0.0
  0
ARC
  8
DETAIL
  6
CONTINOUS
 62
     5
 10
-16.699999999999989
 20
-37.0
 30
0.0
 40
2.2999999999999998
 50
180.0
 51
270.0
  0
LINE
  8
DETAIL
  6
CONTINOUS
 62
     5
 10
-19.0
 20
-34.200000000000053
 30
0.0
 11
-19.0
 21
-37.0
 31
0.0
  0
ARC
  8
DETAIL
  6
CONTINOUS
 62
     5
 10
-16.699999999999989
 20
-34.200000000000053
 30
0.0
 40
2.2999999999999998
 50
90.0
 51
180.0
  0
ARC
  8
DETAIL
  6
CONTINOUS
 62
     5
 10
-5.7000000000000446
 20
-47.0
 30
0.0
 40
2.2999999999999998
 50
270.0
 51
0.0
  0
LINE
  8
DETAIL
  6
CONTINOUS
 62
     5
 10
-5.7000000000000446
 20
-49.299999999999947
 30
0.0
 11
-16.699999999999989
 21
-49.299999999999947
 31
0.0
  0
LINE
  8
DETAIL
  6
CONTINOUS
 62
     5
 10
-3.3999999999999768
 20
-44.200000000000053
 30
0.0
 11
-3.3999999999999768
 21
-47.0
 31
0.0
  0
ARC
  8
DETAIL
  6
CONTINOUS
 62
     5
 10
-5.7000000000000446
 20
-44.200000000000053
 30
0.0
 40
2.2999999999999998
 50
0.0
 51
90.0
  0
LINE
  8
DETAIL
  6
CONTINOUS
 62
     5
 10
-5.7000000000000446
 20
-41.899999999999977
 30
0.0
 11
-16.699999999999989
 21
-41.899999999999977
 31
0.0
  0
ARC
  8
DETAIL
  6
CONTINOUS
 62
     5
 10
-16.699999999999989
 20
-47.0
 30
0.0
 40
2.2999999999999998
 50
180.0
 51
270.0
  0
LINE
  8
DETAIL
  6
CONTINOUS
 62
     5
 10
-19.0
 20
-44.200000000000053
 30
0.0
 11
-19.0
 21
-47.0
 31
0.0
  0
ARC
  8
DETAIL
  6
CONTINOUS
 62
     5
 10
-16.699999999999989
 20
-44.200000000000053
 30
0.0
 40
2.2999999999999998
 50
90.0
 51
180.0
  0
ARC
  8
DETAIL
  6
CONTINOUS
 62
     5
 10
-5.7000000000000446
 20
-57.0
 30
0.0
 40
2.2999999999999998
 50
270.0
 51
0.0
  0
LINE
  8
DETAIL
  6
CONTINOUS
 62
     5
 10
-5.7000000000000446
 20
-59.299999999999947
 30
0.0
 11
-16.699999999999989
 21
-59.299999999999947
 31
0.0
  0
LINE
  8
DETAIL
  6
CONTINOUS
 62
     5
 10
-3.3999999999999768
 20
-54.200000000000053
 30
0.0
 11
-3.3999999999999768
 21
-57.0
 31
0.0
  0
ARC
  8
DETAIL
  6
CONTINOUS
 62
     5
 10
-5.7000000000000446
 20
-54.200000000000053
 30
0.0
 40
2.2999999999999998
 50
0.0
 51
90.0
  0
LINE
  8
DETAIL
  6
CONTINOUS
 62
     5
 10
-5.7000000000000446
 20
-51.899999999999977
 30
0.0
 11
-16.699999999999989
 21
-51.899999999999977
 31
0.0
  0
ARC
  8
DETAIL
  6
CONTINOUS
 62
     5
 10
-16.699999999999989
 20
-57.0
 30
0.0
 40
2.2999999999999998
 50
180.0
 51
270.0
  0
LINE
  8
DETAIL
  6
CONTINOUS
 62
     5
 10
-19.0
 20
-54.200000000000053
 30
0.0
 11
-19.0
 21
-57.0
 31
0.0
  0
ARC
  8
DETAIL
  6
CONTINOUS
 62
     5
 10
-16.699999999999989
 20
-54.200000000000053
 30
0.0
 40
2.2999999999999998
 50
90.0
 51
180.0
  0
ARC
  8
DETAIL
  6
CONTINOUS
 62
     5
 10
-5.7000000000000446
 20
-67.0
 30
0.0
 40
2.2999999999999998
 50
270.0
 51
0.0
  0
LINE
  8
DETAIL
  6
CONTINOUS
 62
     5
 10
-5.7000000000000446
 20
-69.299999999999955
 30
0.0
 11
-16.699999999999989
 21
-69.299999999999955
 31
0.0
  0
LINE
  8
DETAIL
  6
CONTINOUS
 62
     5
 10
-3.3999999999999768
 20
-64.200000000000045
 30
0.0
 11
-3.3999999999999768
 21
-67.0
 31
0.0
  0
ARC
  8
DETAIL
  6
CONTINOUS
 62
     5
 10
-5.7000000000000446
 20
-64.200000000000045
 30
0.0
 40
2.2999999999999998
 50
0.0
 51
90.0
  0
LINE
  8
DETAIL
  6
CONTINOUS
 62
     5
 10
-5.7000000000000446
 20
-61.899999999999977
 30
0.0
 11
-16.699999999999989
 21
-61.899999999999977
 31
0.0
  0
ARC
  8
DETAIL
  6
CONTINOUS
 62
     5
 10
-16.699999999999989
 20
-67.0
 30
0.0
 40
2.2999999999999998
 50
180.0
 51
270.0
  0
LINE
  8
DETAIL
  6
CONTINOUS
 62
     5
 10
-19.0
 20
-64.200000000000045
 30
0.0
 11
-19.0
 21
-67.0
 31
0.0
  0
ARC
  8
DETAIL
  6
CONTINOUS
 62
     5
 10
-16.699999999999989
 20
-64.200000000000045
 30
0.0
 40
2.2999999999999998
 50
90.0
 51
180.0
  0
ARC
  8
DETAIL
  6
CONTINOUS
 62
     5
 10
-5.7000000000000446
 20
-77.0
 30
0.0
 40
2.2999999999999998
 50
270.0
 51
0.0
  0
LINE
  8
DETAIL
  6
CONTINOUS
 62
     5
 10
-5.7000000000000446
 20
-79.299999999999955
 30
0.0
 11
-16.699999999999989
 21
-79.299999999999955
 31
0.0
  0
LINE
  8
DETAIL
  6
CONTINOUS
 62
     5
 10
-3.3999999999999768
 20
-74.200000000000045
 30
0.0
 11
-3.3999999999999768
 21
-77.0
 31
0.0
  0
ARC
  8
DETAIL
  6
CONTINOUS
 62
     5
 10
-5.7000000000000446
 20
-74.200000000000045
 30
0.0
 40
2.2999999999999998
 50
0.0
 51
90.0
  0
LINE
  8
DETAIL
  6
CONTINOUS
 62
     5
 10
-5.7000000000000446
 20
-71.899999999999977
 30
0.0
 11
-16.699999999999989
 21
-71.899999999999977
 31
0.0
  0
ARC
  8
DETAIL
  6
CONTINOUS
 62
     5
 10
-16.699999999999989
 20
-77.0
 30
0.0
 40
2.2999999999999998
 50
180.0
 51
270.0
  0
LINE
  8
DETAIL
  6
CONTINOUS
 62
     5
 10
-19.0
 20
-74.200000000000045
 30
0.0
 11
-19.0
 21
-77.0
 31
0.0
  0
ARC
  8
DETAIL
  6
CONTINOUS
 62
     5
 10
-16.699999999999989
 20
-74.200000000000045
 30
0.0
 40
2.2999999999999998
 50
90.0
 51
180.0
  0
LINE
  8
DETAIL
  6
CONTINOUS
 62
     5
 10
-5.7000000000000446
 20
-81.899999999999977
 30
0.0
 11
-16.699999999999989
 21
-81.899999999999977
 31
0.0
  0
LINE
  8
DETAIL
  6
CONTINOUS
 62
     5
 10
-24.5
 20
-81.899999999999977
 30
0.0
 11
-35.5
 21
-81.899999999999977
 31
0.0
  0
ARC
  8
DETAIL
  6
CONTINOUS
 62
     5
 10
-35.5
 20
-74.200000000000045
 30
0.0
 40
2.2999999999999998
 50
90.0
 51
180.0
  0
LINE
  8
DETAIL
  6
CONTINOUS
 62
     5
 10
-37.800000000000011
 20
-74.200000000000045
 30
0.0
 11
-37.800000000000011
 21
-77.0
 31
0.0
  0
ARC
  8
DETAIL
  6
CONTINOUS
 62
     5
 10
-35.5
 20
-77.0
 30
0.0
 40
2.2999999999999998
 50
180.0
 51
270.0
  0
LINE
  8
DETAIL
  6
CONTINOUS
 62
     5
 10
-24.5
 20
-71.899999999999977
 30
0.0
 11
-35.5
 21
-71.899999999999977
 31
0.0
  0
ARC
  8
DETAIL
  6
CONTINOUS
 62
     5
 10
-24.5
 20
-74.200000000000045
 30
0.0
 40
2.2999999999999998
 50
0.0
 51
90.0
  0
LINE
  8
DETAIL
  6
CONTINOUS
 62
     5
 10
-22.199999999999989
 20
-74.200000000000045
 30
0.0
 11
-22.199999999999989
 21
-77.0
 31
0.0
  0
LINE
  8
DETAIL
  6
CONTINOUS
 62
     5
 10
-24.5
 20
-79.299999999999955
 30
0.0
 11
-35.5
 21
-79.299999999999955
 31
0.0
  0
ARC
  8
DETAIL
  6
CONTINOUS
 62
     5
 10
-24.5
 20
-77.0
 30
0.0
 40
2.2999999999999998
 50
270.0
 51
0.0
  0
ARC
  8
DETAIL
  6
CONTINOUS
 62
     5
 10
-35.5
 20
-64.200000000000045
 30
0.0
 40
2.2999999999999998
 50
90.0
 51
180.0
  0
LINE
  8
DETAIL
  6
CONTINOUS
 62
     5
 10
-37.800000000000011
 20
-64.200000000000045
 30
0.0
 11
-37.800000000000011
 21
-67.0
 31
0.0
  0
ARC
  8
DETAIL
  6
CONTINOUS
 62
     5
 10
-35.5
 20
-67.0
 30
0.0
 40
2.2999999999999998
 50
180.0
 51
270.0
  0
LINE
  8
DETAIL
  6
CONTINOUS
 62
     5
 10
-24.5
 20
-61.899999999999977
 30
0.0
 11
-35.5
 21
-61.899999999999977
 31
0.0
  0
ARC
  8
DETAIL
  6
CONTINOUS
 62
     5
 10
-24.5
 20
-64.200000000000045
 30
0.0
 40
2.2999999999999998
 50
0.0
 51
90.0
  0
LINE
  8
DETAIL
  6
CONTINOUS
 62
     5
 10
-22.199999999999989
 20
-64.200000000000045
 30
0.0
 11
-22.199999999999989
 21
-67.0
 31
0.0
  0
LINE
  8
DETAIL
  6
CONTINOUS
 62
     5
 10
-24.5
 20
-69.299999999999955
 30
0.0
 11
-35.5
 21
-69.299999999999955
 31
0.0
  0
ARC
  8
DETAIL
  6
CONTINOUS
 62
     5
 10
-24.5
 20
-67.0
 30
0.0
 40
2.2999999999999998
 50
270.0
 51
0.0
  0
ARC
  8
DETAIL
  6
CONTINOUS
 62
     5
 10
-35.5
 20
-54.200000000000053
 30
0.0
 40
2.2999999999999998
 50
90.0
 51
180.0
  0
LINE
  8
DETAIL
  6
CONTINOUS
 62
     5
 10
-37.800000000000011
 20
-54.200000000000053
 30
0.0
 11
-37.800000000000011
 21
-57.0
 31
0.0
  0
ARC
  8
DETAIL
  6
CONTINOUS
 62
     5
 10
-35.5
 20
-57.0
 30
0.0
 40
2.2999999999999998
 50
180.0
 51
270.0
  0
LINE
  8
DETAIL
  6
CONTINOUS
 62
     5
 10
-24.5
 20
-51.899999999999977
 30
0.0
 11
-35.5
 21
-51.899999999999977
 31
0.0
  0
ARC
  8
DETAIL
  6
CONTINOUS
 62
     5
 10
-24.5
 20
-54.200000000000053
 30
0.0
 40
2.2999999999999998
 50
0.0
 51
90.0
  0
LINE
  8
DETAIL
  6
CONTINOUS
 62
     5
 10
-22.199999999999989
 20
-54.200000000000053
 30
0.0
 11
-22.199999999999989
 21
-57.0
 31
0.0
  0
LINE
  8
DETAIL
  6
CONTINOUS
 62
     5
 10
-24.5
 20
-59.299999999999947
 30
0.0
 11
-35.5
 21
-59.299999999999947
 31
0.0
  0
ARC
  8
DETAIL
  6
CONTINOUS
 62
     5
 10
-24.5
 20
-57.0
 30
0.0
 40
2.2999999999999998
 50
270.0
 51
0.0
  0
ARC
  8
DETAIL
  6
CONTINOUS
 62
     5
 10
-35.5
 20
-44.200000000000053
 30
0.0
 40
2.2999999999999998
 50
90.0
 51
180.0
  0
LINE
  8
DETAIL
  6
CONTINOUS
 62
     5
 10
-37.800000000000011
 20
-44.200000000000053
 30
0.0
 11
-37.800000000000011
 21
-47.0
 31
0.0
  0
ARC
  8
DETAIL
  6
CONTINOUS
 62
     5
 10
-35.5
 20
-47.0
 30
0.0
 40
2.2999999999999998
 50
180.0
 51
270.0
  0
LINE
  8
DETAIL
  6
CONTINOUS
 62
     5
 10
-24.5
 20
-41.899999999999977
 30
0.0
 11
-35.5
 21
-41.899999999999977
 31
0.0
  0
ARC
  8
DETAIL
  6
CONTINOUS
 62
     5
 10
-24.5
 20
-44.200000000000053
 30
0.0
 40
2.2999999999999998
 50
0.0
 51
90.0
  0
LINE
  8
DETAIL
  6
CONTINOUS
 62
     5
 10
-22.199999999999989
 20
-44.200000000000053
 30
0.0
 11
-22.199999999999989
 21
-47.0
 31
0.0
  0
LINE
  8
DETAIL
  6
CONTINOUS
 62
     5
 10
-24.5
 20
-49.299999999999947
 30
0.0
 11
-35.5
 21
-49.299999999999947
 31
0.0
  0
ARC
  8
DETAIL
  6
CONTINOUS
 62
     5
 10
-24.5
 20
-47.0
 30
0.0
 40
2.2999999999999998
 50
270.0
 51
0.0
  0
ARC
  8
DETAIL
  6
CONTINOUS
 62
     5
 10
-35.5
 20
-34.200000000000053
 30
0.0
 40
2.2999999999999998
 50
90.0
 51
180.0
  0
LINE
  8
DETAIL
  6
CONTINOUS
 62
     5
 10
-37.800000000000011
 20
-34.200000000000053
 30
0.0
 11
-37.800000000000011
 21
-37.0
 31
0.0
  0
ARC
  8
DETAIL
  6
CONTINOUS
 62
     5
 10
-35.5
 20
-37.0
 30
0.0
 40
2.2999999999999998
 50
180.0
 51
270.0
  0
LINE
  8
DETAIL
  6
CONTINOUS
 62
     5
 10
-24.5
 20
-31.899999999999981
 30
0.0
 11
-35.5
 21
-31.899999999999981
 31
0.0
  0
ARC
  8
DETAIL
  6
CONTINOUS
 62
     5
 10
-24.5
 20
-34.200000000000053
 30
0.0
 40
2.2999999999999998
 50
0.0
 51
90.0
  0
LINE
  8
DETAIL
  6
CONTINOUS
 62
     5
 10
-22.199999999999989
 20
-34.200000000000053
 30
0.0
 11
-22.199999999999989
 21
-37.0
 31
0.0
  0
LINE
  8
DETAIL
  6
CONTINOUS
 62
     5
 10
-24.5
 20
-39.299999999999947
 30
0.0
 11
-35.5
 21
-39.299999999999947
 31
0.0
  0
ARC
  8
DETAIL
  6
CONTINOUS
 62
     5
 10
-24.5
 20
-37.0
 30
0.0
 40
2.2999999999999998
 50
270.0
 51
0.0
  0
ARC
  8
DETAIL
  6
CONTINOUS
 62
     5
 10
-35.5
 20
-24.200000000000049
 30
0.0
 40
2.2999999999999998
 50
90.0
 51
180.0
  0
LINE
  8
DETAIL
  6
CONTINOUS
 62
     5
 10
-37.800000000000011
 20
-24.200000000000049
 30
0.0
 11
-37.800000000000011
 21
-27.0
 31
0.0
  0
ARC
  8
DETAIL
  6
CONTINOUS
 62
     5
 10
-35.5
 20
-27.0
 30
0.0
 40
2.2999999999999998
 50
180.0
 51
270.0
  0
LINE
  8
DETAIL
  6
CONTINOUS
 62
     5
 10
-24.5
 20
-21.899999999999981
 30
0.0
 11
-35.5
 21
-21.899999999999981
 31
0.0
  0
ARC
  8
DETAIL
  6
CONTINOUS
 62
     5
 10
-24.5
 20
-24.200000000000049
 30
0.0
 40
2.2999999999999998
 50
0.0
 51
90.0
  0
LINE
  8
DETAIL
  6
CONTINOUS
 62
     5
 10
-22.199999999999989
 20
-24.200000000000049
 30
0.0
 11
-22.199999999999989
 21
-27.0
 31
0.0
  0
LINE
  8
DETAIL
  6
CONTINOUS
 62
     5
 10
-24.5
 20
-29.299999999999951
 30
0.0
 11
-35.5
 21
-29.299999999999951
 31
0.0
  0
ARC
  8
DETAIL
  6
CONTINOUS
 62
     5
 10
-24.5
 20
-27.0
 30
0.0
 40
2.2999999999999998
 50
270.0
 51
0.0
  0
ARC
  8
DETAIL
  6
CONTINOUS
 62
     5
 10
-35.5
 20
-14.200000000000051
 30
0.0
 40
2.2999999999999998
 50
90.0
 51
180.0
  0
LINE
  8
DETAIL
  6
CONTINOUS
 62
     5
 10
-37.800000000000011
 20
-14.200000000000051
 30
0.0
 11
-37.800000000000011
 21
-17.0
 31
0.0
  0
ARC
  8
DETAIL
  6
CONTINOUS
 62
     5
 10
-35.5
 20
-17.0
 30
0.0
 40
2.2999999999999998
 50
180.0
 51
270.0
  0
LINE
  8
DETAIL
  6
CONTINOUS
 62
     5
 10
-24.5
 20
-11.899999999999981
 30
0.0
 11
-35.5
 21
-11.899999999999981
 31
0.0
  0
ARC
  8
DETAIL
  6
CONTINOUS
 62
     5
 10
-24.5
 20
-14.200000000000051
 30
0.0
 40
2.2999999999999998
 50
0.0
 51
90.0
  0
LINE
  8
DETAIL
  6
CONTINOUS
 62
     5
 10
-22.199999999999989
 20
-14.200000000000051
 30
0.0
 11
-22.199999999999989
 21
-17.0
 31
0.0
  0
LINE
  8
DETAIL
  6
CONTINOUS
 62
     5
 10
-24.5
 20
-19.299999999999951
 30
0.0
 11
-35.5
 21
-19.299999999999951
 31
0.0
  0
ARC
  8
DETAIL
  6
CONTINOUS
 62
     5
 10
-24.5
 20
-17.0
 30
0.0
 40
2.2999999999999998
 50
270.0
 51
0.0
  0
ARC
  8
DETAIL
  6
CONTINOUS
 62
     5
 10
-24.5
 20
-7.0
 30
0.0
 40
2.2999999999999998
 50
270.0
 51
0.0
  0
LINE
  8
DETAIL
  6
CONTINOUS
 62
     5
 10
-24.5
 20
-9.2999999999999545
 30
0.0
 11
-35.5
 21
-9.2999999999999545
 31
0.0
  0
LINE
  8
DETAIL
  6
CONTINOUS
 62
     5
 10
-22.199999999999989
 20
-4.2000000000000446
 30
0.0
 11
-22.199999999999989
 21
-7.0
 31
0.0
  0
ARC
  8
DETAIL
  6
CONTINOUS
 62
     5
 10
-24.5
 20
-4.2000000000000446
 30
0.0
 40
2.2999999999999998
 50
0.0
 51
90.0
  0
LINE
  8
DETAIL
  6
CONTINOUS
 62
     5
 10
-24.5
 20
-1.899999999999977
 30
0.0
 11
-35.5
 21
-1.899999999999977
 31
0.0
  0
ARC
  8
DETAIL
  6
CONTINOUS
 62
     5
 10
-35.5
 20
-7.0
 30
0.0
 40
2.2999999999999998
 50
180.0
 51
270.0
  0
LINE
  8
DETAIL
  6
CONTINOUS
 62
     5
 10
-37.800000000000011
 20
-4.2000000000000446
 30
0.0
 11
-37.800000000000011
 21
-7.0
 31
0.0
  0
ARC
  8
DETAIL
  6
CONTINOUS
 62
     5
 10
-35.5
 20
-4.2000000000000446
 30
0.0
 40
2.2999999999999998
 50
90.0
 51
180.0
  0
LINE
  8
DETAIL
  6
CONTINOUS
 62
     5
 10
-46.899999999999977
 20
-81.899999999999977
 30
0.0
 11
-57.899999999999977
 21
-81.899999999999977
 31
0.0
  0
LINE
  8
DETAIL
  6
CONTINOUS
 62
     5
 10
-46.899999999999977
 20
-71.899999999999977
 30
0.0
 11
-57.899999999999977
 21
-71.899999999999977
 31
0.0
  0
ARC
  8
DETAIL
  6
CONTINOUS
 62
     5
 10
-46.899999999999977
 20
-74.200000000000045
 30
0.0
 40
2.2999999999999998
 50
0.0
 51
90.0
  0
LINE
  8
DETAIL
  6
CONTINOUS
 62
     5
 10
-44.600000000000023
 20
-74.200000000000045
 30
0.0
 11
-44.600000000000023
 21
-77.0
 31
0.0
  0
LINE
  8
DETAIL
  6
CONTINOUS
 62
     5
 10
-46.899999999999977
 20
-79.299999999999955
 30
0.0
 11
-57.899999999999977
 21
-79.299999999999955
 31
0.0
  0
ARC
  8
DETAIL
  6
CONTINOUS
 62
     5
 10
-46.899999999999977
 20
-77.0
 30
0.0
 40
2.2999999999999998
 50
270.0
 51
0.0
  0
LINE
  8
DETAIL
  6
CONTINOUS
 62
     5
 10
-46.899999999999977
 20
-61.899999999999977
 30
0.0
 11
-57.899999999999977
 21
-61.899999999999977
 31
0.0
  0
ARC
  8
DETAIL
  6
CONTINOUS
 62
     5
 10
-46.899999999999977
 20
-64.200000000000045
 30
0.0
 40
2.2999999999999998
 50
0.0
 51
90.0
  0
LINE
  8
DETAIL
  6
CONTINOUS
 62
     5
 10
-44.600000000000023
 20
-64.200000000000045
 30
0.0
 11
-44.600000000000023
 21
-67.0
 31
0.0
  0
LINE
  8
DETAIL
  6
CONTINOUS
 62
     5
 10
-46.899999999999977
 20
-69.299999999999955
 30
0.0
 11
-57.899999999999977
 21
-69.299999999999955
 31
0.0
  0
ARC
  8
DETAIL
  6
CONTINOUS
 62
     5
 10
-46.899999999999977
 20
-67.0
 30
0.0
 40
2.2999999999999998
 50
270.0
 51
0.0
  0
LINE
  8
DETAIL
  6
CONTINOUS
 62
     5
 10
-46.899999999999977
 20
-51.899999999999977
 30
0.0
 11
-57.899999999999977
 21
-51.899999999999977
 31
0.0
  0
ARC
  8
DETAIL
  6
CONTINOUS
 62
     5
 10
-46.899999999999977
 20
-54.200000000000053
 30
0.0
 40
2.2999999999999998
 50
0.0
 51
90.0
  0
LINE
  8
DETAIL
  6
CONTINOUS
 62
     5
 10
-44.600000000000023
 20
-54.200000000000053
 30
0.0
 11
-44.600000000000023
 21
-57.0
 31
0.0
  0
LINE
  8
DETAIL
  6
CONTINOUS
 62
     5
 10
-46.899999999999977
 20
-59.299999999999947
 30
0.0
 11
-57.899999999999977
 21
-59.299999999999947
 31
0.0
  0
ARC
  8
DETAIL
  6
CONTINOUS
 62
     5
 10
-46.899999999999977
 20
-57.0
 30
0.0
 40
2.2999999999999998
 50
270.0
 51
0.0
  0
LINE
  8
DETAIL
  6
CONTINOUS
 62
     5
 10
-46.899999999999977
 20
-41.899999999999977
 30
0.0
 11
-57.899999999999977
 21
-41.899999999999977
 31
0.0
  0
ARC
  8
DETAIL
  6
CONTINOUS
 62
     5
 10
-46.899999999999977
 20
-44.200000000000053
 30
0.0
 40
2.2999999999999998
 50
0.0
 51
90.0
  0
LINE
  8
DETAIL
  6
CONTINOUS
 62
     5
 10
-44.600000000000023
 20
-44.200000000000053
 30
0.0
 11
-44.600000000000023
 21
-47.0
 31
0.0
  0
LINE
  8
DETAIL
  6
CONTINOUS
 62
     5
 10
-46.899999999999977
 20
-49.299999999999947
 30
0.0
 11
-57.899999999999977
 21
-49.299999999999947
 31
0.0
  0
ARC
  8
DETAIL
  6
CONTINOUS
 62
     5
 10
-46.899999999999977
 20
-47.0
 30
0.0
 40
2.2999999999999998
 50
270.0
 51
0.0
  0
LINE
  8
DETAIL
  6
CONTINOUS
 62
     5
 10
-46.899999999999977
 20
-31.899999999999981
 30
0.0
 11
-57.899999999999977
 21
-31.899999999999981
 31
0.0
  0
ARC
  8
DETAIL
  6
CONTINOUS
 62
     5
 10
-46.899999999999977
 20
-34.200000000000053
 30
0.0
 40
2.2999999999999998
 50
0.0
 51
90.0
  0
LINE
  8
DETAIL
  6
CONTINOUS
 62
     5
 10
-44.600000000000023
 20
-34.200000000000053
 30
0.0
 11
-44.600000000000023
 21
-37.0
 31
0.0
  0
LINE
  8
DETAIL
  6
CONTINOUS
 62
     5
 10
-46.899999999999977
 20
-39.299999999999947
 30
0.0
 11
-57.899999999999977
 21
-39.299999999999947
 31
0.0
  0
ARC
  8
DETAIL
  6
CONTINOUS
 62
     5
 10
-46.899999999999977
 20
-37.0
 30
0.0
 40
2.2999999999999998
 50
270.0
 51
0.0
  0
LINE
  8
DETAIL
  6
CONTINOUS
 62
     5
 10
-46.899999999999977
 20
-21.899999999999981
 30
0.0
 11
-57.899999999999977
 21
-21.899999999999981
 31
0.0
  0
ARC
  8
DETAIL
  6
CONTINOUS
 62
     5
 10
-46.899999999999977
 20
-24.200000000000049
 30
0.0
 40
2.2999999999999998
 50
0.0
 51
90.0
  0
LINE
  8
DETAIL
  6
CONTINOUS
 62
     5
 10
-44.600000000000023
 20
-24.200000000000049
 30
0.0
 11
-44.600000000000023
 21
-27.0
 31
0.0
  0
LINE
  8
DETAIL
  6
CONTINOUS
 62
     5
 10
-46.899999999999977
 20
-29.299999999999951
 30
0.0
 11
-57.899999999999977
 21
-29.299999999999951
 31
0.0
  0
ARC
  8
DETAIL
  6
CONTINOUS
 62
     5
 10
-46.899999999999977
 20
-27.0
 30
0.0
 40
2.2999999999999998
 50
270.0
 51
0.0
  0
LINE
  8
DETAIL
  6
CONTINOUS
 62
     5
 10
-46.899999999999977
 20
-11.899999999999981
 30
0.0
 11
-57.899999999999977
 21
-11.899999999999981
 31
0.0
  0
ARC
  8
DETAIL
  6
CONTINOUS
 62
     5
 10
-46.899999999999977
 20
-14.200000000000051
 30
0.0
 40
2.2999999999999998
 50
0.0
 51
90.0
  0
LINE
  8
DETAIL
  6
CONTINOUS
 62
     5
 10
-44.600000000000023
 20
-14.200000000000051
 30
0.0
 11
-44.600000000000023
 21
-17.0
 31
0.0
  0
LINE
  8
DETAIL
  6
CONTINOUS
 62
     5
 10
-46.899999999999977
 20
-19.299999999999951
 30
0.0
 11
-57.899999999999977
 21
-19.299999999999951
 31
0.0
  0
ARC
  8
DETAIL
  6
CONTINOUS
 62
     5
 10
-46.899999999999977
 20
-17.0
 30
0.0
 40
2.2999999999999998
 50
270.0
 51
0.0
  0
ARC
  8
DETAIL
  6
CONTINOUS
 62
     5
 10
-46.899999999999977
 20
-7.0
 30
0.0
 40
2.2999999999999998
 50
270.0
 51
0.0
  0
LINE
  8
DETAIL
  6
CONTINOUS
 62
     5
 10
-46.899999999999977
 20
-9.2999999999999545
 30
0.0
 11
-57.899999999999977
 21
-9.2999999999999545
 31
0.0
  0
LINE
  8
DETAIL
  6
CONTINOUS
 62
     5
 10
-44.600000000000023
 20
-4.2000000000000446
 30
0.0
 11
-44.600000000000023
 21
-7.0
 31
0.0
  0
ARC
  8
DETAIL
  6
CONTINOUS
 62
     5
 10
-46.899999999999977
 20
-4.2000000000000446
 30
0.0
 40
2.2999999999999998
 50
0.0
 51
90.0
  0
LINE
  8
DETAIL
  6
CONTINOUS
 62
     5
 10
-46.899999999999977
 20
-1.899999999999977
 30
0.0
 11
-57.899999999999977
 21
-1.899999999999977
 31
0.0
  0
ARC
  8
OUTLINE
  6
CONTINUOUS
 62
     3
 10
-149.0
 20
149.0
 30
0.0
 40
18.0
 50
90.0
 51
180.0
  0
ARC
  8
DETAIL
  6
CONTINUOUS
 62
     5
 10
-149.0
 20
149.0
 30
0.0
 40
18.0
 50
90.0
 51
180.0
  0
ARC
  8
DETAIL
  6
CONTINUOUS
 62
     5
 10
-151.0
 20
151.0
 30
0.0
 40
12.0
 50
90.0
 51
180.0
  0
LINE
  8
DETAIL
  6
CONTINOUS
 62
     5
 10
-106.90000000000001
 20
111.90000000000001
 30
0.0
 11
-117.90000000000001
 21
111.90000000000001
 31
0.0
  0
LINE
  8
DETAIL
  6
CONTINOUS
 62
     5
 10
-106.90000000000001
 20
119.3
 30
0.0
 11
-117.90000000000001
 21
119.3
 31
0.0
  0
LINE
  8
DETAIL
  6
CONTINOUS
 62
     5
 10
-106.90000000000001
 20
101.90000000000001
 30
0.0
 11
-117.90000000000001
 21
101.90000000000001
 31
0.0
  0
LINE
  8
DETAIL
  6
CONTINOUS
 62
     5
 10
-106.90000000000001
 20
109.3
 30
0.0
 11
-117.90000000000001
 21
109.3
 31
0.0
  0
LINE
  8
DETAIL
  6
CONTINOUS
 62
     5
 10
-106.90000000000001
 20
91.899999999999977
 30
0.0
 11
-117.90000000000001
 21
91.899999999999977
 31
0.0
  0
LINE
  8
DETAIL
  6
CONTINOUS
 62
     5
 10
-106.90000000000001
 20
99.299999999999955
 30
0.0
 11
-117.90000000000001
 21
99.299999999999955
 31
0.0
  0
LINE
  8
DETAIL
  6
CONTINOUS
 62
     5
 10
-106.90000000000001
 20
81.899999999999977
 30
0.0
 11
-117.90000000000001
 21
81.899999999999977
 31
0.0
  0
LINE
  8
DETAIL
  6
CONTINOUS
 62
     5
 10
-106.90000000000001
 20
89.299999999999955
 30
0.0
 11
-117.90000000000001
 21
89.299999999999955
 31
0.0
  0
LINE
  8
DETAIL
  6
CONTINOUS
 62
     5
 10
-106.90000000000001
 20
71.899999999999977
 30
0.0
 11
-117.90000000000001
 21
71.899999999999977
 31
0.0
  0
LINE
  8
DETAIL
  6
CONTINOUS
 62
     5
 10
-106.90000000000001
 20
79.299999999999955
 30
0.0
 11
-117.90000000000001
 21
79.299999999999955
 31
0.0
  0
LINE
  8
DETAIL
  6
CONTINOUS
 62
     5
 10
-106.90000000000001
 20
61.899999999999977
 30
0.0
 11
-117.90000000000001
 21
61.899999999999977
 31
0.0
  0
LINE
  8
DETAIL
  6
CONTINOUS
 62
     5
 10
-106.90000000000001
 20
69.299999999999955
 30
0.0
 11
-117.90000000000001
 21
69.299999999999955
 31
0.0
  0
LINE
  8
DETAIL
  6
CONTINOUS
 62
     5
 10
-106.90000000000001
 20
51.899999999999977
 30
0.0
 11
-117.90000000000001
 21
51.899999999999977
 31
0.0
  0
LINE
  8
DETAIL
  6
CONTINOUS
 62
     5
 10
-106.90000000000001
 20
59.299999999999947
 30
0.0
 11
-117.90000000000001
 21
59.299999999999947
 31
0.0
  0
LINE
  8
DETAIL
  6
CONTINOUS
 62
     5
 10
-106.90000000000001
 20
41.899999999999977
 30
0.0
 11
-117.90000000000001
 21
41.899999999999977
 31
0.0
  0
LINE
  8
DETAIL
  6
CONTINOUS
 62
     5
 10
-106.90000000000001
 20
49.299999999999947
 30
0.0
 11
-117.90000000000001
 21
49.299999999999947
 31
0.0
  0
LINE
  8
DETAIL
  6
CONTINOUS
 62
     5
 10
-106.90000000000001
 20
31.899999999999981
 30
0.0
 11
-117.90000000000001
 21
31.899999999999981
 31
0.0
  0
LINE
  8
DETAIL
  6
CONTINOUS
 62
     5
 10
-106.90000000000001
 20
39.299999999999947
 30
0.0
 11
-117.90000000000001
 21
39.299999999999947
 31
0.0
  0
LINE
  8
DETAIL
  6
CONTINOUS
 62
     5
 10
-106.90000000000001
 20
21.899999999999981
 30
0.0
 11
-117.90000000000001
 21
21.899999999999981
 31
0.0
  0
LINE
  8
DETAIL
  6
CONTINOUS
 62
     5
 10
-106.90000000000001
 20
29.299999999999951
 30
0.0
 11
-117.90000000000001
 21
29.299999999999951
 31
0.0
  0
LINE
  8
DETAIL
  6
CONTINOUS
 62
     5
 10
-106.90000000000001
 20
11.899999999999981
 30
0.0
 11
-117.90000000000001
 21
11.899999999999981
 31
0.0
  0
LINE
  8
DETAIL
  6
CONTINOUS
 62
     5
 10
-106.90000000000001
 20
19.299999999999951
 30
0.0
 11
-117.90000000000001
 21
19.299999999999951
 31
0.0
  0
LINE
  8
DETAIL
  6
CONTINOUS
 62
     5
 10
-106.90000000000001
 20
9.2999999999999545
 30
0.0
 11
-117.90000000000001
 21
9.2999999999999545
 31
0.0
  0
LINE
  8
DETAIL
  6
CONTINOUS
 62
     5
 10
-106.90000000000001
 20
1.899999999999977
 30
0.0
 11
-117.90000000000001
 21
1.899999999999977
 31
0.0
  0
ARC
  8
DETAIL
  6
CONTINOUS
 62
     5
 10
-117.90000000000001
 20
84.200000000000045
 30
0.0
 40
2.2999999999999998
 50
180.0
 51
270.0
  0
ARC
  8
DETAIL
  6
CONTINOUS
 62
     5
 10
-117.90000000000001
 20
74.200000000000045
 30
0.0
 40
2.2999999999999998
 50
180.0
 51
270.0
  0
LINE
  8
DETAIL
  6
CONTINOUS
 62
     5
 10
-120.2
 20
74.200000000000045
 30
0.0
 11
-120.2
 21
77.0
 31
0.0
  0
ARC
  8
DETAIL
  6
CONTINOUS
 62
     5
 10
-117.90000000000001
 20
77.0
 30
0.0
 40
2.2999999999999998
 50
90.0
 51
180.0
  0
ARC
  8
DETAIL
  6
CONTINOUS
 62
     5
 10
-117.90000000000001
 20
64.200000000000045
 30
0.0
 40
2.2999999999999998
 50
180.0
 51
270.0
  0
LINE
  8
DETAIL
  6
CONTINOUS
 62
     5
 10
-120.2
 20
64.200000000000045
 30
0.0
 11
-120.2
 21
67.0
 31
0.0
  0
ARC
  8
DETAIL
  6
CONTINOUS
 62
     5
 10
-117.90000000000001
 20
67.0
 30
0.0
 40
2.2999999999999998
 50
90.0
 51
180.0
  0
ARC
  8
DETAIL
  6
CONTINOUS
 62
     5
 10
-117.90000000000001
 20
54.200000000000053
 30
0.0
 40
2.2999999999999998
 50
180.0
 51
270.0
  0
LINE
  8
DETAIL
  6
CONTINOUS
 62
     5
 10
-120.2
 20
54.200000000000053
 30
0.0
 11
-120.2
 21
57.0
 31
0.0
  0
ARC
  8
DETAIL
  6
CONTINOUS
 62
     5
 10
-117.90000000000001
 20
57.0
 30
0.0
 40
2.2999999999999998
 50
90.0
 51
180.0
  0
ARC
  8
DETAIL
  6
CONTINOUS
 62
     5
 10
-117.90000000000001
 20
44.200000000000053
 30
0.0
 40
2.2999999999999998
 50
180.0
 51
270.0
  0
LINE
  8
DETAIL
  6
CONTINOUS
 62
     5
 10
-120.2
 20
44.200000000000053
 30
0.0
 11
-120.2
 21
47.0
 31
0.0
  0
ARC
  8
DETAIL
  6
CONTINOUS
 62
     5
 10
-117.90000000000001
 20
47.0
 30
0.0
 40
2.2999999999999998
 50
90.0
 51
180.0
  0
ARC
  8
DETAIL
  6
CONTINOUS
 62
     5
 10
-117.90000000000001
 20
34.200000000000053
 30
0.0
 40
2.2999999999999998
 50
180.0
 51
270.0
  0
LINE
  8
DETAIL
  6
CONTINOUS
 62
     5
 10
-120.2
 20
34.200000000000053
 30
0.0
 11
-120.2
 21
37.0
 31
0.0
  0
ARC
  8
DETAIL
  6
CONTINOUS
 62
     5
 10
-117.90000000000001
 20
37.0
 30
0.0
 40
2.2999999999999998
 50
90.0
 51
180.0
  0
ARC
  8
DETAIL
  6
CONTINOUS
 62
     5
 10
-117.90000000000001
 20
24.200000000000049
 30
0.0
 40
2.2999999999999998
 50
180.0
 51
270.0
  0
LINE
  8
DETAIL
  6
CONTINOUS
 62
     5
 10
-120.2
 20
24.200000000000049
 30
0.0
 11
-120.2
 21
27.0
 31
0.0
  0
ARC
  8
DETAIL
  6
CONTINOUS
 62
     5
 10
-117.90000000000001
 20
27.0
 30
0.0
 40
2.2999999999999998
 50
90.0
 51
180.0
  0
ARC
  8
DETAIL
  6
CONTINOUS
 62
     5
 10
-117.90000000000001
 20
14.200000000000051
 30
0.0
 40
2.2999999999999998
 50
180.0
 51
270.0
  0
LINE
  8
DETAIL
  6
CONTINOUS
 62
     5
 10
-120.2
 20
14.200000000000051
 30
0.0
 11
-120.2
 21
17.0
 31
0.0
  0
ARC
  8
DETAIL
  6
CONTINOUS
 62
     5
 10
-117.90000000000001
 20
17.0
 30
0.0
 40
2.2999999999999998
 50
90.0
 51
180.0
  0
ARC
  8
DETAIL
  6
CONTINOUS
 62
     5
 10
-117.90000000000001
 20
7.0
 30
0.0
 40
2.2999999999999998
 50
90.0
 51
180.0
  0
LINE
  8
DETAIL
  6
CONTINOUS
 62
     5
 10
-120.2
 20
4.2000000000000446
 30
0.0
 11
-120.2
 21
7.0
 31
0.0
  0
ARC
  8
DETAIL
  6
CONTINOUS
 62
     5
 10
-117.90000000000001
 20
4.2000000000000446
 30
0.0
 40
2.2999999999999998
 50
180.0
 51
270.0
  0
POINT
  8
DEFPOINTS
  6
CONTINUOUS
 62
    30
 10
-167.0
 20
149.0
 30
0.0
  0
ARC
  8
DETAIL
  6
CONTINOUS
 62
     5
 10
-117.90000000000001
 20
114.2
 30
0.0
 40
2.2999999999999998
 50
180.0
 51
270.0
  0
LINE
  8
DETAIL
  6
CONTINOUS
 62
     5
 10
-120.2
 20
114.2
 30
0.0
 11
-120.2
 21
117.0
 31
0.0
  0
ARC
  8
DETAIL
  6
CONTINOUS
 62
     5
 10
-117.90000000000001
 20
117.0
 30
0.0
 40
2.2999999999999998
 50
90.0
 51
180.0
  0
ARC
  8
DETAIL
  6
CONTINOUS
 62
     5
 10
-117.90000000000001
 20
104.2
 30
0.0
 40
2.2999999999999998
 50
180.0
 51
270.0
  0
LINE
  8
DETAIL
  6
CONTINOUS
 62
     5
 10
-120.2
 20
104.2
 30
0.0
 11
-120.2
 21
107.0
 31
0.0
  0
ARC
  8
DETAIL
  6
CONTINOUS
 62
     5
 10
-117.90000000000001
 20
107.0
 30
0.0
 40
2.2999999999999998
 50
90.0
 51
180.0
  0
ARC
  8
DETAIL
  6
CONTINOUS
 62
     5
 10
-117.90000000000001
 20
94.200000000000045
 30
0.0
 40
2.2999999999999998
 50
180.0
 51
270.0
  0
LINE
  8
DETAIL
  6
CONTINOUS
 62
     5
 10
-120.2
 20
94.200000000000045
 30
0.0
 11
-120.2
 21
97.0
 31
0.0
  0
ARC
  8
DETAIL
  6
CONTINOUS
 62
     5
 10
-117.90000000000001
 20
97.0
 30
0.0
 40
2.2999999999999998
 50
90.0
 51
180.0
  0
LINE
  8
DETAIL
  6
CONTINOUS
 62
     5
 10
-120.2
 20
84.200000000000045
 30
0.0
 11
-120.2
 21
87.0
 31
0.0
  0
ARC
  8
DETAIL
  6
CONTINOUS
 62
     5
 10
-117.90000000000001
 20
87.0
 30
0.0
 40
2.2999999999999998
 50
90.0
 51
180.0
  0
ARC
  8
DETAIL
  6
CONTINOUS
 62
     5
 10
-88.099999999999966
 20
84.200000000000045
 30
0.0
 40
2.2999999999999998
 50
270.0
 51
0.0
  0
ARC
  8
DETAIL
  6
CONTINOUS
 62
     5
 10
-99.100000000000023
 20
84.200000000000045
 30
0.0
 40
2.2999999999999998
 50
180.0
 51
270.0
  0
ARC
  8
DETAIL
  6
CONTINOUS
 62
     5
 10
-106.90000000000001
 20
84.200000000000045
 30
0.0
 40
2.2999999999999998
 50
270.0
 51
0.0
  0
ARC
  8
DETAIL
  6
CONTINOUS
 62
     5
 10
-46.899999999999977
 20
84.200000000000045
 30
0.0
 40
2.2999999999999998
 50
270.0
 51
0.0
  0
ARC
  8
DETAIL
  6
CONTINOUS
 62
     5
 10
-57.899999999999977
 20
84.200000000000045
 30
0.0
 40
2.2999999999999998
 50
180.0
 51
270.0
  0
ARC
  8
DETAIL
  6
CONTINOUS
 62
     5
 10
-76.699999999999989
 20
84.200000000000045
 30
0.0
 40
2.2999999999999998
 50
180.0
 51
270.0
  0
ARC
  8
DETAIL
  6
CONTINOUS
 62
     5
 10
-65.699999999999989
 20
84.200000000000045
 30
0.0
 40
2.2999999999999998
 50
270.0
 51
0.0
  0
ARC
  8
DETAIL
  6
CONTINOUS
 62
     5
 10
-24.5
 20
84.200000000000045
 30
0.0
 40
2.2999999999999998
 50
270.0
 51
0.0
  0
ARC
  8
DETAIL
  6
CONTINOUS
 62
     5
 10
-35.5
 20
84.200000000000045
 30
0.0
 40
2.2999999999999998
 50
180.0
 51
270.0
  0
ARC
  8
DETAIL
  6
CONTINOUS
 62
     5
 10
-16.699999999999989
 20
84.200000000000045
 30
0.0
 40
2.2999999999999998
 50
180.0
 51
270.0
  0
ARC
  8
DETAIL
  6
CONTINOUS
 62
     5
 10
-5.7000000000000446
 20
84.200000000000045
 30
0.0
 40
2.2999999999999998
 50
270.0
 51
0.0
  0
ARC
  8
DETAIL
  6
CONTINOUS
 62
     5
 10
-57.899999999999977
 20
4.2000000000000446
 30
0.0
 40
2.2999999999999998
 50
180.0
 51
270.0
  0
ARC
  8
DETAIL
  6
CONTINOUS
 62
     5
 10
-57.899999999999977
 20
7.0
 30
0.0
 40
2.2999999999999998
 50
90.0
 51
180.0
  0
ARC
  8
DETAIL
  6
CONTINOUS
 62
     5
 10
-57.899999999999977
 20
17.0
 30
0.0
 40
2.2999999999999998
 50
90.0
 51
180.0
  0
ARC
  8
DETAIL
  6
CONTINOUS
 62
     5
 10
-57.899999999999977
 20
14.200000000000051
 30
0.0
 40
2.2999999999999998
 50
180.0
 51
270.0
  0
ARC
  8
DETAIL
  6
CONTINOUS
 62
     5
 10
-57.899999999999977
 20
27.0
 30
0.0
 40
2.2999999999999998
 50
90.0
 51
180.0
  0
ARC
  8
DETAIL
  6
CONTINOUS
 62
     5
 10
-57.899999999999977
 20
24.200000000000049
 30
0.0
 40
2.2999999999999998
 50
180.0
 51
270.0
  0
ARC
  8
DETAIL
  6
CONTINOUS
 62
     5
 10
-57.899999999999977
 20
37.0
 30
0.0
 40
2.2999999999999998
 50
90.0
 51
180.0
  0
ARC
  8
DETAIL
  6
CONTINOUS
 62
     5
 10
-57.899999999999977
 20
34.200000000000053
 30
0.0
 40
2.2999999999999998
 50
180.0
 51
270.0
  0
ARC
  8
DETAIL
  6
CONTINOUS
 62
     5
 10
-57.899999999999977
 20
47.0
 30
0.0
 40
2.2999999999999998
 50
90.0
 51
180.0
  0
ARC
  8
DETAIL
  6
CONTINOUS
 62
     5
 10
-57.899999999999977
 20
44.200000000000053
 30
0.0
 40
2.2999999999999998
 50
180.0
 51
270.0
  0
ARC
  8
DETAIL
  6
CONTINOUS
 62
     5
 10
-57.899999999999977
 20
57.0
 30
0.0
 40
2.2999999999999998
 50
90.0
 51
180.0
  0
ARC
  8
DETAIL
  6
CONTINOUS
 62
     5
 10
-57.899999999999977
 20
54.200000000000053
 30
0.0
 40
2.2999999999999998
 50
180.0
 51
270.0
  0
ARC
  8
DETAIL
  6
CONTINOUS
 62
     5
 10
-57.899999999999977
 20
67.0
 30
0.0
 40
2.2999999999999998
 50
90.0
 51
180.0
  0
ARC
  8
DETAIL
  6
CONTINOUS
 62
     5
 10
-57.899999999999977
 20
64.200000000000045
 30
0.0
 40
2.2999999999999998
 50
180.0
 51
270.0
  0
ARC
  8
DETAIL
  6
CONTINOUS
 62
     5
 10
-57.899999999999977
 20
77.0
 30
0.0
 40
2.2999999999999998
 50
90.0
 51
180.0
  0
ARC
  8
DETAIL
  6
CONTINOUS
 62
     5
 10
-57.899999999999977
 20
74.200000000000045
 30
0.0
 40
2.2999999999999998
 50
180.0
 51
270.0
  0
ARC
  8
DETAIL
  6
CONTINOUS
 62
     5
 10
-99.100000000000023
 20
4.2000000000000446
 30
0.0
 40
2.2999999999999998
 50
180.0
 51
270.0
  0
LINE
  8
DETAIL
  6
CONTINOUS
 62
     5
 10
-101.40000000000001
 20
4.2000000000000446
 30
0.0
 11
-101.40000000000001
 21
7.0
 31
0.0
  0
ARC
  8
DETAIL
  6
CONTINOUS
 62
     5
 10
-99.100000000000023
 20
7.0
 30
0.0
 40
2.2999999999999998
 50
90.0
 51
180.0
  0
LINE
  8
DETAIL
  6
CONTINOUS
 62
     5
 10
-88.099999999999966
 20
1.899999999999977
 30
0.0
 11
-99.100000000000023
 21
1.899999999999977
 31
0.0
  0
ARC
  8
DETAIL
  6
CONTINOUS
 62
     5
 10
-88.099999999999966
 20
4.2000000000000446
 30
0.0
 40
2.2999999999999998
 50
270.0
 51
0.0
  0
LINE
  8
DETAIL
  6
CONTINOUS
 62
     5
 10
-85.799999999999955
 20
4.2000000000000446
 30
0.0
 11
-85.799999999999955
 21
7.0
 31
0.0
  0
LINE
  8
DETAIL
  6
CONTINOUS
 62
     5
 10
-88.099999999999966
 20
9.2999999999999545
 30
0.0
 11
-99.100000000000023
 21
9.2999999999999545
 31
0.0
  0
ARC
  8
DETAIL
  6
CONTINOUS
 62
     5
 10
-88.099999999999966
 20
7.0
 30
0.0
 40
2.2999999999999998
 50
0.0
 51
90.0
  0
ARC
  8
DETAIL
  6
CONTINOUS
 62
     5
 10
-88.099999999999966
 20
17.0
 30
0.0
 40
2.2999999999999998
 50
0.0
 51
90.0
  0
LINE
  8
DETAIL
  6
CONTINOUS
 62
     5
 10
-88.099999999999966
 20
19.299999999999951
 30
0.0
 11
-99.100000000000023
 21
19.299999999999951
 31
0.0
  0
LINE
  8
DETAIL
  6
CONTINOUS
 62
     5
 10
-85.799999999999955
 20
14.200000000000051
 30
0.0
 11
-85.799999999999955
 21
17.0
 31
0.0
  0
ARC
  8
DETAIL
  6
CONTINOUS
 62
     5
 10
-88.099999999999966
 20
14.200000000000051
 30
0.0
 40
2.2999999999999998
 50
270.0
 51
0.0
  0
LINE
  8
DETAIL
  6
CONTINOUS
 62
     5
 10
-88.099999999999966
 20
11.899999999999981
 30
0.0
 11
-99.100000000000023
 21
11.899999999999981
 31
0.0
  0
ARC
  8
DETAIL
  6
CONTINOUS
 62
     5
 10
-99.100000000000023
 20
17.0
 30
0.0
 40
2.2999999999999998
 50
90.0
 51
180.0
  0
LINE
  8
DETAIL
  6
CONTINOUS
 62
     5
 10
-101.40000000000001
 20
14.200000000000051
 30
0.0
 11
-101.40000000000001
 21
17.0
 31
0.0
  0
ARC
  8
DETAIL
  6
CONTINOUS
 62
     5
 10
-99.100000000000023
 20
14.200000000000051
 30
0.0
 40
2.2999999999999998
 50
180.0
 51
270.0
  0
ARC
  8
DETAIL
  6
CONTINOUS
 62
     5
 10
-88.099999999999966
 20
27.0
 30
0.0
 40
2.2999999999999998
 50
0.0
 51
90.0
  0
LINE
  8
DETAIL
  6
CONTINOUS
 62
     5
 10
-88.099999999999966
 20
29.299999999999951
 30
0.0
 11
-99.100000000000023
 21
29.299999999999951
 31
0.0
  0
LINE
  8
DETAIL
  6
CONTINOUS
 62
     5
 10
-85.799999999999955
 20
24.200000000000049
 30
0.0
 11
-85.799999999999955
 21
27.0
 31
0.0
  0
ARC
  8
DETAIL
  6
CONTINOUS
 62
     5
 10
-88.099999999999966
 20
24.200000000000049
 30
0.0
 40
2.2999999999999998
 50
270.0
 51
0.0
  0
LINE
  8
DETAIL
  6
CONTINOUS
 62
     5
 10
-88.099999999999966
 20
21.899999999999981
 30
0.0
 11
-99.100000000000023
 21
21.899999999999981
 31
0.0
  0
ARC
  8
DETAIL
  6
CONTINOUS
 62
     5
 10
-99.100000000000023
 20
27.0
 30
0.0
 40
2.2999999999999998
 50
90.0
 51
180.0
  0
LINE
  8
DETAIL
  6
CONTINOUS
 62
     5
 10
-101.40000000000001
 20
24.200000000000049
 30
0.0
 11
-101.40000000000001
 21
27.0
 31
0.0
  0
ARC
  8
DETAIL
  6
CONTINOUS
 62
     5
 10
-99.100000000000023
 20
24.200000000000049
 30
0.0
 40
2.2999999999999998
 50
180.0
 51
270.0
  0
ARC
  8
DETAIL
  6
CONTINOUS
 62
     5
 10
-88.099999999999966
 20
37.0
 30
0.0
 40
2.2999999999999998
 50
0.0
 51
90.0
  0
LINE
  8
DETAIL
  6
CONTINOUS
 62
     5
 10
-88.099999999999966
 20
39.299999999999947
 30
0.0
 11
-99.100000000000023
 21
39.299999999999947
 31
0.0
  0
LINE
  8
DETAIL
  6
CONTINOUS
 62
     5
 10
-85.799999999999955
 20
34.200000000000053
 30
0.0
 11
-85.799999999999955
 21
37.0
 31
0.0
  0
ARC
  8
DETAIL
  6
CONTINOUS
 62
     5
 10
-88.099999999999966
 20
34.200000000000053
 30
0.0
 40
2.2999999999999998
 50
270.0
 51
0.0
  0
LINE
  8
DETAIL
  6
CONTINOUS
 62
     5
 10
-88.099999999999966
 20
31.899999999999981
 30
0.0
 11
-99.100000000000023
 21
31.899999999999981
 31
0.0
  0
ARC
  8
DETAIL
  6
CONTINOUS
 62
     5
 10
-99.100000000000023
 20
37.0
 30
0.0
 40
2.2999999999999998
 50
90.0
 51
180.0
  0
LINE
  8
DETAIL
  6
CONTINOUS
 62
     5
 10
-101.40000000000001
 20
34.200000000000053
 30
0.0
 11
-101.40000000000001
 21
37.0
 31
0.0
  0
ARC
  8
DETAIL
  6
CONTINOUS
 62
     5
 10
-99.100000000000023
 20
34.200000000000053
 30
0.0
 40
2.2999999999999998
 50
180.0
 51
270.0
  0
ARC
  8
DETAIL
  6
CONTINOUS
 62
     5
 10
-88.099999999999966
 20
47.0
 30
0.0
 40
2.2999999999999998
 50
0.0
 51
90.0
  0
LINE
  8
DETAIL
  6
CONTINOUS
 62
     5
 10
-88.099999999999966
 20
49.299999999999947
 30
0.0
 11
-99.100000000000023
 21
49.299999999999947
 31
0.0
  0
LINE
  8
DETAIL
  6
CONTINOUS
 62
     5
 10
-85.799999999999955
 20
44.200000000000053
 30
0.0
 11
-85.799999999999955
 21
47.0
 31
0.0
  0
ARC
  8
DETAIL
  6
CONTINOUS
 62
     5
 10
-88.099999999999966
 20
44.200000000000053
 30
0.0
 40
2.2999999999999998
 50
270.0
 51
0.0
  0
LINE
  8
DETAIL
  6
CONTINOUS
 62
     5
 10
-88.099999999999966
 20
41.899999999999977
 30
0.0
 11
-99.100000000000023
 21
41.899999999999977
 31
0.0
  0
ARC
  8
DETAIL
  6
CONTINOUS
 62
     5
 10
-99.100000000000023
 20
47.0
 30
0.0
 40
2.2999999999999998
 50
90.0
 51
180.0
  0
LINE
  8
DETAIL
  6
CONTINOUS
 62
     5
 10
-101.40000000000001
 20
44.200000000000053
 30
0.0
 11
-101.40000000000001
 21
47.0
 31
0.0
  0
ARC
  8
DETAIL
  6
CONTINOUS
 62
     5
 10
-99.100000000000023
 20
44.200000000000053
 30
0.0
 40
2.2999999999999998
 50
180.0
 51
270.0
  0
ARC
  8
DETAIL
  6
CONTINOUS
 62
     5
 10
-88.099999999999966
 20
57.0
 30
0.0
 40
2.2999999999999998
 50
0.0
 51
90.0
  0
LINE
  8
DETAIL
  6
CONTINOUS
 62
     5
 10
-88.099999999999966
 20
59.299999999999947
 30
0.0
 11
-99.100000000000023
 21
59.299999999999947
 31
0.0
  0
LINE
  8
DETAIL
  6
CONTINOUS
 62
     5
 10
-85.799999999999955
 20
54.200000000000053
 30
0.0
 11
-85.799999999999955
 21
57.0
 31
0.0
  0
ARC
  8
DETAIL
  6
CONTINOUS
 62
     5
 10
-88.099999999999966
 20
54.200000000000053
 30
0.0
 40
2.2999999999999998
 50
270.0
 51
0.0
  0
LINE
  8
DETAIL
  6
CONTINOUS
 62
     5
 10
-88.099999999999966
 20
51.899999999999977
 30
0.0
 11
-99.100000000000023
 21
51.899999999999977
 31
0.0
  0
ARC
  8
DETAIL
  6
CONTINOUS
 62
     5
 10
-99.100000000000023
 20
57.0
 30
0.0
 40
2.2999999999999998
 50
90.0
 51
180.0
  0
LINE
  8
DETAIL
  6
CONTINOUS
 62
     5
 10
-101.40000000000001
 20
54.200000000000053
 30
0.0
 11
-101.40000000000001
 21
57.0
 31
0.0
  0
ARC
  8
DETAIL
  6
CONTINOUS
 62
     5
 10
-99.100000000000023
 20
54.200000000000053
 30
0.0
 40
2.2999999999999998
 50
180.0
 51
270.0
  0
ARC
  8
DETAIL
  6
CONTINOUS
 62
     5
 10
-88.099999999999966
 20
67.0
 30
0.0
 40
2.2999999999999998
 50
0.0
 51
90.0
  0
LINE
  8
DETAIL
  6
CONTINOUS
 62
     5
 10
-88.099999999999966
 20
69.299999999999955
 30
0.0
 11
-99.100000000000023
 21
69.299999999999955
 31
0.0
  0
LINE
  8
DETAIL
  6
CONTINOUS
 62
     5
 10
-85.799999999999955
 20
64.200000000000045
 30
0.0
 11
-85.799999999999955
 21
67.0
 31
0.0
  0
ARC
  8
DETAIL
  6
CONTINOUS
 62
     5
 10
-88.099999999999966
 20
64.200000000000045
 30
0.0
 40
2.2999999999999998
 50
270.0
 51
0.0
  0
LINE
  8
DETAIL
  6
CONTINOUS
 62
     5
 10
-88.099999999999966
 20
61.899999999999977
 30
0.0
 11
-99.100000000000023
 21
61.899999999999977
 31
0.0
  0
ARC
  8
DETAIL
  6
CONTINOUS
 62
     5
 10
-99.100000000000023
 20
67.0
 30
0.0
 40
2.2999999999999998
 50
90.0
 51
180.0
  0
LINE
  8
DETAIL
  6
CONTINOUS
 62
     5
 10
-101.40000000000001
 20
64.200000000000045
 30
0.0
 11
-101.40000000000001
 21
67.0
 31
0.0
  0
ARC
  8
DETAIL
  6
CONTINOUS
 62
     5
 10
-99.100000000000023
 20
64.200000000000045
 30
0.0
 40
2.2999999999999998
 50
180.0
 51
270.0
  0
ARC
  8
DETAIL
  6
CONTINOUS
 62
     5
 10
-88.099999999999966
 20
77.0
 30
0.0
 40
2.2999999999999998
 50
0.0
 51
90.0
  0
LINE
  8
DETAIL
  6
CONTINOUS
 62
     5
 10
-88.099999999999966
 20
79.299999999999955
 30
0.0
 11
-99.100000000000023
 21
79.299999999999955
 31
0.0
  0
LINE
  8
DETAIL
  6
CONTINOUS
 62
     5
 10
-85.799999999999955
 20
74.200000000000045
 30
0.0
 11
-85.799999999999955
 21
77.0
 31
0.0
  0
ARC
  8
DETAIL
  6
CONTINOUS
 62
     5
 10
-88.099999999999966
 20
74.200000000000045
 30
0.0
 40
2.2999999999999998
 50
270.0
 51
0.0
  0
LINE
  8
DETAIL
  6
CONTINOUS
 62
     5
 10
-88.099999999999966
 20
71.899999999999977
 30
0.0
 11
-99.100000000000023
 21
71.899999999999977
 31
0.0
  0
ARC
  8
DETAIL
  6
CONTINOUS
 62
     5
 10
-99.100000000000023
 20
77.0
 30
0.0
 40
2.2999999999999998
 50
90.0
 51
180.0
  0
LINE
  8
DETAIL
  6
CONTINOUS
 62
     5
 10
-101.40000000000001
 20
74.200000000000045
 30
0.0
 11
-101.40000000000001
 21
77.0
 31
0.0
  0
ARC
  8
DETAIL
  6
CONTINOUS
 62
     5
 10
-99.100000000000023
 20
74.200000000000045
 30
0.0
 40
2.2999999999999998
 50
180.0
 51
270.0
  0
LINE
  8
DETAIL
  6
CONTINOUS
 62
     5
 10
-88.099999999999966
 20
81.899999999999977
 30
0.0
 11
-99.100000000000023
 21
81.899999999999977
 31
0.0
  0
ARC
  8
DETAIL
  6
CONTINOUS
 62
     5
 10
-106.90000000000001
 20
74.200000000000045
 30
0.0
 40
2.2999999999999998
 50
270.0
 51
0.0
  0
LINE
  8
DETAIL
  6
CONTINOUS
 62
     5
 10
-104.59999999999999
 20
74.200000000000045
 30
0.0
 11
-104.59999999999999
 21
77.0
 31
0.0
  0
ARC
  8
DETAIL
  6
CONTINOUS
 62
     5
 10
-106.90000000000001
 20
77.0
 30
0.0
 40
2.2999999999999998
 50
0.0
 51
90.0
  0
ARC
  8
DETAIL
  6
CONTINOUS
 62
     5
 10
-106.90000000000001
 20
64.200000000000045
 30
0.0
 40
2.2999999999999998
 50
270.0
 51
0.0
  0
LINE
  8
DETAIL
  6
CONTINOUS
 62
     5
 10
-104.59999999999999
 20
64.200000000000045
 30
0.0
 11
-104.59999999999999
 21
67.0
 31
0.0
  0
ARC
  8
DETAIL
  6
CONTINOUS
 62
     5
 10
-106.90000000000001
 20
67.0
 30
0.0
 40
2.2999999999999998
 50
0.0
 51
90.0
  0
ARC
  8
DETAIL
  6
CONTINOUS
 62
     5
 10
-106.90000000000001
 20
54.200000000000053
 30
0.0
 40
2.2999999999999998
 50
270.0
 51
0.0
  0
LINE
  8
DETAIL
  6
CONTINOUS
 62
     5
 10
-104.59999999999999
 20
54.200000000000053
 30
0.0
 11
-104.59999999999999
 21
57.0
 31
0.0
  0
ARC
  8
DETAIL
  6
CONTINOUS
 62
     5
 10
-106.90000000000001
 20
57.0
 30
0.0
 40
2.2999999999999998
 50
0.0
 51
90.0
  0
ARC
  8
DETAIL
  6
CONTINOUS
 62
     5
 10
-106.90000000000001
 20
44.200000000000053
 30
0.0
 40
2.2999999999999998
 50
270.0
 51
0.0
  0
LINE
  8
DETAIL
  6
CONTINOUS
 62
     5
 10
-104.59999999999999
 20
44.200000000000053
 30
0.0
 11
-104.59999999999999
 21
47.0
 31
0.0
  0
ARC
  8
DETAIL
  6
CONTINOUS
 62
     5
 10
-106.90000000000001
 20
47.0
 30
0.0
 40
2.2999999999999998
 50
0.0
 51
90.0
  0
ARC
  8
DETAIL
  6
CONTINOUS
 62
     5
 10
-106.90000000000001
 20
34.200000000000053
 30
0.0
 40
2.2999999999999998
 50
270.0
 51
0.0
  0
LINE
  8
DETAIL
  6
CONTINOUS
 62
     5
 10
-104.59999999999999
 20
34.200000000000053
 30
0.0
 11
-104.59999999999999
 21
37.0
 31
0.0
  0
ARC
  8
DETAIL
  6
CONTINOUS
 62
     5
 10
-106.90000000000001
 20
37.0
 30
0.0
 40
2.2999999999999998
 50
0.0
 51
90.0
  0
ARC
  8
DETAIL
  6
CONTINOUS
 62
     5
 10
-106.90000000000001
 20
24.200000000000049
 30
0.0
 40
2.2999999999999998
 50
270.0
 51
0.0
  0
LINE
  8
DETAIL
  6
CONTINOUS
 62
     5
 10
-104.59999999999999
 20
24.200000000000049
 30
0.0
 11
-104.59999999999999
 21
27.0
 31
0.0
  0
ARC
  8
DETAIL
  6
CONTINOUS
 62
     5
 10
-106.90000000000001
 20
27.0
 30
0.0
 40
2.2999999999999998
 50
0.0
 51
90.0
  0
ARC
  8
DETAIL
  6
CONTINOUS
 62
     5
 10
-106.90000000000001
 20
14.200000000000051
 30
0.0
 40
2.2999999999999998
 50
270.0
 51
0.0
  0
LINE
  8
DETAIL
  6
CONTINOUS
 62
     5
 10
-104.59999999999999
 20
14.200000000000051
 30
0.0
 11
-104.59999999999999
 21
17.0
 31
0.0
  0
ARC
  8
DETAIL
  6
CONTINOUS
 62
     5
 10
-106.90000000000001
 20
17.0
 30
0.0
 40
2.2999999999999998
 50
0.0
 51
90.0
  0
ARC
  8
DETAIL
  6
CONTINOUS
 62
     5
 10
-106.90000000000001
 20
7.0
 30
0.0
 40
2.2999999999999998
 50
0.0
 51
90.0
  0
LINE
  8
DETAIL
  6
CONTINOUS
 62
     5
 10
-104.59999999999999
 20
4.2000000000000446
 30
0.0
 11
-104.59999999999999
 21
7.0
 31
0.0
  0
ARC
  8
DETAIL
  6
CONTINOUS
 62
     5
 10
-106.90000000000001
 20
4.2000000000000446
 30
0.0
 40
2.2999999999999998
 50
270.0
 51
0.0
  0
LINE
  8
DETAIL
  6
CONTINOUS
 62
     5
 10
-60.199999999999989
 20
4.2000000000000446
 30
0.0
 11
-60.199999999999989
 21
7.0
 31
0.0
  0
LINE
  8
DETAIL
  6
CONTINOUS
 62
     5
 10
-60.199999999999989
 20
14.200000000000051
 30
0.0
 11
-60.199999999999989
 21
17.0
 31
0.0
  0
LINE
  8
DETAIL
  6
CONTINOUS
 62
     5
 10
-60.199999999999989
 20
24.200000000000049
 30
0.0
 11
-60.199999999999989
 21
27.0
 31
0.0
  0
LINE
  8
DETAIL
  6
CONTINOUS
 62
     5
 10
-60.199999999999989
 20
34.200000000000053
 30
0.0
 11
-60.199999999999989
 21
37.0
 31
0.0
  0
LINE
  8
DETAIL
  6
CONTINOUS
 62
     5
 10
-60.199999999999989
 20
44.200000000000053
 30
0.0
 11
-60.199999999999989
 21
47.0
 31
0.0
  0
LINE
  8
DETAIL
  6
CONTINOUS
 62
     5
 10
-60.199999999999989
 20
54.200000000000053
 30
0.0
 11
-60.199999999999989
 21
57.0
 31
0.0
  0
LINE
  8
DETAIL
  6
CONTINOUS
 62
     5
 10
-60.199999999999989
 20
64.200000000000045
 30
0.0
 11
-60.199999999999989
 21
67.0
 31
0.0
  0
LINE
  8
DETAIL
  6
CONTINOUS
 62
     5
 10
-60.199999999999989
 20
74.200000000000045
 30
0.0
 11
-60.199999999999989
 21
77.0
 31
0.0
  0
LINE
  8
DETAIL
  6
CONTINOUS
 62
     5
 10
-65.699999999999989
 20
81.899999999999977
 30
0.0
 11
-76.699999999999989
 21
81.899999999999977
 31
0.0
  0
ARC
  8
DETAIL
  6
CONTINOUS
 62
     5
 10
-76.699999999999989
 20
74.200000000000045
 30
0.0
 40
2.2999999999999998
 50
180.0
 51
270.0
  0
LINE
  8
DETAIL
  6
CONTINOUS
 62
     5
 10
-79.0
 20
74.200000000000045
 30
0.0
 11
-79.0
 21
77.0
 31
0.0
  0
ARC
  8
DETAIL
  6
CONTINOUS
 62
     5
 10
-76.699999999999989
 20
77.0
 30
0.0
 40
2.2999999999999998
 50
90.0
 51
180.0
  0
LINE
  8
DETAIL
  6
CONTINOUS
 62
     5
 10
-65.699999999999989
 20
71.899999999999977
 30
0.0
 11
-76.699999999999989
 21
71.899999999999977
 31
0.0
  0
ARC
  8
DETAIL
  6
CONTINOUS
 62
     5
 10
-65.699999999999989
 20
74.200000000000045
 30
0.0
 40
2.2999999999999998
 50
270.0
 51
0.0
  0
LINE
  8
DETAIL
  6
CONTINOUS
 62
     5
 10
-63.399999999999977
 20
74.200000000000045
 30
0.0
 11
-63.399999999999977
 21
77.0
 31
0.0
  0
LINE
  8
DETAIL
  6
CONTINOUS
 62
     5
 10
-65.699999999999989
 20
79.299999999999955
 30
0.0
 11
-76.699999999999989
 21
79.299999999999955
 31
0.0
  0
ARC
  8
DETAIL
  6
CONTINOUS
 62
     5
 10
-65.699999999999989
 20
77.0
 30
0.0
 40
2.2999999999999998
 50
0.0
 51
90.0
  0
ARC
  8
DETAIL
  6
CONTINOUS
 62
     5
 10
-76.699999999999989
 20
64.200000000000045
 30
0.0
 40
2.2999999999999998
 50
180.0
 51
270.0
  0
LINE
  8
DETAIL
  6
CONTINOUS
 62
     5
 10
-79.0
 20
64.200000000000045
 30
0.0
 11
-79.0
 21
67.0
 31
0.0
  0
ARC
  8
DETAIL
  6
CONTINOUS
 62
     5
 10
-76.699999999999989
 20
67.0
 30
0.0
 40
2.2999999999999998
 50
90.0
 51
180.0
  0
LINE
  8
DETAIL
  6
CONTINOUS
 62
     5
 10
-65.699999999999989
 20
61.899999999999977
 30
0.0
 11
-76.699999999999989
 21
61.899999999999977
 31
0.0
  0
ARC
  8
DETAIL
  6
CONTINOUS
 62
     5
 10
-65.699999999999989
 20
64.200000000000045
 30
0.0
 40
2.2999999999999998
 50
270.0
 51
0.0
  0
LINE
  8
DETAIL
  6
CONTINOUS
 62
     5
 10
-63.399999999999977
 20
64.200000000000045
 30
0.0
 11
-63.399999999999977
 21
67.0
 31
0.0
  0
LINE
  8
DETAIL
  6
CONTINOUS
 62
     5
 10
-65.699999999999989
 20
69.299999999999955
 30
0.0
 11
-76.699999999999989
 21
69.299999999999955
 31
0.0
  0
ARC
  8
DETAIL
  6
CONTINOUS
 62
     5
 10
-65.699999999999989
 20
67.0
 30
0.0
 40
2.2999999999999998
 50
0.0
 51
90.0
  0
ARC
  8
DETAIL
  6
CONTINOUS
 62
     5
 10
-76.699999999999989
 20
54.200000000000053
 30
0.0
 40
2.2999999999999998
 50
180.0
 51
270.0
  0
LINE
  8
DETAIL
  6
CONTINOUS
 62
     5
 10
-79.0
 20
54.200000000000053
 30
0.0
 11
-79.0
 21
57.0
 31
0.0
  0
ARC
  8
DETAIL
  6
CONTINOUS
 62
     5
 10
-76.699999999999989
 20
57.0
 30
0.0
 40
2.2999999999999998
 50
90.0
 51
180.0
  0
LINE
  8
DETAIL
  6
CONTINOUS
 62
     5
 10
-65.699999999999989
 20
51.899999999999977
 30
0.0
 11
-76.699999999999989
 21
51.899999999999977
 31
0.0
  0
ARC
  8
DETAIL
  6
CONTINOUS
 62
     5
 10
-65.699999999999989
 20
54.200000000000053
 30
0.0
 40
2.2999999999999998
 50
270.0
 51
0.0
  0
LINE
  8
DETAIL
  6
CONTINOUS
 62
     5
 10
-63.399999999999977
 20
54.200000000000053
 30
0.0
 11
-63.399999999999977
 21
57.0
 31
0.0
  0
LINE
  8
DETAIL
  6
CONTINOUS
 62
     5
 10
-65.699999999999989
 20
59.299999999999947
 30
0.0
 11
-76.699999999999989
 21
59.299999999999947
 31
0.0
  0
ARC
  8
DETAIL
  6
CONTINOUS
 62
     5
 10
-65.699999999999989
 20
57.0
 30
0.0
 40
2.2999999999999998
 50
0.0
 51
90.0
  0
ARC
  8
DETAIL
  6
CONTINOUS
 62
     5
 10
-76.699999999999989
 20
44.200000000000053
 30
0.0
 40
2.2999999999999998
 50
180.0
 51
270.0
  0
LINE
  8
DETAIL
  6
CONTINOUS
 62
     5
 10
-79.0
 20
44.200000000000053
 30
0.0
 11
-79.0
 21
47.0
 31
0.0
  0
ARC
  8
DETAIL
  6
CONTINOUS
 62
     5
 10
-76.699999999999989
 20
47.0
 30
0.0
 40
2.2999999999999998
 50
90.0
 51
180.0
  0
LINE
  8
DETAIL
  6
CONTINOUS
 62
     5
 10
-65.699999999999989
 20
41.899999999999977
 30
0.0
 11
-76.699999999999989
 21
41.899999999999977
 31
0.0
  0
ARC
  8
DETAIL
  6
CONTINOUS
 62
     5
 10
-65.699999999999989
 20
44.200000000000053
 30
0.0
 40
2.2999999999999998
 50
270.0
 51
0.0
  0
LINE
  8
DETAIL
  6
CONTINOUS
 62
     5
 10
-63.399999999999977
 20
44.200000000000053
 30
0.0
 11
-63.399999999999977
 21
47.0
 31
0.0
  0
LINE
  8
DETAIL
  6
CONTINOUS
 62
     5
 10
-65.699999999999989
 20
49.299999999999947
 30
0.0
 11
-76.699999999999989
 21
49.299999999999947
 31
0.0
  0
ARC
  8
DETAIL
  6
CONTINOUS
 62
     5
 10
-65.699999999999989
 20
47.0
 30
0.0
 40
2.2999999999999998
 50
0.0
 51
90.0
  0
ARC
  8
DETAIL
  6
CONTINOUS
 62
     5
 10
-76.699999999999989
 20
34.200000000000053
 30
0.0
 40
2.2999999999999998
 50
180.0
 51
270.0
  0
LINE
  8
DETAIL
  6
CONTINOUS
 62
     5
 10
-79.0
 20
34.200000000000053
 30
0.0
 11
-79.0
 21
37.0
 31
0.0
  0
ARC
  8
DETAIL
  6
CONTINOUS
 62
     5
 10
-76.699999999999989
 20
37.0
 30
0.0
 40
2.2999999999999998
 50
90.0
 51
180.0
  0
LINE
  8
DETAIL
  6
CONTINOUS
 62
     5
 10
-65.699999999999989
 20
31.899999999999981
 30
0.0
 11
-76.699999999999989
 21
31.899999999999981
 31
0.0
  0
ARC
  8
DETAIL
  6
CONTINOUS
 62
     5
 10
-65.699999999999989
 20
34.200000000000053
 30
0.0
 40
2.2999999999999998
 50
270.0
 51
0.0
  0
LINE
  8
DETAIL
  6
CONTINOUS
 62
     5
 10
-63.399999999999977
 20
34.200000000000053
 30
0.0
 11
-63.399999999999977
 21
37.0
 31
0.0
  0
LINE
  8
DETAIL
  6
CONTINOUS
 62
     5
 10
-65.699999999999989
 20
39.299999999999947
 30
0.0
 11
-76.699999999999989
 21
39.299999999999947
 31
0.0
  0
ARC
  8
DETAIL
  6
CONTINOUS
 62
     5
 10
-65.699999999999989
 20
37.0
 30
0.0
 40
2.2999999999999998
 50
0.0
 51
90.0
  0
ARC
  8
DETAIL
  6
CONTINOUS
 62
     5
 10
-76.699999999999989
 20
24.200000000000049
 30
0.0
 40
2.2999999999999998
 50
180.0
 51
270.0
  0
LINE
  8
DETAIL
  6
CONTINOUS
 62
     5
 10
-79.0
 20
24.200000000000049
 30
0.0
 11
-79.0
 21
27.0
 31
0.0
  0
ARC
  8
DETAIL
  6
CONTINOUS
 62
     5
 10
-76.699999999999989
 20
27.0
 30
0.0
 40
2.2999999999999998
 50
90.0
 51
180.0
  0
LINE
  8
DETAIL
  6
CONTINOUS
 62
     5
 10
-65.699999999999989
 20
21.899999999999981
 30
0.0
 11
-76.699999999999989
 21
21.899999999999981
 31
0.0
  0
ARC
  8
DETAIL
  6
CONTINOUS
 62
     5
 10
-65.699999999999989
 20
24.200000000000049
 30
0.0
 40
2.2999999999999998
 50
270.0
 51
0.0
  0
LINE
  8
DETAIL
  6
CONTINOUS
 62
     5
 10
-63.399999999999977
 20
24.200000000000049
 30
0.0
 11
-63.399999999999977
 21
27.0
 31
0.0
  0
LINE
  8
DETAIL
  6
CONTINOUS
 62
     5
 10
-65.699999999999989
 20
29.299999999999951
 30
0.0
 11
-76.699999999999989
 21
29.299999999999951
 31
0.0
  0
ARC
  8
DETAIL
  6
CONTINOUS
 62
     5
 10
-65.699999999999989
 20
27.0
 30
0.0
 40
2.2999999999999998
 50
0.0
 51
90.0
  0
ARC
  8
DETAIL
  6
CONTINOUS
 62
     5
 10
-76.699999999999989
 20
14.200000000000051
 30
0.0
 40
2.2999999999999998
 50
180.0
 51
270.0
  0
LINE
  8
DETAIL
  6
CONTINOUS
 62
     5
 10
-79.0
 20
14.200000000000051
 30
0.0
 11
-79.0
 21
17.0
 31
0.0
  0
ARC
  8
DETAIL
  6
CONTINOUS
 62
     5
 10
-76.699999999999989
 20
17.0
 30
0.0
 40
2.2999999999999998
 50
90.0
 51
180.0
  0
LINE
  8
DETAIL
  6
CONTINOUS
 62
     5
 10
-65.699999999999989
 20
11.899999999999981
 30
0.0
 11
-76.699999999999989
 21
11.899999999999981
 31
0.0
  0
ARC
  8
DETAIL
  6
CONTINOUS
 62
     5
 10
-65.699999999999989
 20
14.200000000000051
 30
0.0
 40
2.2999999999999998
 50
270.0
 51
0.0
  0
LINE
  8
DETAIL
  6
CONTINOUS
 62
     5
 10
-63.399999999999977
 20
14.200000000000051
 30
0.0
 11
-63.399999999999977
 21
17.0
 31
0.0
  0
LINE
  8
DETAIL
  6
CONTINOUS
 62
     5
 10
-65.699999999999989
 20
19.299999999999951
 30
0.0
 11
-76.699999999999989
 21
19.299999999999951
 31
0.0
  0
ARC
  8
DETAIL
  6
CONTINOUS
 62
     5
 10
-65.699999999999989
 20
17.0
 30
0.0
 40
2.2999999999999998
 50
0.0
 51
90.0
  0
ARC
  8
DETAIL
  6
CONTINOUS
 62
     5
 10
-65.699999999999989
 20
7.0
 30
0.0
 40
2.2999999999999998
 50
0.0
 51
90.0
  0
LINE
  8
DETAIL
  6
CONTINOUS
 62
     5
 10
-65.699999999999989
 20
9.2999999999999545
 30
0.0
 11
-76.699999999999989
 21
9.2999999999999545
 31
0.0
  0
LINE
  8
DETAIL
  6
CONTINOUS
 62
     5
 10
-63.399999999999977
 20
4.2000000000000446
 30
0.0
 11
-63.399999999999977
 21
7.0
 31
0.0
  0
ARC
  8
DETAIL
  6
CONTINOUS
 62
     5
 10
-65.699999999999989
 20
4.2000000000000446
 30
0.0
 40
2.2999999999999998
 50
270.0
 51
0.0
  0
LINE
  8
DETAIL
  6
CONTINOUS
 62
     5
 10
-65.699999999999989
 20
1.899999999999977
 30
0.0
 11
-76.699999999999989
 21
1.899999999999977
 31
0.0
  0
ARC
  8
DETAIL
  6
CONTINOUS
 62
     5
 10
-76.699999999999989
 20
7.0
 30
0.0
 40
2.2999999999999998
 50
90.0
 51
180.0
  0
LINE
  8
DETAIL
  6
CONTINOUS
 62
     5
 10
-79.0
 20
4.2000000000000446
 30
0.0
 11
-79.0
 21
7.0
 31
0.0
  0
ARC
  8
DETAIL
  6
CONTINOUS
 62
     5
 10
-76.699999999999989
 20
4.2000000000000446
 30
0.0
 40
2.2999999999999998
 50
180.0
 51
270.0
  0
LINE
  8
DETAIL
  6
CONTINOUS
 62
     5
 10
-46.899999999999977
 20
1.899999999999977
 30
0.0
 11
-57.899999999999977
 21
1.899999999999977
 31
0.0
  0
ARC
  8
DETAIL
  6
CONTINOUS
 62
     5
 10
-46.899999999999977
 20
4.2000000000000446
 30
0.0
 40
2.2999999999999998
 50
270.0
 51
0.0
  0
LINE
  8
DETAIL
  6
CONTINOUS
 62
     5
 10
-44.600000000000023
 20
4.2000000000000446
 30
0.0
 11
-44.600000000000023
 21
7.0
 31
0.0
  0
LINE
  8
DETAIL
  6
CONTINOUS
 62
     5
 10
-46.899999999999977
 20
9.2999999999999545
 30
0.0
 11
-57.899999999999977
 21
9.2999999999999545
 31
0.0
  0
ARC
  8
DETAIL
  6
CONTINOUS
 62
     5
 10
-46.899999999999977
 20
7.0
 30
0.0
 40
2.2999999999999998
 50
0.0
 51
90.0
  0
ARC
  8
DETAIL
  6
CONTINOUS
 62
     5
 10
-46.899999999999977
 20
17.0
 30
0.0
 40
2.2999999999999998
 50
0.0
 51
90.0
  0
LINE
  8
DETAIL
  6
CONTINOUS
 62
     5
 10
-46.899999999999977
 20
19.299999999999951
 30
0.0
 11
-57.899999999999977
 21
19.299999999999951
 31
0.0
  0
LINE
  8
DETAIL
  6
CONTINOUS
 62
     5
 10
-44.600000000000023
 20
14.200000000000051
 30
0.0
 11
-44.600000000000023
 21
17.0
 31
0.0
  0
ARC
  8
DETAIL
  6
CONTINOUS
 62
     5
 10
-46.899999999999977
 20
14.200000000000051
 30
0.0
 40
2.2999999999999998
 50
270.0
 51
0.0
  0
LINE
  8
DETAIL
  6
CONTINOUS
 62
     5
 10
-46.899999999999977
 20
11.899999999999981
 30
0.0
 11
-57.899999999999977
 21
11.899999999999981
 31
0.0
  0
ARC
  8
DETAIL
  6
CONTINOUS
 62
     5
 10
-46.899999999999977
 20
27.0
 30
0.0
 40
2.2999999999999998
 50
0.0
 51
90.0
  0
LINE
  8
DETAIL
  6
CONTINOUS
 62
     5
 10
-46.899999999999977
 20
29.299999999999951
 30
0.0
 11
-57.899999999999977
 21
29.299999999999951
 31
0.0
  0
LINE
  8
DETAIL
  6
CONTINOUS
 62
     5
 10
-44.600000000000023
 20
24.200000000000049
 30
0.0
 11
-44.600000000000023
 21
27.0
 31
0.0
  0
ARC
  8
DETAIL
  6
CONTINOUS
 62
     5
 10
-46.899999999999977
 20
24.200000000000049
 30
0.0
 40
2.2999999999999998
 50
270.0
 51
0.0
  0
LINE
  8
DETAIL
  6
CONTINOUS
 62
     5
 10
-46.899999999999977
 20
21.899999999999981
 30
0.0
 11
-57.899999999999977
 21
21.899999999999981
 31
0.0
  0
ARC
  8
DETAIL
  6
CONTINOUS
 62
     5
 10
-46.899999999999977
 20
37.0
 30
0.0
 40
2.2999999999999998
 50
0.0
 51
90.0
  0
LINE
  8
DETAIL
  6
CONTINOUS
 62
     5
 10
-46.899999999999977
 20
39.299999999999947
 30
0.0
 11
-57.899999999999977
 21
39.299999999999947
 31
0.0
  0
LINE
  8
DETAIL
  6
CONTINOUS
 62
     5
 10
-44.600000000000023
 20
34.200000000000053
 30
0.0
 11
-44.600000000000023
 21
37.0
 31
0.0
  0
ARC
  8
DETAIL
  6
CONTINOUS
 62
     5
 10
-46.899999999999977
 20
34.200000000000053
 30
0.0
 40
2.2999999999999998
 50
270.0
 51
0.0
  0
LINE
  8
DETAIL
  6
CONTINOUS
 62
     5
 10
-46.899999999999977
 20
31.899999999999981
 30
0.0
 11
-57.899999999999977
 21
31.899999999999981
 31
0.0
  0
ARC
  8
DETAIL
  6
CONTINOUS
 62
     5
 10
-46.899999999999977
 20
47.0
 30
0.0
 40
2.2999999999999998
 50
0.0
 51
90.0
  0
LINE
  8
DETAIL
  6
CONTINOUS
 62
     5
 10
-46.899999999999977
 20
49.299999999999947
 30
0.0
 11
-57.899999999999977
 21
49.299999999999947
 31
0.0
  0
LINE
  8
DETAIL
  6
CONTINOUS
 62
     5
 10
-44.600000000000023
 20
44.200000000000053
 30
0.0
 11
-44.600000000000023
 21
47.0
 31
0.0
  0
ARC
  8
DETAIL
  6
CONTINOUS
 62
     5
 10
-46.899999999999977
 20
44.200000000000053
 30
0.0
 40
2.2999999999999998
 50
270.0
 51
0.0
  0
LINE
  8
DETAIL
  6
CONTINOUS
 62
     5
 10
-46.899999999999977
 20
41.899999999999977
 30
0.0
 11
-57.899999999999977
 21
41.899999999999977
 31
0.0
  0
ARC
  8
DETAIL
  6
CONTINOUS
 62
     5
 10
-46.899999999999977
 20
57.0
 30
0.0
 40
2.2999999999999998
 50
0.0
 51
90.0
  0
LINE
  8
DETAIL
  6
CONTINOUS
 62
     5
 10
-46.899999999999977
 20
59.299999999999947
 30
0.0
 11
-57.899999999999977
 21
59.299999999999947
 31
0.0
  0
LINE
  8
DETAIL
  6
CONTINOUS
 62
     5
 10
-44.600000000000023
 20
54.200000000000053
 30
0.0
 11
-44.600000000000023
 21
57.0
 31
0.0
  0
ARC
  8
DETAIL
  6
CONTINOUS
 62
     5
 10
-46.899999999999977
 20
54.200000000000053
 30
0.0
 40
2.2999999999999998
 50
270.0
 51
0.0
  0
LINE
  8
DETAIL
  6
CONTINOUS
 62
     5
 10
-46.899999999999977
 20
51.899999999999977
 30
0.0
 11
-57.899999999999977
 21
51.899999999999977
 31
0.0
  0
ARC
  8
DETAIL
  6
CONTINOUS
 62
     5
 10
-46.899999999999977
 20
67.0
 30
0.0
 40
2.2999999999999998
 50
0.0
 51
90.0
  0
LINE
  8
DETAIL
  6
CONTINOUS
 62
     5
 10
-46.899999999999977
 20
69.299999999999955
 30
0.0
 11
-57.899999999999977
 21
69.299999999999955
 31
0.0
  0
LINE
  8
DETAIL
  6
CONTINOUS
 62
     5
 10
-44.600000000000023
 20
64.200000000000045
 30
0.0
 11
-44.600000000000023
 21
67.0
 31
0.0
  0
ARC
  8
DETAIL
  6
CONTINOUS
 62
     5
 10
-46.899999999999977
 20
64.200000000000045
 30
0.0
 40
2.2999999999999998
 50
270.0
 51
0.0
  0
LINE
  8
DETAIL
  6
CONTINOUS
 62
     5
 10
-46.899999999999977
 20
61.899999999999977
 30
0.0
 11
-57.899999999999977
 21
61.899999999999977
 31
0.0
  0
ARC
  8
DETAIL
  6
CONTINOUS
 62
     5
 10
-46.899999999999977
 20
77.0
 30
0.0
 40
2.2999999999999998
 50
0.0
 51
90.0
  0
LINE
  8
DETAIL
  6
CONTINOUS
 62
     5
 10
-46.899999999999977
 20
79.299999999999955
 30
0.0
 11
-57.899999999999977
 21
79.299999999999955
 31
0.0
  0
LINE
  8
DETAIL
  6
CONTINOUS
 62
     5
 10
-44.600000000000023
 20
74.200000000000045
 30
0.0
 11
-44.600000000000023
 21
77.0
 31
0.0
  0
ARC
  8
DETAIL
  6
CONTINOUS
 62
     5
 10
-46.899999999999977
 20
74.200000000000045
 30
0.0
 40
2.2999999999999998
 50
270.0
 51
0.0
  0
LINE
  8
DETAIL
  6
CONTINOUS
 62
     5
 10
-46.899999999999977
 20
71.899999999999977
 30
0.0
 11
-57.899999999999977
 21
71.899999999999977
 31
0.0
  0
LINE
  8
DETAIL
  6
CONTINOUS
 62
     5
 10
-46.899999999999977
 20
81.899999999999977
 30
0.0
 11
-57.899999999999977
 21
81.899999999999977
 31
0.0
  0
ARC
  8
DETAIL
  6
CONTINOUS
 62
     5
 10
-35.5
 20
4.2000000000000446
 30
0.0
 40
2.2999999999999998
 50
180.0
 51
270.0
  0
LINE
  8
DETAIL
  6
CONTINOUS
 62
     5
 10
-37.800000000000011
 20
4.2000000000000446
 30
0.0
 11
-37.800000000000011
 21
7.0
 31
0.0
  0
ARC
  8
DETAIL
  6
CONTINOUS
 62
     5
 10
-35.5
 20
7.0
 30
0.0
 40
2.2999999999999998
 50
90.0
 51
180.0
  0
LINE
  8
DETAIL
  6
CONTINOUS
 62
     5
 10
-24.5
 20
1.899999999999977
 30
0.0
 11
-35.5
 21
1.899999999999977
 31
0.0
  0
ARC
  8
DETAIL
  6
CONTINOUS
 62
     5
 10
-24.5
 20
4.2000000000000446
 30
0.0
 40
2.2999999999999998
 50
270.0
 51
0.0
  0
LINE
  8
DETAIL
  6
CONTINOUS
 62
     5
 10
-22.199999999999989
 20
4.2000000000000446
 30
0.0
 11
-22.199999999999989
 21
7.0
 31
0.0
  0
LINE
  8
DETAIL
  6
CONTINOUS
 62
     5
 10
-24.5
 20
9.2999999999999545
 30
0.0
 11
-35.5
 21
9.2999999999999545
 31
0.0
  0
ARC
  8
DETAIL
  6
CONTINOUS
 62
     5
 10
-24.5
 20
7.0
 30
0.0
 40
2.2999999999999998
 50
0.0
 51
90.0
  0
ARC
  8
DETAIL
  6
CONTINOUS
 62
     5
 10
-24.5
 20
17.0
 30
0.0
 40
2.2999999999999998
 50
0.0
 51
90.0
  0
LINE
  8
DETAIL
  6
CONTINOUS
 62
     5
 10
-24.5
 20
19.299999999999951
 30
0.0
 11
-35.5
 21
19.299999999999951
 31
0.0
  0
LINE
  8
DETAIL
  6
CONTINOUS
 62
     5
 10
-22.199999999999989
 20
14.200000000000051
 30
0.0
 11
-22.199999999999989
 21
17.0
 31
0.0
  0
ARC
  8
DETAIL
  6
CONTINOUS
 62
     5
 10
-24.5
 20
14.200000000000051
 30
0.0
 40
2.2999999999999998
 50
270.0
 51
0.0
  0
LINE
  8
DETAIL
  6
CONTINOUS
 62
     5
 10
-24.5
 20
11.899999999999981
 30
0.0
 11
-35.5
 21
11.899999999999981
 31
0.0
  0
ARC
  8
DETAIL
  6
CONTINOUS
 62
     5
 10
-35.5
 20
17.0
 30
0.0
 40
2.2999999999999998
 50
90.0
 51
180.0
  0
LINE
  8
DETAIL
  6
CONTINOUS
 62
     5
 10
-37.800000000000011
 20
14.200000000000051
 30
0.0
 11
-37.800000000000011
 21
17.0
 31
0.0
  0
ARC
  8
DETAIL
  6
CONTINOUS
 62
     5
 10
-35.5
 20
14.200000000000051
 30
0.0
 40
2.2999999999999998
 50
180.0
 51
270.0
  0
ARC
  8
DETAIL
  6
CONTINOUS
 62
     5
 10
-24.5
 20
27.0
 30
0.0
 40
2.2999999999999998
 50
0.0
 51
90.0
  0
LINE
  8
DETAIL
  6
CONTINOUS
 62
     5
 10
-24.5
 20
29.299999999999951
 30
0.0
 11
-35.5
 21
29.299999999999951
 31
0.0
  0
LINE
  8
DETAIL
  6
CONTINOUS
 62
     5
 10
-22.199999999999989
 20
24.200000000000049
 30
0.0
 11
-22.199999999999989
 21
27.0
 31
0.0
  0
ARC
  8
DETAIL
  6
CONTINOUS
 62
     5
 10
-24.5
 20
24.200000000000049
 30
0.0
 40
2.2999999999999998
 50
270.0
 51
0.0
  0
LINE
  8
DETAIL
  6
CONTINOUS
 62
     5
 10
-24.5
 20
21.899999999999981
 30
0.0
 11
-35.5
 21
21.899999999999981
 31
0.0
  0
ARC
  8
DETAIL
  6
CONTINOUS
 62
     5
 10
-35.5
 20
27.0
 30
0.0
 40
2.2999999999999998
 50
90.0
 51
180.0
  0
LINE
  8
DETAIL
  6
CONTINOUS
 62
     5
 10
-37.800000000000011
 20
24.200000000000049
 30
0.0
 11
-37.800000000000011
 21
27.0
 31
0.0
  0
ARC
  8
DETAIL
  6
CONTINOUS
 62
     5
 10
-35.5
 20
24.200000000000049
 30
0.0
 40
2.2999999999999998
 50
180.0
 51
270.0
  0
ARC
  8
DETAIL
  6
CONTINOUS
 62
     5
 10
-24.5
 20
37.0
 30
0.0
 40
2.2999999999999998
 50
0.0
 51
90.0
  0
LINE
  8
DETAIL
  6
CONTINOUS
 62
     5
 10
-24.5
 20
39.299999999999947
 30
0.0
 11
-35.5
 21
39.299999999999947
 31
0.0
  0
LINE
  8
DETAIL
  6
CONTINOUS
 62
     5
 10
-22.199999999999989
 20
34.200000000000053
 30
0.0
 11
-22.199999999999989
 21
37.0
 31
0.0
  0
ARC
  8
DETAIL
  6
CONTINOUS
 62
     5
 10
-24.5
 20
34.200000000000053
 30
0.0
 40
2.2999999999999998
 50
270.0
 51
0.0
  0
LINE
  8
DETAIL
  6
CONTINOUS
 62
     5
 10
-24.5
 20
31.899999999999981
 30
0.0
 11
-35.5
 21
31.899999999999981
 31
0.0
  0
ARC
  8
DETAIL
  6
CONTINOUS
 62
     5
 10
-35.5
 20
37.0
 30
0.0
 40
2.2999999999999998
 50
90.0
 51
180.0
  0
LINE
  8
DETAIL
  6
CONTINOUS
 62
     5
 10
-37.800000000000011
 20
34.200000000000053
 30
0.0
 11
-37.800000000000011
 21
37.0
 31
0.0
  0
ARC
  8
DETAIL
  6
CONTINOUS
 62
     5
 10
-35.5
 20
34.200000000000053
 30
0.0
 40
2.2999999999999998
 50
180.0
 51
270.0
  0
ARC
  8
DETAIL
  6
CONTINOUS
 62
     5
 10
-24.5
 20
47.0
 30
0.0
 40
2.2999999999999998
 50
0.0
 51
90.0
  0
LINE
  8
DETAIL
  6
CONTINOUS
 62
     5
 10
-24.5
 20
49.299999999999947
 30
0.0
 11
-35.5
 21
49.299999999999947
 31
0.0
  0
LINE
  8
DETAIL
  6
CONTINOUS
 62
     5
 10
-22.199999999999989
 20
44.200000000000053
 30
0.0
 11
-22.199999999999989
 21
47.0
 31
0.0
  0
ARC
  8
DETAIL
  6
CONTINOUS
 62
     5
 10
-24.5
 20
44.200000000000053
 30
0.0
 40
2.2999999999999998
 50
270.0
 51
0.0
  0
LINE
  8
DETAIL
  6
CONTINOUS
 62
     5
 10
-24.5
 20
41.899999999999977
 30
0.0
 11
-35.5
 21
41.899999999999977
 31
0.0
  0
ARC
  8
DETAIL
  6
CONTINOUS
 62
     5
 10
-35.5
 20
47.0
 30
0.0
 40
2.2999999999999998
 50
90.0
 51
180.0
  0
LINE
  8
DETAIL
  6
CONTINOUS
 62
     5
 10
-37.800000000000011
 20
44.200000000000053
 30
0.0
 11
-37.800000000000011
 21
47.0
 31
0.0
  0
ARC
  8
DETAIL
  6
CONTINOUS
 62
     5
 10
-35.5
 20
44.200000000000053
 30
0.0
 40
2.2999999999999998
 50
180.0
 51
270.0
  0
ARC
  8
DETAIL
  6
CONTINOUS
 62
     5
 10
-24.5
 20
57.0
 30
0.0
 40
2.2999999999999998
 50
0.0
 51
90.0
  0
LINE
  8
DETAIL
  6
CONTINOUS
 62
     5
 10
-24.5
 20
59.299999999999947
 30
0.0
 11
-35.5
 21
59.299999999999947
 31
0.0
  0
LINE
  8
DETAIL
  6
CONTINOUS
 62
     5
 10
-22.199999999999989
 20
54.200000000000053
 30
0.0
 11
-22.199999999999989
 21
57.0
 31
0.0
  0
ARC
  8
DETAIL
  6
CONTINOUS
 62
     5
 10
-24.5
 20
54.200000000000053
 30
0.0
 40
2.2999999999999998
 50
270.0
 51
0.0
  0
LINE
  8
DETAIL
  6
CONTINOUS
 62
     5
 10
-24.5
 20
51.899999999999977
 30
0.0
 11
-35.5
 21
51.899999999999977
 31
0.0
  0
ARC
  8
DETAIL
  6
CONTINOUS
 62
     5
 10
-35.5
 20
57.0
 30
0.0
 40
2.2999999999999998
 50
90.0
 51
180.0
  0
LINE
  8
DETAIL
  6
CONTINOUS
 62
     5
 10
-37.800000000000011
 20
54.200000000000053
 30
0.0
 11
-37.800000000000011
 21
57.0
 31
0.0
  0
ARC
  8
DETAIL
  6
CONTINOUS
 62
     5
 10
-35.5
 20
54.200000000000053
 30
0.0
 40
2.2999999999999998
 50
180.0
 51
270.0
  0
ARC
  8
DETAIL
  6
CONTINOUS
 62
     5
 10
-24.5
 20
67.0
 30
0.0
 40
2.2999999999999998
 50
0.0
 51
90.0
  0
LINE
  8
DETAIL
  6
CONTINOUS
 62
     5
 10
-24.5
 20
69.299999999999955
 30
0.0
 11
-35.5
 21
69.299999999999955
 31
0.0
  0
LINE
  8
DETAIL
  6
CONTINOUS
 62
     5
 10
-22.199999999999989
 20
64.200000000000045
 30
0.0
 11
-22.199999999999989
 21
67.0
 31
0.0
  0
ARC
  8
DETAIL
  6
CONTINOUS
 62
     5
 10
-24.5
 20
64.200000000000045
 30
0.0
 40
2.2999999999999998
 50
270.0
 51
0.0
  0
LINE
  8
DETAIL
  6
CONTINOUS
 62
     5
 10
-24.5
 20
61.899999999999977
 30
0.0
 11
-35.5
 21
61.899999999999977
 31
0.0
  0
ARC
  8
DETAIL
  6
CONTINOUS
 62
     5
 10
-35.5
 20
67.0
 30
0.0
 40
2.2999999999999998
 50
90.0
 51
180.0
  0
LINE
  8
DETAIL
  6
CONTINOUS
 62
     5
 10
-37.800000000000011
 20
64.200000000000045
 30
0.0
 11
-37.800000000000011
 21
67.0
 31
0.0
  0
ARC
  8
DETAIL
  6
CONTINOUS
 62
     5
 10
-35.5
 20
64.200000000000045
 30
0.0
 40
2.2999999999999998
 50
180.0
 51
270.0
  0
ARC
  8
DETAIL
  6
CONTINOUS
 62
     5
 10
-24.5
 20
77.0
 30
0.0
 40
2.2999999999999998
 50
0.0
 51
90.0
  0
LINE
  8
DETAIL
  6
CONTINOUS
 62
     5
 10
-24.5
 20
79.299999999999955
 30
0.0
 11
-35.5
 21
79.299999999999955
 31
0.0
  0
LINE
  8
DETAIL
  6
CONTINOUS
 62
     5
 10
-22.199999999999989
 20
74.200000000000045
 30
0.0
 11
-22.199999999999989
 21
77.0
 31
0.0
  0
ARC
  8
DETAIL
  6
CONTINOUS
 62
     5
 10
-24.5
 20
74.200000000000045
 30
0.0
 40
2.2999999999999998
 50
270.0
 51
0.0
  0
LINE
  8
DETAIL
  6
CONTINOUS
 62
     5
 10
-24.5
 20
71.899999999999977
 30
0.0
 11
-35.5
 21
71.899999999999977
 31
0.0
  0
ARC
  8
DETAIL
  6
CONTINOUS
 62
     5
 10
-35.5
 20
77.0
 30
0.0
 40
2.2999999999999998
 50
90.0
 51
180.0
  0
LINE
  8
DETAIL
  6
CONTINOUS
 62
     5
 10
-37.800000000000011
 20
74.200000000000045
 30
0.0
 11
-37.800000000000011
 21
77.0
 31
0.0
  0
ARC
  8
DETAIL
  6
CONTINOUS
 62
     5
 10
-35.5
 20
74.200000000000045
 30
0.0
 40
2.2999999999999998
 50
180.0
 51
270.0
  0
LINE
  8
DETAIL
  6
CONTINOUS
 62
     5
 10
-24.5
 20
81.899999999999977
 30
0.0
 11
-35.5
 21
81.899999999999977
 31
0.0
  0
LINE
  8
DETAIL
  6
CONTINOUS
 62
     5
 10
-5.7000000000000446
 20
81.899999999999977
 30
0.0
 11
-16.699999999999989
 21
81.899999999999977
 31
0.0
  0
ARC
  8
DETAIL
  6
CONTINOUS
 62
     5
 10
-16.699999999999989
 20
74.200000000000045
 30
0.0
 40
2.2999999999999998
 50
180.0
 51
270.0
  0
LINE
  8
DETAIL
  6
CONTINOUS
 62
     5
 10
-19.0
 20
74.200000000000045
 30
0.0
 11
-19.0
 21
77.0
 31
0.0
  0
ARC
  8
DETAIL
  6
CONTINOUS
 62
     5
 10
-16.699999999999989
 20
77.0
 30
0.0
 40
2.2999999999999998
 50
90.0
 51
180.0
  0
LINE
  8
DETAIL
  6
CONTINOUS
 62
     5
 10
-5.7000000000000446
 20
71.899999999999977
 30
0.0
 11
-16.699999999999989
 21
71.899999999999977
 31
0.0
  0
ARC
  8
DETAIL
  6
CONTINOUS
 62
     5
 10
-5.7000000000000446
 20
74.200000000000045
 30
0.0
 40
2.2999999999999998
 50
270.0
 51
0.0
  0
LINE
  8
DETAIL
  6
CONTINOUS
 62
     5
 10
-3.3999999999999768
 20
74.200000000000045
 30
0.0
 11
-3.3999999999999768
 21
77.0
 31
0.0
  0
LINE
  8
DETAIL
  6
CONTINOUS
 62
     5
 10
-5.7000000000000446
 20
79.299999999999955
 30
0.0
 11
-16.699999999999989
 21
79.299999999999955
 31
0.0
  0
ARC
  8
DETAIL
  6
CONTINOUS
 62
     5
 10
-5.7000000000000446
 20
77.0
 30
0.0
 40
2.2999999999999998
 50
0.0
 51
90.0
  0
ARC
  8
DETAIL
  6
CONTINOUS
 62
     5
 10
-16.699999999999989
 20
64.200000000000045
 30
0.0
 40
2.2999999999999998
 50
180.0
 51
270.0
  0
LINE
  8
DETAIL
  6
CONTINOUS
 62
     5
 10
-19.0
 20
64.200000000000045
 30
0.0
 11
-19.0
 21
67.0
 31
0.0
  0
ARC
  8
DETAIL
  6
CONTINOUS
 62
     5
 10
-16.699999999999989
 20
67.0
 30
0.0
 40
2.2999999999999998
 50
90.0
 51
180.0
  0
LINE
  8
DETAIL
  6
CONTINOUS
 62
     5
 10
-5.7000000000000446
 20
61.899999999999977
 30
0.0
 11
-16.699999999999989
 21
61.899999999999977
 31
0.0
  0
ARC
  8
DETAIL
  6
CONTINOUS
 62
     5
 10
-5.7000000000000446
 20
64.200000000000045
 30
0.0
 40
2.2999999999999998
 50
270.0
 51
0.0
  0
LINE
  8
DETAIL
  6
CONTINOUS
 62
     5
 10
-3.3999999999999768
 20
64.200000000000045
 30
0.0
 11
-3.3999999999999768
 21
67.0
 31
0.0
  0
LINE
  8
DETAIL
  6
CONTINOUS
 62
     5
 10
-5.7000000000000446
 20
69.299999999999955
 30
0.0
 11
-16.699999999999989
 21
69.299999999999955
 31
0.0
  0
ARC
  8
DETAIL
  6
CONTINOUS
 62
     5
 10
-5.7000000000000446
 20
67.0
 30
0.0
 40
2.2999999999999998
 50
0.0
 51
90.0
  0
ARC
  8
DETAIL
  6
CONTINOUS
 62
     5
 10
-16.699999999999989
 20
54.200000000000053
 30
0.0
 40
2.2999999999999998
 50
180.0
 51
270.0
  0
LINE
  8
DETAIL
  6
CONTINOUS
 62
     5
 10
-19.0
 20
54.200000000000053
 30
0.0
 11
-19.0
 21
57.0
 31
0.0
  0
ARC
  8
DETAIL
  6
CONTINOUS
 62
     5
 10
-16.699999999999989
 20
57.0
 30
0.0
 40
2.2999999999999998
 50
90.0
 51
180.0
  0
LINE
  8
DETAIL
  6
CONTINOUS
 62
     5
 10
-5.7000000000000446
 20
51.899999999999977
 30
0.0
 11
-16.699999999999989
 21
51.899999999999977
 31
0.0
  0
ARC
  8
DETAIL
  6
CONTINOUS
 62
     5
 10
-5.7000000000000446
 20
54.200000000000053
 30
0.0
 40
2.2999999999999998
 50
270.0
 51
0.0
  0
LINE
  8
DETAIL
  6
CONTINOUS
 62
     5
 10
-3.3999999999999768
 20
54.200000000000053
 30
0.0
 11
-3.3999999999999768
 21
57.0
 31
0.0
  0
LINE
  8
DETAIL
  6
CONTINOUS
 62
     5
 10
-5.7000000000000446
 20
59.299999999999947
 30
0.0
 11
-16.699999999999989
 21
59.299999999999947
 31
0.0
  0
ARC
  8
DETAIL
  6
CONTINOUS
 62
     5
 10
-5.7000000000000446
 20
57.0
 30
0.0
 40
2.2999999999999998
 50
0.0
 51
90.0
  0
ARC
  8
DETAIL
  6
CONTINOUS
 62
     5
 10
-16.699999999999989
 20
44.200000000000053
 30
0.0
 40
2.2999999999999998
 50
180.0
 51
270.0
  0
LINE
  8
DETAIL
  6
CONTINOUS
 62
     5
 10
-19.0
 20
44.200000000000053
 30
0.0
 11
-19.0
 21
47.0
 31
0.0
  0
ARC
  8
DETAIL
  6
CONTINOUS
 62
     5
 10
-16.699999999999989
 20
47.0
 30
0.0
 40
2.2999999999999998
 50
90.0
 51
180.0
  0
LINE
  8
DETAIL
  6
CONTINOUS
 62
     5
 10
-5.7000000000000446
 20
41.899999999999977
 30
0.0
 11
-16.699999999999989
 21
41.899999999999977
 31
0.0
  0
ARC
  8
DETAIL
  6
CONTINOUS
 62
     5
 10
-5.7000000000000446
 20
44.200000000000053
 30
0.0
 40
2.2999999999999998
 50
270.0
 51
0.0
  0
LINE
  8
DETAIL
  6
CONTINOUS
 62
     5
 10
-3.3999999999999768
 20
44.200000000000053
 30
0.0
 11
-3.3999999999999768
 21
47.0
 31
0.0
  0
LINE
  8
DETAIL
  6
CONTINOUS
 62
     5
 10
-5.7000000000000446
 20
49.299999999999947
 30
0.0
 11
-16.699999999999989
 21
49.299999999999947
 31
0.0
  0
ARC
  8
DETAIL
  6
CONTINOUS
 62
     5
 10
-5.7000000000000446
 20
47.0
 30
0.0
 40
2.2999999999999998
 50
0.0
 51
90.0
  0
ARC
  8
DETAIL
  6
CONTINOUS
 62
     5
 10
-16.699999999999989
 20
34.200000000000053
 30
0.0
 40
2.2999999999999998
 50
180.0
 51
270.0
  0
LINE
  8
DETAIL
  6
CONTINOUS
 62
     5
 10
-19.0
 20
34.200000000000053
 30
0.0
 11
-19.0
 21
37.0
 31
0.0
  0
ARC
  8
DETAIL
  6
CONTINOUS
 62
     5
 10
-16.699999999999989
 20
37.0
 30
0.0
 40
2.2999999999999998
 50
90.0
 51
180.0
  0
LINE
  8
DETAIL
  6
CONTINOUS
 62
     5
 10
-5.7000000000000446
 20
31.899999999999981
 30
0.0
 11
-16.699999999999989
 21
31.899999999999981
 31
0.0
  0
ARC
  8
DETAIL
  6
CONTINOUS
 62
     5
 10
-5.7000000000000446
 20
34.200000000000053
 30
0.0
 40
2.2999999999999998
 50
270.0
 51
0.0
  0
LINE
  8
DETAIL
  6
CONTINOUS
 62
     5
 10
-3.3999999999999768
 20
34.200000000000053
 30
0.0
 11
-3.3999999999999768
 21
37.0
 31
0.0
  0
LINE
  8
DETAIL
  6
CONTINOUS
 62
     5
 10
-5.7000000000000446
 20
39.299999999999947
 30
0.0
 11
-16.699999999999989
 21
39.299999999999947
 31
0.0
  0
ARC
  8
DETAIL
  6
CONTINOUS
 62
     5
 10
-5.7000000000000446
 20
37.0
 30
0.0
 40
2.2999999999999998
 50
0.0
 51
90.0
  0
ARC
  8
DETAIL
  6
CONTINOUS
 62
     5
 10
-16.699999999999989
 20
24.200000000000049
 30
0.0
 40
2.2999999999999998
 50
180.0
 51
270.0
  0
LINE
  8
DETAIL
  6
CONTINOUS
 62
     5
 10
-19.0
 20
24.200000000000049
 30
0.0
 11
-19.0
 21
27.0
 31
0.0
  0
ARC
  8
DETAIL
  6
CONTINOUS
 62
     5
 10
-16.699999999999989
 20
27.0
 30
0.0
 40
2.2999999999999998
 50
90.0
 51
180.0
  0
LINE
  8
DETAIL
  6
CONTINOUS
 62
     5
 10
-5.7000000000000446
 20
21.899999999999981
 30
0.0
 11
-16.699999999999989
 21
21.899999999999981
 31
0.0
  0
ARC
  8
DETAIL
  6
CONTINOUS
 62
     5
 10
-5.7000000000000446
 20
24.200000000000049
 30
0.0
 40
2.2999999999999998
 50
270.0
 51
0.0
  0
LINE
  8
DETAIL
  6
CONTINOUS
 62
     5
 10
-3.3999999999999768
 20
24.200000000000049
 30
0.0
 11
-3.3999999999999768
 21
27.0
 31
0.0
  0
LINE
  8
DETAIL
  6
CONTINOUS
 62
     5
 10
-5.7000000000000446
 20
29.299999999999951
 30
0.0
 11
-16.699999999999989
 21
29.299999999999951
 31
0.0
  0
ARC
  8
DETAIL
  6
CONTINOUS
 62
     5
 10
-5.7000000000000446
 20
27.0
 30
0.0
 40
2.2999999999999998
 50
0.0
 51
90.0
  0
ARC
  8
DETAIL
  6
CONTINOUS
 62
     5
 10
-16.699999999999989
 20
14.200000000000051
 30
0.0
 40
2.2999999999999998
 50
180.0
 51
270.0
  0
LINE
  8
DETAIL
  6
CONTINOUS
 62
     5
 10
-19.0
 20
14.200000000000051
 30
0.0
 11
-19.0
 21
17.0
 31
0.0
  0
ARC
  8
DETAIL
  6
CONTINOUS
 62
     5
 10
-16.699999999999989
 20
17.0
 30
0.0
 40
2.2999999999999998
 50
90.0
 51
180.0
  0
LINE
  8
DETAIL
  6
CONTINOUS
 62
     5
 10
-5.7000000000000446
 20
11.899999999999981
 30
0.0
 11
-16.699999999999989
 21
11.899999999999981
 31
0.0
  0
ARC
  8
DETAIL
  6
CONTINOUS
 62
     5
 10
-5.7000000000000446
 20
14.200000000000051
 30
0.0
 40
2.2999999999999998
 50
270.0
 51
0.0
  0
LINE
  8
DETAIL
  6
CONTINOUS
 62
     5
 10
-3.3999999999999768
 20
14.200000000000051
 30
0.0
 11
-3.3999999999999768
 21
17.0
 31
0.0
  0
LINE
  8
DETAIL
  6
CONTINOUS
 62
     5
 10
-5.7000000000000446
 20
19.299999999999951
 30
0.0
 11
-16.699999999999989
 21
19.299999999999951
 31
0.0
  0
ARC
  8
DETAIL
  6
CONTINOUS
 62
     5
 10
-5.7000000000000446
 20
17.0
 30
0.0
 40
2.2999999999999998
 50
0.0
 51
90.0
  0
ARC
  8
DETAIL
  6
CONTINOUS
 62
     5
 10
-5.7000000000000446
 20
7.0
 30
0.0
 40
2.2999999999999998
 50
0.0
 51
90.0
  0
LINE
  8
DETAIL
  6
CONTINOUS
 62
     5
 10
-5.7000000000000446
 20
9.2999999999999545
 30
0.0
 11
-16.699999999999989
 21
9.2999999999999545
 31
0.0
  0
LINE
  8
DETAIL
  6
CONTINOUS
 62
     5
 10
-3.3999999999999768
 20
4.2000000000000446
 30
0.0
 11
-3.3999999999999768
 21
7.0
 31
0.0
  0
ARC
  8
DETAIL
  6
CONTINOUS
 62
     5
 10
-5.7000000000000446
 20
4.2000000000000446
 30
0.0
 40
2.2999999999999998
 50
270.0
 51
0.0
  0
LINE
  8
DETAIL
  6
CONTINOUS
 62
     5
 10
-5.7000000000000446
 20
1.899999999999977
 30
0.0
 11
-16.699999999999989
 21
1.899999999999977
 31
0.0
  0
ARC
  8
DETAIL
  6
CONTINOUS
 62
     5
 10
-16.699999999999989
 20
7.0
 30
0.0
 40
2.2999999999999998
 50
90.0
 51
180.0
  0
LINE
  8
DETAIL
  6
CONTINOUS
 62
     5
 10
-19.0
 20
4.2000000000000446
 30
0.0
 11
-19.0
 21
7.0
 31
0.0
  0
ARC
  8
DETAIL
  6
CONTINOUS
 62
     5
 10
-16.699999999999989
 20
4.2000000000000446
 30
0.0
 40
2.2999999999999998
 50
180.0
 51
270.0
  0
ARC
  8
DETAIL
  6
CONTINOUS
 62
     5
 10
-57.899999999999977
 20
87.0
 30
0.0
 40
2.2999999999999998
 50
90.0
 51
180.0
  0
ARC
  8
DETAIL
  6
CONTINOUS
 62
     5
 10
-57.899999999999977
 20
97.0
 30
0.0
 40
2.2999999999999998
 50
90.0
 51
180.0
  0
ARC
  8
DETAIL
  6
CONTINOUS
 62
     5
 10
-57.899999999999977
 20
94.200000000000045
 30
0.0
 40
2.2999999999999998
 50
180.0
 51
270.0
  0
ARC
  8
DETAIL
  6
CONTINOUS
 62
     5
 10
-57.899999999999977
 20
107.0
 30
0.0
 40
2.2999999999999998
 50
90.0
 51
180.0
  0
ARC
  8
DETAIL
  6
CONTINOUS
 62
     5
 10
-57.899999999999977
 20
104.2
 30
0.0
 40
2.2999999999999998
 50
180.0
 51
270.0
  0
ARC
  8
DETAIL
  6
CONTINOUS
 62
     5
 10
-57.899999999999977
 20
117.0
 30
0.0
 40
2.2999999999999998
 50
90.0
 51
180.0
  0
ARC
  8
DETAIL
  6
CONTINOUS
 62
     5
 10
-57.899999999999977
 20
114.2
 30
0.0
 40
2.2999999999999998
 50
180.0
 51
270.0
  0
ARC
  8
DETAIL
  6
CONTINOUS
 62
     5
 10
-88.099999999999966
 20
87.0
 30
0.0
 40
2.2999999999999998
 50
0.0
 51
90.0
  0
LINE
  8
DETAIL
  6
CONTINOUS
 62
     5
 10
-88.099999999999966
 20
89.299999999999955
 30
0.0
 11
-99.100000000000023
 21
89.299999999999955
 31
0.0
  0
LINE
  8
DETAIL
  6
CONTINOUS
 62
     5
 10
-85.799999999999955
 20
84.200000000000045
 30
0.0
 11
-85.799999999999955
 21
87.0
 31
0.0
  0
ARC
  8
DETAIL
  6
CONTINOUS
 62
     5
 10
-99.100000000000023
 20
87.0
 30
0.0
 40
2.2999999999999998
 50
90.0
 51
180.0
  0
LINE
  8
DETAIL
  6
CONTINOUS
 62
     5
 10
-101.40000000000001
 20
84.200000000000045
 30
0.0
 11
-101.40000000000001
 21
87.0
 31
0.0
  0
ARC
  8
DETAIL
  6
CONTINOUS
 62
     5
 10
-88.099999999999966
 20
97.0
 30
0.0
 40
2.2999999999999998
 50
0.0
 51
90.0
  0
LINE
  8
DETAIL
  6
CONTINOUS
 62
     5
 10
-88.099999999999966
 20
99.299999999999955
 30
0.0
 11
-99.100000000000023
 21
99.299999999999955
 31
0.0
  0
LINE
  8
DETAIL
  6
CONTINOUS
 62
     5
 10
-85.799999999999955
 20
94.200000000000045
 30
0.0
 11
-85.799999999999955
 21
97.0
 31
0.0
  0
ARC
  8
DETAIL
  6
CONTINOUS
 62
     5
 10
-88.099999999999966
 20
94.200000000000045
 30
0.0
 40
2.2999999999999998
 50
270.0
 51
0.0
  0
LINE
  8
DETAIL
  6
CONTINOUS
 62
     5
 10
-88.099999999999966
 20
91.899999999999977
 30
0.0
 11
-99.100000000000023
 21
91.899999999999977
 31
0.0
  0
ARC
  8
DETAIL
  6
CONTINOUS
 62
     5
 10
-99.100000000000023
 20
97.0
 30
0.0
 40
2.2999999999999998
 50
90.0
 51
180.0
  0
LINE
  8
DETAIL
  6
CONTINOUS
 62
     5
 10
-101.40000000000001
 20
94.200000000000045
 30
0.0
 11
-101.40000000000001
 21
97.0
 31
0.0
  0
ARC
  8
DETAIL
  6
CONTINOUS
 62
     5
 10
-99.100000000000023
 20
94.200000000000045
 30
0.0
 40
2.2999999999999998
 50
180.0
 51
270.0
  0
ARC
  8
DETAIL
  6
CONTINOUS
 62
     5
 10
-88.099999999999966
 20
107.0
 30
0.0
 40
2.2999999999999998
 50
0.0
 51
90.0
  0
LINE
  8
DETAIL
  6
CONTINOUS
 62
     5
 10
-88.099999999999966
 20
109.3
 30
0.0
 11
-99.100000000000023
 21
109.3
 31
0.0
  0
LINE
  8
DETAIL
  6
CONTINOUS
 62
     5
 10
-85.799999999999955
 20
104.2
 30
0.0
 11
-85.799999999999955
 21
107.0
 31
0.0
  0
ARC
  8
DETAIL
  6
CONTINOUS
 62
     5
 10
-88.099999999999966
 20
104.2
 30
0.0
 40
2.2999999999999998
 50
270.0
 51
0.0
  0
LINE
  8
DETAIL
  6
CONTINOUS
 62
     5
 10
-88.099999999999966
 20
101.90000000000001
 30
0.0
 11
-99.100000000000023
 21
101.90000000000001
 31
0.0
  0
ARC
  8
DETAIL
  6
CONTINOUS
 62
     5
 10
-99.100000000000023
 20
107.0
 30
0.0
 40
2.2999999999999998
 50
90.0
 51
180.0
  0
LINE
  8
DETAIL
  6
CONTINOUS
 62
     5
 10
-101.40000000000001
 20
104.2
 30
0.0
 11
-101.40000000000001
 21
107.0
 31
0.0
  0
ARC
  8
DETAIL
  6
CONTINOUS
 62
     5
 10
-99.100000000000023
 20
104.2
 30
0.0
 40
2.2999999999999998
 50
180.0
 51
270.0
  0
ARC
  8
DETAIL
  6
CONTINOUS
 62
     5
 10
-88.099999999999966
 20
117.0
 30
0.0
 40
2.2999999999999998
 50
0.0
 51
90.0
  0
LINE
  8
DETAIL
  6
CONTINOUS
 62
     5
 10
-88.099999999999966
 20
119.3
 30
0.0
 11
-99.100000000000023
 21
119.3
 31
0.0
  0
LINE
  8
DETAIL
  6
CONTINOUS
 62
     5
 10
-85.799999999999955
 20
114.2
 30
0.0
 11
-85.799999999999955
 21
117.0
 31
0.0
  0
ARC
  8
DETAIL
  6
CONTINOUS
 62
     5
 10
-88.099999999999966
 20
114.2
 30
0.0
 40
2.2999999999999998
 50
270.0
 51
0.0
  0
LINE
  8
DETAIL
  6
CONTINOUS
 62
     5
 10
-88.099999999999966
 20
111.90000000000001
 30
0.0
 11
-99.100000000000023
 21
111.90000000000001
 31
0.0
  0
ARC
  8
DETAIL
  6
CONTINOUS
 62
     5
 10
-99.100000000000023
 20
117.0
 30
0.0
 40
2.2999999999999998
 50
90.0
 51
180.0
  0
LINE
  8
DETAIL
  6
CONTINOUS
 62
     5
 10
-101.40000000000001
 20
114.2
 30
0.0
 11
-101.40000000000001
 21
117.0
 31
0.0
  0
ARC
  8
DETAIL
  6
CONTINOUS
 62
     5
 10
-99.100000000000023
 20
114.2
 30
0.0
 40
2.2999999999999998
 50
180.0
 51
270.0
  0
ARC
  8
DETAIL
  6
CONTINOUS
 62
     5
 10
-106.90000000000001
 20
114.2
 30
0.0
 40
2.2999999999999998
 50
270.0
 51
0.0
  0
LINE
  8
DETAIL
  6
CONTINOUS
 62
     5
 10
-104.59999999999999
 20
114.2
 30
0.0
 11
-104.59999999999999
 21
117.0
 31
0.0
  0
ARC
  8
DETAIL
  6
CONTINOUS
 62
     5
 10
-106.90000000000001
 20
117.0
 30
0.0
 40
2.2999999999999998
 50
0.0
 51
90.0
  0
ARC
  8
DETAIL
  6
CONTINOUS
 62
     5
 10
-106.90000000000001
 20
104.2
 30
0.0
 40
2.2999999999999998
 50
270.0
 51
0.0
  0
LINE
  8
DETAIL
  6
CONTINOUS
 62
     5
 10
-104.59999999999999
 20
104.2
 30
0.0
 11
-104.59999999999999
 21
107.0
 31
0.0
  0
ARC
  8
DETAIL
  6
CONTINOUS
 62
     5
 10
-106.90000000000001
 20
107.0
 30
0.0
 40
2.2999999999999998
 50
0.0
 51
90.0
  0
ARC
  8
DETAIL
  6
CONTINOUS
 62
     5
 10
-106.90000000000001
 20
94.200000000000045
 30
0.0
 40
2.2999999999999998
 50
270.0
 51
0.0
  0
LINE
  8
DETAIL
  6
CONTINOUS
 62
     5
 10
-104.59999999999999
 20
94.200000000000045
 30
0.0
 11
-104.59999999999999
 21
97.0
 31
0.0
  0
ARC
  8
DETAIL
  6
CONTINOUS
 62
     5
 10
-106.90000000000001
 20
97.0
 30
0.0
 40
2.2999999999999998
 50
0.0
 51
90.0
  0
LINE
  8
DETAIL
  6
CONTINOUS
 62
     5
 10
-104.59999999999999
 20
84.200000000000045
 30
0.0
 11
-104.59999999999999
 21
87.0
 31
0.0
  0
ARC
  8
DETAIL
  6
CONTINOUS
 62
     5
 10
-106.90000000000001
 20
87.0
 30
0.0
 40
2.2999999999999998
 50
0.0
 51
90.0
  0
LINE
  8
DETAIL
  6
CONTINOUS
 62
     5
 10
-60.199999999999989
 20
84.200000000000045
 30
0.0
 11
-60.199999999999989
 21
87.0
 31
0.0
  0
LINE
  8
DETAIL
  6
CONTINOUS
 62
     5
 10
-60.199999999999989
 20
94.200000000000045
 30
0.0
 11
-60.199999999999989
 21
97.0
 31
0.0
  0
LINE
  8
DETAIL
  6
CONTINOUS
 62
     5
 10
-60.199999999999989
 20
104.2
 30
0.0
 11
-60.199999999999989
 21
107.0
 31
0.0
  0
LINE
  8
DETAIL
  6
CONTINOUS
 62
     5
 10
-60.199999999999989
 20
114.2
 30
0.0
 11
-60.199999999999989
 21
117.0
 31
0.0
  0
ARC
  8
DETAIL
  6
CONTINOUS
 62
     5
 10
-76.699999999999989
 20
114.2
 30
0.0
 40
2.2999999999999998
 50
180.0
 51
270.0
  0
LINE
  8
DETAIL
  6
CONTINOUS
 62
     5
 10
-79.0
 20
114.2
 30
0.0
 11
-79.0
 21
117.0
 31
0.0
  0
ARC
  8
DETAIL
  6
CONTINOUS
 62
     5
 10
-76.699999999999989
 20
117.0
 30
0.0
 40
2.2999999999999998
 50
90.0
 51
180.0
  0
LINE
  8
DETAIL
  6
CONTINOUS
 62
     5
 10
-65.699999999999989
 20
111.90000000000001
 30
0.0
 11
-76.699999999999989
 21
111.90000000000001
 31
0.0
  0
ARC
  8
DETAIL
  6
CONTINOUS
 62
     5
 10
-65.699999999999989
 20
114.2
 30
0.0
 40
2.2999999999999998
 50
270.0
 51
0.0
  0
LINE
  8
DETAIL
  6
CONTINOUS
 62
     5
 10
-63.399999999999977
 20
114.2
 30
0.0
 11
-63.399999999999977
 21
117.0
 31
0.0
  0
LINE
  8
DETAIL
  6
CONTINOUS
 62
     5
 10
-65.699999999999989
 20
119.3
 30
0.0
 11
-76.699999999999989
 21
119.3
 31
0.0
  0
ARC
  8
DETAIL
  6
CONTINOUS
 62
     5
 10
-65.699999999999989
 20
117.0
 30
0.0
 40
2.2999999999999998
 50
0.0
 51
90.0
  0
ARC
  8
DETAIL
  6
CONTINOUS
 62
     5
 10
-76.699999999999989
 20
104.2
 30
0.0
 40
2.2999999999999998
 50
180.0
 51
270.0
  0
LINE
  8
DETAIL
  6
CONTINOUS
 62
     5
 10
-79.0
 20
104.2
 30
0.0
 11
-79.0
 21
107.0
 31
0.0
  0
ARC
  8
DETAIL
  6
CONTINOUS
 62
     5
 10
-76.699999999999989
 20
107.0
 30
0.0
 40
2.2999999999999998
 50
90.0
 51
180.0
  0
LINE
  8
DETAIL
  6
CONTINOUS
 62
     5
 10
-65.699999999999989
 20
101.90000000000001
 30
0.0
 11
-76.699999999999989
 21
101.90000000000001
 31
0.0
  0
ARC
  8
DETAIL
  6
CONTINOUS
 62
     5
 10
-65.699999999999989
 20
104.2
 30
0.0
 40
2.2999999999999998
 50
270.0
 51
0.0
  0
LINE
  8
DETAIL
  6
CONTINOUS
 62
     5
 10
-63.399999999999977
 20
104.2
 30
0.0
 11
-63.399999999999977
 21
107.0
 31
0.0
  0
LINE
  8
DETAIL
  6
CONTINOUS
 62
     5
 10
-65.699999999999989
 20
109.3
 30
0.0
 11
-76.699999999999989
 21
109.3
 31
0.0
  0
ARC
  8
DETAIL
  6
CONTINOUS
 62
     5
 10
-65.699999999999989
 20
107.0
 30
0.0
 40
2.2999999999999998
 50
0.0
 51
90.0
  0
ARC
  8
DETAIL
  6
CONTINOUS
 62
     5
 10
-76.699999999999989
 20
94.200000000000045
 30
0.0
 40
2.2999999999999998
 50
180.0
 51
270.0
  0
LINE
  8
DETAIL
  6
CONTINOUS
 62
     5
 10
-79.0
 20
94.200000000000045
 30
0.0
 11
-79.0
 21
97.0
 31
0.0
  0
ARC
  8
DETAIL
  6
CONTINOUS
 62
     5
 10
-76.699999999999989
 20
97.0
 30
0.0
 40
2.2999999999999998
 50
90.0
 51
180.0
  0
LINE
  8
DETAIL
  6
CONTINOUS
 62
     5
 10
-65.699999999999989
 20
91.899999999999977
 30
0.0
 11
-76.699999999999989
 21
91.899999999999977
 31
0.0
  0
ARC
  8
DETAIL
  6
CONTINOUS
 62
     5
 10
-65.699999999999989
 20
94.200000000000045
 30
0.0
 40
2.2999999999999998
 50
270.0
 51
0.0
  0
LINE
  8
DETAIL
  6
CONTINOUS
 62
     5
 10
-63.399999999999977
 20
94.200000000000045
 30
0.0
 11
-63.399999999999977
 21
97.0
 31
0.0
  0
LINE
  8
DETAIL
  6
CONTINOUS
 62
     5
 10
-65.699999999999989
 20
99.299999999999955
 30
0.0
 11
-76.699999999999989
 21
99.299999999999955
 31
0.0
  0
ARC
  8
DETAIL
  6
CONTINOUS
 62
     5
 10
-65.699999999999989
 20
97.0
 30
0.0
 40
2.2999999999999998
 50
0.0
 51
90.0
  0
LINE
  8
DETAIL
  6
CONTINOUS
 62
     5
 10
-79.0
 20
84.200000000000045
 30
0.0
 11
-79.0
 21
87.0
 31
0.0
  0
ARC
  8
DETAIL
  6
CONTINOUS
 62
     5
 10
-76.699999999999989
 20
87.0
 30
0.0
 40
2.2999999999999998
 50
90.0
 51
180.0
  0
LINE
  8
DETAIL
  6
CONTINOUS
 62
     5
 10
-63.399999999999977
 20
84.200000000000045
 30
0.0
 11
-63.399999999999977
 21
87.0
 31
0.0
  0
LINE
  8
DETAIL
  6
CONTINOUS
 62
     5
 10
-65.699999999999989
 20
89.299999999999955
 30
0.0
 11
-76.699999999999989
 21
89.299999999999955
 31
0.0
  0
ARC
  8
DETAIL
  6
CONTINOUS
 62
     5
 10
-65.699999999999989
 20
87.0
 30
0.0
 40
2.2999999999999998
 50
0.0
 51
90.0
  0
ARC
  8
DETAIL
  6
CONTINOUS
 62
     5
 10
-46.899999999999977
 20
87.0
 30
0.0
 40
2.2999999999999998
 50
0.0
 51
90.0
  0
LINE
  8
DETAIL
  6
CONTINOUS
 62
     5
 10
-46.899999999999977
 20
89.299999999999955
 30
0.0
 11
-57.899999999999977
 21
89.299999999999955
 31
0.0
  0
LINE
  8
DETAIL
  6
CONTINOUS
 62
     5
 10
-44.600000000000023
 20
84.200000000000045
 30
0.0
 11
-44.600000000000023
 21
87.0
 31
0.0
  0
ARC
  8
DETAIL
  6
CONTINOUS
 62
     5
 10
-46.899999999999977
 20
97.0
 30
0.0
 40
2.2999999999999998
 50
0.0
 51
90.0
  0
LINE
  8
DETAIL
  6
CONTINOUS
 62
     5
 10
-46.899999999999977
 20
99.299999999999955
 30
0.0
 11
-57.899999999999977
 21
99.299999999999955
 31
0.0
  0
LINE
  8
DETAIL
  6
CONTINOUS
 62
     5
 10
-44.600000000000023
 20
94.200000000000045
 30
0.0
 11
-44.600000000000023
 21
97.0
 31
0.0
  0
ARC
  8
DETAIL
  6
CONTINOUS
 62
     5
 10
-46.899999999999977
 20
94.200000000000045
 30
0.0
 40
2.2999999999999998
 50
270.0
 51
0.0
  0
LINE
  8
DETAIL
  6
CONTINOUS
 62
     5
 10
-46.899999999999977
 20
91.899999999999977
 30
0.0
 11
-57.899999999999977
 21
91.899999999999977
 31
0.0
  0
ARC
  8
DETAIL
  6
CONTINOUS
 62
     5
 10
-46.899999999999977
 20
107.0
 30
0.0
 40
2.2999999999999998
 50
0.0
 51
90.0
  0
LINE
  8
DETAIL
  6
CONTINOUS
 62
     5
 10
-46.899999999999977
 20
109.3
 30
0.0
 11
-57.899999999999977
 21
109.3
 31
0.0
  0
LINE
  8
DETAIL
  6
CONTINOUS
 62
     5
 10
-44.600000000000023
 20
104.2
 30
0.0
 11
-44.600000000000023
 21
107.0
 31
0.0
  0
ARC
  8
DETAIL
  6
CONTINOUS
 62
     5
 10
-46.899999999999977
 20
104.2
 30
0.0
 40
2.2999999999999998
 50
270.0
 51
0.0
  0
LINE
  8
DETAIL
  6
CONTINOUS
 62
     5
 10
-46.899999999999977
 20
101.90000000000001
 30
0.0
 11
-57.899999999999977
 21
101.90000000000001
 31
0.0
  0
ARC
  8
DETAIL
  6
CONTINOUS
 62
     5
 10
-46.899999999999977
 20
117.0
 30
0.0
 40
2.2999999999999998
 50
0.0
 51
90.0
  0
LINE
  8
DETAIL
  6
CONTINOUS
 62
     5
 10
-46.899999999999977
 20
119.3
 30
0.0
 11
-57.899999999999977
 21
119.3
 31
0.0
  0
LINE
  8
DETAIL
  6
CONTINOUS
 62
     5
 10
-44.600000000000023
 20
114.2
 30
0.0
 11
-44.600000000000023
 21
117.0
 31
0.0
  0
ARC
  8
DETAIL
  6
CONTINOUS
 62
     5
 10
-46.899999999999977
 20
114.2
 30
0.0
 40
2.2999999999999998
 50
270.0
 51
0.0
  0
LINE
  8
DETAIL
  6
CONTINOUS
 62
     5
 10
-46.899999999999977
 20
111.90000000000001
 30
0.0
 11
-57.899999999999977
 21
111.90000000000001
 31
0.0
  0
ARC
  8
DETAIL
  6
CONTINOUS
 62
     5
 10
-24.5
 20
87.0
 30
0.0
 40
2.2999999999999998
 50
0.0
 51
90.0
  0
LINE
  8
DETAIL
  6
CONTINOUS
 62
     5
 10
-24.5
 20
89.299999999999955
 30
0.0
 11
-35.5
 21
89.299999999999955
 31
0.0
  0
LINE
  8
DETAIL
  6
CONTINOUS
 62
     5
 10
-22.199999999999989
 20
84.200000000000045
 30
0.0
 11
-22.199999999999989
 21
87.0
 31
0.0
  0
ARC
  8
DETAIL
  6
CONTINOUS
 62
     5
 10
-35.5
 20
87.0
 30
0.0
 40
2.2999999999999998
 50
90.0
 51
180.0
  0
LINE
  8
DETAIL
  6
CONTINOUS
 62
     5
 10
-37.800000000000011
 20
84.200000000000045
 30
0.0
 11
-37.800000000000011
 21
87.0
 31
0.0
  0
ARC
  8
DETAIL
  6
CONTINOUS
 62
     5
 10
-24.5
 20
97.0
 30
0.0
 40
2.2999999999999998
 50
0.0
 51
90.0
  0
LINE
  8
DETAIL
  6
CONTINOUS
 62
     5
 10
-24.5
 20
99.299999999999955
 30
0.0
 11
-35.5
 21
99.299999999999955
 31
0.0
  0
LINE
  8
DETAIL
  6
CONTINOUS
 62
     5
 10
-22.199999999999989
 20
94.200000000000045
 30
0.0
 11
-22.199999999999989
 21
97.0
 31
0.0
  0
ARC
  8
DETAIL
  6
CONTINOUS
 62
     5
 10
-24.5
 20
94.200000000000045
 30
0.0
 40
2.2999999999999998
 50
270.0
 51
0.0
  0
LINE
  8
DETAIL
  6
CONTINOUS
 62
     5
 10
-24.5
 20
91.899999999999977
 30
0.0
 11
-35.5
 21
91.899999999999977
 31
0.0
  0
ARC
  8
DETAIL
  6
CONTINOUS
 62
     5
 10
-35.5
 20
97.0
 30
0.0
 40
2.2999999999999998
 50
90.0
 51
180.0
  0
LINE
  8
DETAIL
  6
CONTINOUS
 62
     5
 10
-37.800000000000011
 20
94.200000000000045
 30
0.0
 11
-37.800000000000011
 21
97.0
 31
0.0
  0
ARC
  8
DETAIL
  6
CONTINOUS
 62
     5
 10
-35.5
 20
94.200000000000045
 30
0.0
 40
2.2999999999999998
 50
180.0
 51
270.0
  0
ARC
  8
DETAIL
  6
CONTINOUS
 62
     5
 10
-24.5
 20
107.0
 30
0.0
 40
2.2999999999999998
 50
0.0
 51
90.0
  0
LINE
  8
DETAIL
  6
CONTINOUS
 62
     5
 10
-24.5
 20
109.3
 30
0.0
 11
-35.5
 21
109.3
 31
0.0
  0
LINE
  8
DETAIL
  6
CONTINOUS
 62
     5
 10
-22.199999999999989
 20
104.2
 30
0.0
 11
-22.199999999999989
 21
107.0
 31
0.0
  0
ARC
  8
DETAIL
  6
CONTINOUS
 62
     5
 10
-24.5
 20
104.2
 30
0.0
 40
2.2999999999999998
 50
270.0
 51
0.0
  0
LINE
  8
DETAIL
  6
CONTINOUS
 62
     5
 10
-24.5
 20
101.90000000000001
 30
0.0
 11
-35.5
 21
101.90000000000001
 31
0.0
  0
ARC
  8
DETAIL
  6
CONTINOUS
 62
     5
 10
-35.5
 20
107.0
 30
0.0
 40
2.2999999999999998
 50
90.0
 51
180.0
  0
LINE
  8
DETAIL
  6
CONTINOUS
 62
     5
 10
-37.800000000000011
 20
104.2
 30
0.0
 11
-37.800000000000011
 21
107.0
 31
0.0
  0
ARC
  8
DETAIL
  6
CONTINOUS
 62
     5
 10
-35.5
 20
104.2
 30
0.0
 40
2.2999999999999998
 50
180.0
 51
270.0
  0
ARC
  8
DETAIL
  6
CONTINOUS
 62
     5
 10
-24.5
 20
117.0
 30
0.0
 40
2.2999999999999998
 50
0.0
 51
90.0
  0
LINE
  8
DETAIL
  6
CONTINOUS
 62
     5
 10
-24.5
 20
119.3
 30
0.0
 11
-35.5
 21
119.3
 31
0.0
  0
LINE
  8
DETAIL
  6
CONTINOUS
 62
     5
 10
-22.199999999999989
 20
114.2
 30
0.0
 11
-22.199999999999989
 21
117.0
 31
0.0
  0
ARC
  8
DETAIL
  6
CONTINOUS
 62
     5
 10
-24.5
 20
114.2
 30
0.0
 40
2.2999999999999998
 50
270.0
 51
0.0
  0
LINE
  8
DETAIL
  6
CONTINOUS
 62
     5
 10
-24.5
 20
111.90000000000001
 30
0.0
 11
-35.5
 21
111.90000000000001
 31
0.0
  0
ARC
  8
DETAIL
  6
CONTINOUS
 62
     5
 10
-35.5
 20
117.0
 30
0.0
 40
2.2999999999999998
 50
90.0
 51
180.0
  0
LINE
  8
DETAIL
  6
CONTINOUS
 62
     5
 10
-37.800000000000011
 20
114.2
 30
0.0
 11
-37.800000000000011
 21
117.0
 31
0.0
  0
ARC
  8
DETAIL
  6
CONTINOUS
 62
     5
 10
-35.5
 20
114.2
 30
0.0
 40
2.2999999999999998
 50
180.0
 51
270.0
  0
ARC
  8
DETAIL
  6
CONTINOUS
 62
     5
 10
-16.699999999999989
 20
114.2
 30
0.0
 40
2.2999999999999998
 50
180.0
 51
270.0
  0
LINE
  8
DETAIL
  6
CONTINOUS
 62
     5
 10
-19.0
 20
114.2
 30
0.0
 11
-19.0
 21
117.0
 31
0.0
  0
ARC
  8
DETAIL
  6
CONTINOUS
 62
     5
 10
-16.699999999999989
 20
117.0
 30
0.0
 40
2.2999999999999998
 50
90.0
 51
180.0
  0
LINE
  8
DETAIL
  6
CONTINOUS
 62
     5
 10
-5.7000000000000446
 20
111.90000000000001
 30
0.0
 11
-16.699999999999989
 21
111.90000000000001
 31
0.0
  0
ARC
  8
DETAIL
  6
CONTINOUS
 62
     5
 10
-5.7000000000000446
 20
114.2
 30
0.0
 40
2.2999999999999998
 50
270.0
 51
0.0
  0
LINE
  8
DETAIL
  6
CONTINOUS
 62
     5
 10
-3.3999999999999768
 20
114.2
 30
0.0
 11
-3.3999999999999768
 21
117.0
 31
0.0
  0
LINE
  8
DETAIL
  6
CONTINOUS
 62
     5
 10
-5.7000000000000446
 20
119.3
 30
0.0
 11
-16.699999999999989
 21
119.3
 31
0.0
  0
ARC
  8
DETAIL
  6
CONTINOUS
 62
     5
 10
-5.7000000000000446
 20
117.0
 30
0.0
 40
2.2999999999999998
 50
0.0
 51
90.0
  0
ARC
  8
DETAIL
  6
CONTINOUS
 62
     5
 10
-16.699999999999989
 20
104.2
 30
0.0
 40
2.2999999999999998
 50
180.0
 51
270.0
  0
LINE
  8
DETAIL
  6
CONTINOUS
 62
     5
 10
-19.0
 20
104.2
 30
0.0
 11
-19.0
 21
107.0
 31
0.0
  0
ARC
  8
DETAIL
  6
CONTINOUS
 62
     5
 10
-16.699999999999989
 20
107.0
 30
0.0
 40
2.2999999999999998
 50
90.0
 51
180.0
  0
LINE
  8
DETAIL
  6
CONTINOUS
 62
     5
 10
-5.7000000000000446
 20
101.90000000000001
 30
0.0
 11
-16.699999999999989
 21
101.90000000000001
 31
0.0
  0
ARC
  8
DETAIL
  6
CONTINOUS
 62
     5
 10
-5.7000000000000446
 20
104.2
 30
0.0
 40
2.2999999999999998
 50
270.0
 51
0.0
  0
LINE
  8
DETAIL
  6
CONTINOUS
 62
     5
 10
-3.3999999999999768
 20
104.2
 30
0.0
 11
-3.3999999999999768
 21
107.0
 31
0.0
  0
LINE
  8
DETAIL
  6
CONTINOUS
 62
     5
 10
-5.7000000000000446
 20
109.3
 30
0.0
 11
-16.699999999999989
 21
109.3
 31
0.0
  0
ARC
  8
DETAIL
  6
CONTINOUS
 62
     5
 10
-5.7000000000000446
 20
107.0
 30
0.0
 40
2.2999999999999998
 50
0.0
 51
90.0
  0
ARC
  8
DETAIL
  6
CONTINOUS
 62
     5
 10
-16.699999999999989
 20
94.200000000000045
 30
0.0
 40
2.2999999999999998
 50
180.0
 51
270.0
  0
LINE
  8
DETAIL
  6
CONTINOUS
 62
     5
 10
-19.0
 20
94.200000000000045
 30
0.0
 11
-19.0
 21
97.0
 31
0.0
  0
ARC
  8
DETAIL
  6
CONTINOUS
 62
     5
 10
-16.699999999999989
 20
97.0
 30
0.0
 40
2.2999999999999998
 50
90.0
 51
180.0
  0
LINE
  8
DETAIL
  6
CONTINOUS
 62
     5
 10
-5.7000000000000446
 20
91.899999999999977
 30
0.0
 11
-16.699999999999989
 21
91.899999999999977
 31
0.0
  0
ARC
  8
DETAIL
  6
CONTINOUS
 62
     5
 10
-5.7000000000000446
 20
94.200000000000045
 30
0.0
 40
2.2999999999999998
 50
270.0
 51
0.0
  0
LINE
  8
DETAIL
  6
CONTINOUS
 62
     5
 10
-3.3999999999999768
 20
94.200000000000045
 30
0.0
 11
-3.3999999999999768
 21
97.0
 31
0.0
  0
LINE
  8
DETAIL
  6
CONTINOUS
 62
     5
 10
-5.7000000000000446
 20
99.299999999999955
 30
0.0
 11
-16.699999999999989
 21
99.299999999999955
 31
0.0
  0
ARC
  8
DETAIL
  6
CONTINOUS
 62
     5
 10
-5.7000000000000446
 20
97.0
 30
0.0
 40
2.2999999999999998
 50
0.0
 51
90.0
  0
LINE
  8
DETAIL
  6
CONTINOUS
 62
     5
 10
-19.0
 20
84.200000000000045
 30
0.0
 11
-19.0
 21
87.0
 31
0.0
  0
ARC
  8
DETAIL
  6
CONTINOUS
 62
     5
 10
-16.699999999999989
 20
87.0
 30
0.0
 40
2.2999999999999998
 50
90.0
 51
180.0
  0
LINE
  8
DETAIL
  6
CONTINOUS
 62
     5
 10
-3.3999999999999768
 20
84.200000000000045
 30
0.0
 11
-3.3999999999999768
 21
87.0
 31
0.0
  0
LINE
  8
DETAIL
  6
CONTINOUS
 62
     5
 10
-5.7000000000000446
 20
89.299999999999955
 30
0.0
 11
-16.699999999999989
 21
89.299999999999955
 31
0.0
  0
ARC
  8
DETAIL
  6
CONTINOUS
 62
     5
 10
-5.7000000000000446
 20
87.0
 30
0.0
 40
2.2999999999999998
 50
0.0
 51
90.0
  0
LINE
  8
SIZE
  6
CONTINUOUS
 62
    30
 10
-167.0
 20
169.0
 30
0.0
 11
-167.0
 21
316.19570500000009
 31
0.0
  0
POINT
  8
DEFPOINTS
  6
CONTINUOUS
 62
    30
 10
-167.0
 20
296.19570500000009
 30
0.0
  0
LINE
  8
SIZE
  6
CONTINUOUS
 62
    30
 10
-167.0
 20
296.19570500000009
 30
0.0
 11
-155.0
 21
296.19570500000009
 31
0.0
  0
CIRCLE
  8
SIZE
  6
CONTINUOUS
 62
    30
 10
-167.0
 20
296.19570500000009
 30
0.0
 40
6.0
  0
LINE
  8
OUTLINE
  6
CONTINUOUS
 62
     3
 10
167.0
 20
-149.0
 30
0.0
 11
167.0
 21
149.0
 31
0.0
  0
LINE
  8
DETAIL
  6
CONTINUOUS
 62
     5
 10
167.0
 20
-149.0
 30
0.0
 11
167.0
 21
149.0
 31
0.0
  0
LINE
  8
DETAIL
  6
CONTINUOUS
 62
     5
 10
163.0
 20
-151.0
 30
0.0
 11
163.0
 21
151.0
 31
0.0
  0
LINE
  8
SIZE
  6
CONTINUOUS
 62
    30
 10
8.7887699999999995
 20
-269.60827399999999
 30
0.0
 11
8.7887699999999995
 21
-742.65748399999984
 31
0.0
  0
CIRCLE
  8
SIZE
  6
CONTINUOUS
 62
    30
 10
8.7887699999999995
 20
-722.65748399999984
 30
0.0
 40
6.0
  0
LINE
  8
SIZE
  6
CONTINUOUS
 62
    30
 10
5.0
 20
-297.0
 30
0.0
 11
5.0
 21
-600.97579099999996
 31
0.0
  0
ARC
  8
OUTLINE
  6
CONTINUOUS
 62
     3
 10
149.0
 20
-149.0
 30
0.0
 40
18.0
 50
270.0
 51
0.0
  0
ARC
  8
DETAIL
  6
CONTINUOUS
 62
     5
 10
149.0
 20
-149.0
 30
0.0
 40
18.0
 50
270.0
 51
0.0
  0
ARC
  8
DETAIL
  6
CONTINUOUS
 62
     5
 10
151.0
 20
-151.0
 30
0.0
 40
12.0
 50
270.0
 51
0.0
  0
LINE
  8
DETAIL
  6
CONTINUOUS
 62
     5
 10
9.0
 20
-250.0
 30
0.0
 11
9.0
 21
-220.0
 31
0.0
  0
POINT
  8
DEFPOINTS
  6
CONTINUOUS
 62
    30
 10
8.7887699999999995
 20
-249.60827399999999
 30
0.0
  0
POINT
  8
DEFPOINTS
  6
CONTINUOUS
 62
    30
 10
5.0
 20
-277.0
 30
0.0
  0
LINE
  8
DETAIL
  6
CONTINUOUS
 62
     5
 10
5.0
 20
-277.0
 30
0.0
 11
5.0
 21
-250.0
 31
0.0
  0
POINT
  8
DEFPOINTS
  6
CONTINUOUS
 62
    30
 10
12.78877
 20
-219.60827399999991
 30
0.0
  0
LINE
  8
DETAIL
  6
CONTINUOUS
 62
     5
 10
13.0
 20
-220.0
 30
0.0
 11
13.0
 21
-167.0
 31
0.0
  0
LINE
  8
DETAIL
  6
CONTINOUS
 62
     5
 10
106.90000000000001
 20
-1.899999999999977
 30
0.0
 11
117.90000000000001
 21
-1.899999999999977
 31
0.0
  0
LINE
  8
DETAIL
  6
CONTINOUS
 62
     5
 10
106.90000000000001
 20
-9.2999999999999545
 30
0.0
 11
117.90000000000001
 21
-9.2999999999999545
 31
0.0
  0
LINE
  8
DETAIL
  6
CONTINOUS
 62
     5
 10
106.90000000000001
 20
-19.299999999999951
 30
0.0
 11
117.90000000000001
 21
-19.299999999999951
 31
0.0
  0
LINE
  8
DETAIL
  6
CONTINOUS
 62
     5
 10
106.90000000000001
 20
-11.899999999999981
 30
0.0
 11
117.90000000000001
 21
-11.899999999999981
 31
0.0
  0
LINE
  8
DETAIL
  6
CONTINOUS
 62
     5
 10
106.90000000000001
 20
-29.299999999999951
 30
0.0
 11
117.90000000000001
 21
-29.299999999999951
 31
0.0
  0
LINE
  8
DETAIL
  6
CONTINOUS
 62
     5
 10
106.90000000000001
 20
-21.899999999999981
 30
0.0
 11
117.90000000000001
 21
-21.899999999999981
 31
0.0
  0
LINE
  8
DETAIL
  6
CONTINOUS
 62
     5
 10
106.90000000000001
 20
-39.299999999999947
 30
0.0
 11
117.90000000000001
 21
-39.299999999999947
 31
0.0
  0
LINE
  8
DETAIL
  6
CONTINOUS
 62
     5
 10
106.90000000000001
 20
-31.899999999999981
 30
0.0
 11
117.90000000000001
 21
-31.899999999999981
 31
0.0
  0
LINE
  8
DETAIL
  6
CONTINOUS
 62
     5
 10
106.90000000000001
 20
-49.299999999999947
 30
0.0
 11
117.90000000000001
 21
-49.299999999999947
 31
0.0
  0
LINE
  8
DETAIL
  6
CONTINOUS
 62
     5
 10
106.90000000000001
 20
-41.899999999999977
 30
0.0
 11
117.90000000000001
 21
-41.899999999999977
 31
0.0
  0
LINE
  8
DETAIL
  6
CONTINOUS
 62
     5
 10
106.90000000000001
 20
-59.299999999999947
 30
0.0
 11
117.90000000000001
 21
-59.299999999999947
 31
0.0
  0
LINE
  8
DETAIL
  6
CONTINOUS
 62
     5
 10
106.90000000000001
 20
-51.899999999999977
 30
0.0
 11
117.90000000000001
 21
-51.899999999999977
 31
0.0
  0
LINE
  8
DETAIL
  6
CONTINOUS
 62
     5
 10
106.90000000000001
 20
-69.299999999999955
 30
0.0
 11
117.90000000000001
 21
-69.299999999999955
 31
0.0
  0
LINE
  8
DETAIL
  6
CONTINOUS
 62
     5
 10
106.90000000000001
 20
-61.899999999999977
 30
0.0
 11
117.90000000000001
 21
-61.899999999999977
 31
0.0
  0
LINE
  8
DETAIL
  6
CONTINOUS
 62
     5
 10
106.90000000000001
 20
-79.299999999999955
 30
0.0
 11
117.90000000000001
 21
-79.299999999999955
 31
0.0
  0
LINE
  8
DETAIL
  6
CONTINOUS
 62
     5
 10
106.90000000000001
 20
-71.899999999999977
 30
0.0
 11
117.90000000000001
 21
-71.899999999999977
 31
0.0
  0
LINE
  8
DETAIL
  6
CONTINOUS
 62
     5
 10
106.90000000000001
 20
-89.299999999999955
 30
0.0
 11
117.90000000000001
 21
-89.299999999999955
 31
0.0
  0
LINE
  8
DETAIL
  6
CONTINOUS
 62
     5
 10
106.90000000000001
 20
-81.899999999999977
 30
0.0
 11
117.90000000000001
 21
-81.899999999999977
 31
0.0
  0
LINE
  8
DETAIL
  6
CONTINOUS
 62
     5
 10
106.90000000000001
 20
-99.299999999999955
 30
0.0
 11
117.90000000000001
 21
-99.299999999999955
 31
0.0
  0
LINE
  8
DETAIL
  6
CONTINOUS
 62
     5
 10
106.90000000000001
 20
-91.899999999999977
 30
0.0
 11
117.90000000000001
 21
-91.899999999999977
 31
0.0
  0
LINE
  8
DETAIL
  6
CONTINOUS
 62
     5
 10
106.90000000000001
 20
-109.3
 30
0.0
 11
117.90000000000001
 21
-109.3
 31
0.0
  0
LINE
  8
DETAIL
  6
CONTINOUS
 62
     5
 10
106.90000000000001
 20
-101.90000000000001
 30
0.0
 11
117.90000000000001
 21
-101.90000000000001
 31
0.0
  0
LINE
  8
DETAIL
  6
CONTINOUS
 62
     5
 10
106.90000000000001
 20
-119.3
 30
0.0
 11
117.90000000000001
 21
-119.3
 31
0.0
  0
LINE
  8
DETAIL
  6
CONTINOUS
 62
     5
 10
106.90000000000001
 20
-111.90000000000001
 30
0.0
 11
117.90000000000001
 21
-111.90000000000001
 31
0.0
  0
ARC
  8
DETAIL
  6
CONTINOUS
 62
     5
 10
5.7000000000000446
 20
-84.200000000000045
 30
0.0
 40
2.2999999999999998
 50
90.0
 51
180.0
  0
ARC
  8
DETAIL
  6
CONTINOUS
 62
     5
 10
16.700000000000049
 20
-84.200000000000045
 30
0.0
 40
2.2999999999999998
 50
0.0
 51
90.0
  0
ARC
  8
DETAIL
  6
CONTINOUS
 62
     5
 10
35.5
 20
-84.200000000000045
 30
0.0
 40
2.2999999999999998
 50
0.0
 51
90.0
  0
ARC
  8
DETAIL
  6
CONTINOUS
 62
     5
 10
24.5
 20
-84.200000000000045
 30
0.0
 40
2.2999999999999998
 50
90.0
 51
180.0
  0
ARC
  8
DETAIL
  6
CONTINOUS
 62
     5
 10
65.700000000000045
 20
-84.200000000000045
 30
0.0
 40
2.2999999999999998
 50
90.0
 51
180.0
  0
ARC
  8
DETAIL
  6
CONTINOUS
 62
     5
 10
76.700000000000045
 20
-84.200000000000045
 30
0.0
 40
2.2999999999999998
 50
0.0
 51
90.0
  0
ARC
  8
DETAIL
  6
CONTINOUS
 62
     5
 10
57.899999999999977
 20
-84.200000000000045
 30
0.0
 40
2.2999999999999998
 50
0.0
 51
90.0
  0
ARC
  8
DETAIL
  6
CONTINOUS
 62
     5
 10
46.899999999999977
 20
-84.200000000000045
 30
0.0
 40
2.2999999999999998
 50
90.0
 51
180.0
  0
ARC
  8
DETAIL
  6
CONTINOUS
 62
     5
 10
106.90000000000001
 20
-84.200000000000045
 30
0.0
 40
2.2999999999999998
 50
90.0
 51
180.0
  0
ARC
  8
DETAIL
  6
CONTINOUS
 62
     5
 10
99.100000000000023
 20
-84.200000000000045
 30
0.0
 40
2.2999999999999998
 50
0.0
 51
90.0
  0
ARC
  8
DETAIL
  6
CONTINOUS
 62
     5
 10
88.100000000000023
 20
-84.200000000000045
 30
0.0
 40
2.2999999999999998
 50
90.0
 51
180.0
  0
ARC
  8
DETAIL
  6
CONTINOUS
 62
     5
 10
57.899999999999977
 20
-114.2
 30
0.0
 40
2.2999999999999998
 50
0.0
 51
90.0
  0
ARC
  8
DETAIL
  6
CONTINOUS
 62
     5
 10
57.899999999999977
 20
-117.0
 30
0.0
 40
2.2999999999999998
 50
270.0
 51
0.0
  0
ARC
  8
DETAIL
  6
CONTINOUS
 62
     5
 10
57.899999999999977
 20
-104.2
 30
0.0
 40
2.2999999999999998
 50
0.0
 51
90.0
  0
ARC
  8
DETAIL
  6
CONTINOUS
 62
     5
 10
57.899999999999977
 20
-107.0
 30
0.0
 40
2.2999999999999998
 50
270.0
 51
0.0
  0
ARC
  8
DETAIL
  6
CONTINOUS
 62
     5
 10
57.899999999999977
 20
-94.200000000000045
 30
0.0
 40
2.2999999999999998
 50
0.0
 51
90.0
  0
ARC
  8
DETAIL
  6
CONTINOUS
 62
     5
 10
57.899999999999977
 20
-97.0
 30
0.0
 40
2.2999999999999998
 50
270.0
 51
0.0
  0
ARC
  8
DETAIL
  6
CONTINOUS
 62
     5
 10
57.899999999999977
 20
-87.0
 30
0.0
 40
2.2999999999999998
 50
270.0
 51
0.0
  0
ARC
  8
DETAIL
  6
CONTINOUS
 62
     5
 10
5.7000000000000446
 20
-87.0
 30
0.0
 40
2.2999999999999998
 50
180.0
 51
270.0
  0
LINE
  8
DETAIL
  6
CONTINOUS
 62
     5
 10
5.7000000000000446
 20
-89.299999999999955
 30
0.0
 11
16.700000000000049
 21
-89.299999999999955
 31
0.0
  0
LINE
  8
DETAIL
  6
CONTINOUS
 62
     5
 10
3.3999999999999768
 20
-84.200000000000045
 30
0.0
 11
3.3999999999999768
 21
-87.0
 31
0.0
  0
ARC
  8
DETAIL
  6
CONTINOUS
 62
     5
 10
16.700000000000049
 20
-87.0
 30
0.0
 40
2.2999999999999998
 50
270.0
 51
0.0
  0
LINE
  8
DETAIL
  6
CONTINOUS
 62
     5
 10
19.0
 20
-84.200000000000045
 30
0.0
 11
19.0
 21
-87.0
 31
0.0
  0
ARC
  8
DETAIL
  6
CONTINOUS
 62
     5
 10
5.7000000000000446
 20
-97.0
 30
0.0
 40
2.2999999999999998
 50
180.0
 51
270.0
  0
LINE
  8
DETAIL
  6
CONTINOUS
 62
     5
 10
5.7000000000000446
 20
-99.299999999999955
 30
0.0
 11
16.700000000000049
 21
-99.299999999999955
 31
0.0
  0
LINE
  8
DETAIL
  6
CONTINOUS
 62
     5
 10
3.3999999999999768
 20
-94.200000000000045
 30
0.0
 11
3.3999999999999768
 21
-97.0
 31
0.0
  0
ARC
  8
DETAIL
  6
CONTINOUS
 62
     5
 10
5.7000000000000446
 20
-94.200000000000045
 30
0.0
 40
2.2999999999999998
 50
90.0
 51
180.0
  0
LINE
  8
DETAIL
  6
CONTINOUS
 62
     5
 10
5.7000000000000446
 20
-91.899999999999977
 30
0.0
 11
16.700000000000049
 21
-91.899999999999977
 31
0.0
  0
ARC
  8
DETAIL
  6
CONTINOUS
 62
     5
 10
16.700000000000049
 20
-97.0
 30
0.0
 40
2.2999999999999998
 50
270.0
 51
0.0
  0
LINE
  8
DETAIL
  6
CONTINOUS
 62
     5
 10
19.0
 20
-94.200000000000045
 30
0.0
 11
19.0
 21
-97.0
 31
0.0
  0
ARC
  8
DETAIL
  6
CONTINOUS
 62
     5
 10
16.700000000000049
 20
-94.200000000000045
 30
0.0
 40
2.2999999999999998
 50
0.0
 51
90.0
  0
ARC
  8
DETAIL
  6
CONTINOUS
 62
     5
 10
5.7000000000000446
 20
-107.0
 30
0.0
 40
2.2999999999999998
 50
180.0
 51
270.0
  0
LINE
  8
DETAIL
  6
CONTINOUS
 62
     5
 10
5.7000000000000446
 20
-109.3
 30
0.0
 11
16.700000000000049
 21
-109.3
 31
0.0
  0
LINE
  8
DETAIL
  6
CONTINOUS
 62
     5
 10
3.3999999999999768
 20
-104.2
 30
0.0
 11
3.3999999999999768
 21
-107.0
 31
0.0
  0
ARC
  8
DETAIL
  6
CONTINOUS
 62
     5
 10
5.7000000000000446
 20
-104.2
 30
0.0
 40
2.2999999999999998
 50
90.0
 51
180.0
  0
LINE
  8
DETAIL
  6
CONTINOUS
 62
     5
 10
5.7000000000000446
 20
-101.90000000000001
 30
0.0
 11
16.700000000000049
 21
-101.90000000000001
 31
0.0
  0
ARC
  8
DETAIL
  6
CONTINOUS
 62
     5
 10
16.700000000000049
 20
-107.0
 30
0.0
 40
2.2999999999999998
 50
270.0
 51
0.0
  0
LINE
  8
DETAIL
  6
CONTINOUS
 62
     5
 10
19.0
 20
-104.2
 30
0.0
 11
19.0
 21
-107.0
 31
0.0
  0
ARC
  8
DETAIL
  6
CONTINOUS
 62
     5
 10
16.700000000000049
 20
-104.2
 30
0.0
 40
2.2999999999999998
 50
0.0
 51
90.0
  0
ARC
  8
DETAIL
  6
CONTINOUS
 62
     5
 10
5.7000000000000446
 20
-117.0
 30
0.0
 40
2.2999999999999998
 50
180.0
 51
270.0
  0
LINE
  8
DETAIL
  6
CONTINOUS
 62
     5
 10
5.7000000000000446
 20
-119.3
 30
0.0
 11
16.700000000000049
 21
-119.3
 31
0.0
  0
LINE
  8
DETAIL
  6
CONTINOUS
 62
     5
 10
3.3999999999999768
 20
-114.2
 30
0.0
 11
3.3999999999999768
 21
-117.0
 31
0.0
  0
ARC
  8
DETAIL
  6
CONTINOUS
 62
     5
 10
5.7000000000000446
 20
-114.2
 30
0.0
 40
2.2999999999999998
 50
90.0
 51
180.0
  0
LINE
  8
DETAIL
  6
CONTINOUS
 62
     5
 10
5.7000000000000446
 20
-111.90000000000001
 30
0.0
 11
16.700000000000049
 21
-111.90000000000001
 31
0.0
  0
ARC
  8
DETAIL
  6
CONTINOUS
 62
     5
 10
16.700000000000049
 20
-117.0
 30
0.0
 40
2.2999999999999998
 50
270.0
 51
0.0
  0
LINE
  8
DETAIL
  6
CONTINOUS
 62
     5
 10
19.0
 20
-114.2
 30
0.0
 11
19.0
 21
-117.0
 31
0.0
  0
ARC
  8
DETAIL
  6
CONTINOUS
 62
     5
 10
16.700000000000049
 20
-114.2
 30
0.0
 40
2.2999999999999998
 50
0.0
 51
90.0
  0
ARC
  8
DETAIL
  6
CONTINOUS
 62
     5
 10
35.5
 20
-114.2
 30
0.0
 40
2.2999999999999998
 50
0.0
 51
90.0
  0
LINE
  8
DETAIL
  6
CONTINOUS
 62
     5
 10
37.799999999999947
 20
-114.2
 30
0.0
 11
37.799999999999947
 21
-117.0
 31
0.0
  0
ARC
  8
DETAIL
  6
CONTINOUS
 62
     5
 10
35.5
 20
-117.0
 30
0.0
 40
2.2999999999999998
 50
270.0
 51
0.0
  0
LINE
  8
DETAIL
  6
CONTINOUS
 62
     5
 10
24.5
 20
-111.90000000000001
 30
0.0
 11
35.5
 21
-111.90000000000001
 31
0.0
  0
ARC
  8
DETAIL
  6
CONTINOUS
 62
     5
 10
24.5
 20
-114.2
 30
0.0
 40
2.2999999999999998
 50
90.0
 51
180.0
  0
LINE
  8
DETAIL
  6
CONTINOUS
 62
     5
 10
22.200000000000049
 20
-114.2
 30
0.0
 11
22.200000000000049
 21
-117.0
 31
0.0
  0
LINE
  8
DETAIL
  6
CONTINOUS
 62
     5
 10
24.5
 20
-119.3
 30
0.0
 11
35.5
 21
-119.3
 31
0.0
  0
ARC
  8
DETAIL
  6
CONTINOUS
 62
     5
 10
24.5
 20
-117.0
 30
0.0
 40
2.2999999999999998
 50
180.0
 51
270.0
  0
ARC
  8
DETAIL
  6
CONTINOUS
 62
     5
 10
35.5
 20
-104.2
 30
0.0
 40
2.2999999999999998
 50
0.0
 51
90.0
  0
LINE
  8
DETAIL
  6
CONTINOUS
 62
     5
 10
37.799999999999947
 20
-104.2
 30
0.0
 11
37.799999999999947
 21
-107.0
 31
0.0
  0
ARC
  8
DETAIL
  6
CONTINOUS
 62
     5
 10
35.5
 20
-107.0
 30
0.0
 40
2.2999999999999998
 50
270.0
 51
0.0
  0
LINE
  8
DETAIL
  6
CONTINOUS
 62
     5
 10
24.5
 20
-101.90000000000001
 30
0.0
 11
35.5
 21
-101.90000000000001
 31
0.0
  0
ARC
  8
DETAIL
  6
CONTINOUS
 62
     5
 10
24.5
 20
-104.2
 30
0.0
 40
2.2999999999999998
 50
90.0
 51
180.0
  0
LINE
  8
DETAIL
  6
CONTINOUS
 62
     5
 10
22.200000000000049
 20
-104.2
 30
0.0
 11
22.200000000000049
 21
-107.0
 31
0.0
  0
LINE
  8
DETAIL
  6
CONTINOUS
 62
     5
 10
24.5
 20
-109.3
 30
0.0
 11
35.5
 21
-109.3
 31
0.0
  0
ARC
  8
DETAIL
  6
CONTINOUS
 62
     5
 10
24.5
 20
-107.0
 30
0.0
 40
2.2999999999999998
 50
180.0
 51
270.0
  0
ARC
  8
DETAIL
  6
CONTINOUS
 62
     5
 10
35.5
 20
-94.200000000000045
 30
0.0
 40
2.2999999999999998
 50
0.0
 51
90.0
  0
LINE
  8
DETAIL
  6
CONTINOUS
 62
     5
 10
37.799999999999947
 20
-94.200000000000045
 30
0.0
 11
37.799999999999947
 21
-97.0
 31
0.0
  0
ARC
  8
DETAIL
  6
CONTINOUS
 62
     5
 10
35.5
 20
-97.0
 30
0.0
 40
2.2999999999999998
 50
270.0
 51
0.0
  0
LINE
  8
DETAIL
  6
CONTINOUS
 62
     5
 10
24.5
 20
-91.899999999999977
 30
0.0
 11
35.5
 21
-91.899999999999977
 31
0.0
  0
ARC
  8
DETAIL
  6
CONTINOUS
 62
     5
 10
24.5
 20
-94.200000000000045
 30
0.0
 40
2.2999999999999998
 50
90.0
 51
180.0
  0
LINE
  8
DETAIL
  6
CONTINOUS
 62
     5
 10
22.200000000000049
 20
-94.200000000000045
 30
0.0
 11
22.200000000000049
 21
-97.0
 31
0.0
  0
LINE
  8
DETAIL
  6
CONTINOUS
 62
     5
 10
24.5
 20
-99.299999999999955
 30
0.0
 11
35.5
 21
-99.299999999999955
 31
0.0
  0
ARC
  8
DETAIL
  6
CONTINOUS
 62
     5
 10
24.5
 20
-97.0
 30
0.0
 40
2.2999999999999998
 50
180.0
 51
270.0
  0
LINE
  8
DETAIL
  6
CONTINOUS
 62
     5
 10
37.799999999999947
 20
-84.200000000000045
 30
0.0
 11
37.799999999999947
 21
-87.0
 31
0.0
  0
ARC
  8
DETAIL
  6
CONTINOUS
 62
     5
 10
35.5
 20
-87.0
 30
0.0
 40
2.2999999999999998
 50
270.0
 51
0.0
  0
LINE
  8
DETAIL
  6
CONTINOUS
 62
     5
 10
22.200000000000049
 20
-84.200000000000045
 30
0.0
 11
22.200000000000049
 21
-87.0
 31
0.0
  0
LINE
  8
DETAIL
  6
CONTINOUS
 62
     5
 10
24.5
 20
-89.299999999999955
 30
0.0
 11
35.5
 21
-89.299999999999955
 31
0.0
  0
ARC
  8
DETAIL
  6
CONTINOUS
 62
     5
 10
24.5
 20
-87.0
 30
0.0
 40
2.2999999999999998
 50
180.0
 51
270.0
  0
LINE
  8
DETAIL
  6
CONTINOUS
 62
     5
 10
46.899999999999977
 20
-111.90000000000001
 30
0.0
 11
57.899999999999977
 21
-111.90000000000001
 31
0.0
  0
ARC
  8
DETAIL
  6
CONTINOUS
 62
     5
 10
46.899999999999977
 20
-114.2
 30
0.0
 40
2.2999999999999998
 50
90.0
 51
180.0
  0
LINE
  8
DETAIL
  6
CONTINOUS
 62
     5
 10
44.600000000000023
 20
-114.2
 30
0.0
 11
44.600000000000023
 21
-117.0
 31
0.0
  0
LINE
  8
DETAIL
  6
CONTINOUS
 62
     5
 10
46.899999999999977
 20
-119.3
 30
0.0
 11
57.899999999999977
 21
-119.3
 31
0.0
  0
ARC
  8
DETAIL
  6
CONTINOUS
 62
     5
 10
46.899999999999977
 20
-117.0
 30
0.0
 40
2.2999999999999998
 50
180.0
 51
270.0
  0
LINE
  8
DETAIL
  6
CONTINOUS
 62
     5
 10
46.899999999999977
 20
-101.90000000000001
 30
0.0
 11
57.899999999999977
 21
-101.90000000000001
 31
0.0
  0
ARC
  8
DETAIL
  6
CONTINOUS
 62
     5
 10
46.899999999999977
 20
-104.2
 30
0.0
 40
2.2999999999999998
 50
90.0
 51
180.0
  0
LINE
  8
DETAIL
  6
CONTINOUS
 62
     5
 10
44.600000000000023
 20
-104.2
 30
0.0
 11
44.600000000000023
 21
-107.0
 31
0.0
  0
LINE
  8
DETAIL
  6
CONTINOUS
 62
     5
 10
46.899999999999977
 20
-109.3
 30
0.0
 11
57.899999999999977
 21
-109.3
 31
0.0
  0
ARC
  8
DETAIL
  6
CONTINOUS
 62
     5
 10
46.899999999999977
 20
-107.0
 30
0.0
 40
2.2999999999999998
 50
180.0
 51
270.0
  0
LINE
  8
DETAIL
  6
CONTINOUS
 62
     5
 10
46.899999999999977
 20
-91.899999999999977
 30
0.0
 11
57.899999999999977
 21
-91.899999999999977
 31
0.0
  0
ARC
  8
DETAIL
  6
CONTINOUS
 62
     5
 10
46.899999999999977
 20
-94.200000000000045
 30
0.0
 40
2.2999999999999998
 50
90.0
 51
180.0
  0
LINE
  8
DETAIL
  6
CONTINOUS
 62
     5
 10
44.600000000000023
 20
-94.200000000000045
 30
0.0
 11
44.600000000000023
 21
-97.0
 31
0.0
  0
LINE
  8
DETAIL
  6
CONTINOUS
 62
     5
 10
46.899999999999977
 20
-99.299999999999955
 30
0.0
 11
57.899999999999977
 21
-99.299999999999955
 31
0.0
  0
ARC
  8
DETAIL
  6
CONTINOUS
 62
     5
 10
46.899999999999977
 20
-97.0
 30
0.0
 40
2.2999999999999998
 50
180.0
 51
270.0
  0
LINE
  8
DETAIL
  6
CONTINOUS
 62
     5
 10
44.600000000000023
 20
-84.200000000000045
 30
0.0
 11
44.600000000000023
 21
-87.0
 31
0.0
  0
LINE
  8
DETAIL
  6
CONTINOUS
 62
     5
 10
46.899999999999977
 20
-89.299999999999955
 30
0.0
 11
57.899999999999977
 21
-89.299999999999955
 31
0.0
  0
ARC
  8
DETAIL
  6
CONTINOUS
 62
     5
 10
46.899999999999977
 20
-87.0
 30
0.0
 40
2.2999999999999998
 50
180.0
 51
270.0
  0
ARC
  8
DETAIL
  6
CONTINOUS
 62
     5
 10
65.700000000000045
 20
-87.0
 30
0.0
 40
2.2999999999999998
 50
180.0
 51
270.0
  0
LINE
  8
DETAIL
  6
CONTINOUS
 62
     5
 10
65.700000000000045
 20
-89.299999999999955
 30
0.0
 11
76.700000000000045
 21
-89.299999999999955
 31
0.0
  0
LINE
  8
DETAIL
  6
CONTINOUS
 62
     5
 10
63.399999999999977
 20
-84.200000000000045
 30
0.0
 11
63.399999999999977
 21
-87.0
 31
0.0
  0
ARC
  8
DETAIL
  6
CONTINOUS
 62
     5
 10
76.700000000000045
 20
-87.0
 30
0.0
 40
2.2999999999999998
 50
270.0
 51
0.0
  0
LINE
  8
DETAIL
  6
CONTINOUS
 62
     5
 10
79.0
 20
-84.200000000000045
 30
0.0
 11
79.0
 21
-87.0
 31
0.0
  0
ARC
  8
DETAIL
  6
CONTINOUS
 62
     5
 10
65.700000000000045
 20
-97.0
 30
0.0
 40
2.2999999999999998
 50
180.0
 51
270.0
  0
LINE
  8
DETAIL
  6
CONTINOUS
 62
     5
 10
65.700000000000045
 20
-99.299999999999955
 30
0.0
 11
76.700000000000045
 21
-99.299999999999955
 31
0.0
  0
LINE
  8
DETAIL
  6
CONTINOUS
 62
     5
 10
63.399999999999977
 20
-94.200000000000045
 30
0.0
 11
63.399999999999977
 21
-97.0
 31
0.0
  0
ARC
  8
DETAIL
  6
CONTINOUS
 62
     5
 10
65.700000000000045
 20
-94.200000000000045
 30
0.0
 40
2.2999999999999998
 50
90.0
 51
180.0
  0
LINE
  8
DETAIL
  6
CONTINOUS
 62
     5
 10
65.700000000000045
 20
-91.899999999999977
 30
0.0
 11
76.700000000000045
 21
-91.899999999999977
 31
0.0
  0
ARC
  8
DETAIL
  6
CONTINOUS
 62
     5
 10
76.700000000000045
 20
-97.0
 30
0.0
 40
2.2999999999999998
 50
270.0
 51
0.0
  0
LINE
  8
DETAIL
  6
CONTINOUS
 62
     5
 10
79.0
 20
-94.200000000000045
 30
0.0
 11
79.0
 21
-97.0
 31
0.0
  0
ARC
  8
DETAIL
  6
CONTINOUS
 62
     5
 10
76.700000000000045
 20
-94.200000000000045
 30
0.0
 40
2.2999999999999998
 50
0.0
 51
90.0
  0
ARC
  8
DETAIL
  6
CONTINOUS
 62
     5
 10
65.700000000000045
 20
-107.0
 30
0.0
 40
2.2999999999999998
 50
180.0
 51
270.0
  0
LINE
  8
DETAIL
  6
CONTINOUS
 62
     5
 10
65.700000000000045
 20
-109.3
 30
0.0
 11
76.700000000000045
 21
-109.3
 31
0.0
  0
LINE
  8
DETAIL
  6
CONTINOUS
 62
     5
 10
63.399999999999977
 20
-104.2
 30
0.0
 11
63.399999999999977
 21
-107.0
 31
0.0
  0
ARC
  8
DETAIL
  6
CONTINOUS
 62
     5
 10
65.700000000000045
 20
-104.2
 30
0.0
 40
2.2999999999999998
 50
90.0
 51
180.0
  0
LINE
  8
DETAIL
  6
CONTINOUS
 62
     5
 10
65.700000000000045
 20
-101.90000000000001
 30
0.0
 11
76.700000000000045
 21
-101.90000000000001
 31
0.0
  0
ARC
  8
DETAIL
  6
CONTINOUS
 62
     5
 10
76.700000000000045
 20
-107.0
 30
0.0
 40
2.2999999999999998
 50
270.0
 51
0.0
  0
LINE
  8
DETAIL
  6
CONTINOUS
 62
     5
 10
79.0
 20
-104.2
 30
0.0
 11
79.0
 21
-107.0
 31
0.0
  0
ARC
  8
DETAIL
  6
CONTINOUS
 62
     5
 10
76.700000000000045
 20
-104.2
 30
0.0
 40
2.2999999999999998
 50
0.0
 51
90.0
  0
ARC
  8
DETAIL
  6
CONTINOUS
 62
     5
 10
65.700000000000045
 20
-117.0
 30
0.0
 40
2.2999999999999998
 50
180.0
 51
270.0
  0
LINE
  8
DETAIL
  6
CONTINOUS
 62
     5
 10
65.700000000000045
 20
-119.3
 30
0.0
 11
76.700000000000045
 21
-119.3
 31
0.0
  0
LINE
  8
DETAIL
  6
CONTINOUS
 62
     5
 10
63.399999999999977
 20
-114.2
 30
0.0
 11
63.399999999999977
 21
-117.0
 31
0.0
  0
ARC
  8
DETAIL
  6
CONTINOUS
 62
     5
 10
65.700000000000045
 20
-114.2
 30
0.0
 40
2.2999999999999998
 50
90.0
 51
180.0
  0
LINE
  8
DETAIL
  6
CONTINOUS
 62
     5
 10
65.700000000000045
 20
-111.90000000000001
 30
0.0
 11
76.700000000000045
 21
-111.90000000000001
 31
0.0
  0
ARC
  8
DETAIL
  6
CONTINOUS
 62
     5
 10
76.700000000000045
 20
-117.0
 30
0.0
 40
2.2999999999999998
 50
270.0
 51
0.0
  0
LINE
  8
DETAIL
  6
CONTINOUS
 62
     5
 10
79.0
 20
-114.2
 30
0.0
 11
79.0
 21
-117.0
 31
0.0
  0
ARC
  8
DETAIL
  6
CONTINOUS
 62
     5
 10
76.700000000000045
 20
-114.2
 30
0.0
 40
2.2999999999999998
 50
0.0
 51
90.0
  0
LINE
  8
DETAIL
  6
CONTINOUS
 62
     5
 10
60.200000000000053
 20
-114.2
 30
0.0
 11
60.200000000000053
 21
-117.0
 31
0.0
  0
LINE
  8
DETAIL
  6
CONTINOUS
 62
     5
 10
60.200000000000053
 20
-104.2
 30
0.0
 11
60.200000000000053
 21
-107.0
 31
0.0
  0
LINE
  8
DETAIL
  6
CONTINOUS
 62
     5
 10
60.200000000000053
 20
-94.200000000000045
 30
0.0
 11
60.200000000000053
 21
-97.0
 31
0.0
  0
LINE
  8
DETAIL
  6
CONTINOUS
 62
     5
 10
60.200000000000053
 20
-84.200000000000045
 30
0.0
 11
60.200000000000053
 21
-87.0
 31
0.0
  0
ARC
  8
DETAIL
  6
CONTINOUS
 62
     5
 10
106.90000000000001
 20
-87.0
 30
0.0
 40
2.2999999999999998
 50
180.0
 51
270.0
  0
LINE
  8
DETAIL
  6
CONTINOUS
 62
     5
 10
104.59999999999999
 20
-84.200000000000045
 30
0.0
 11
104.59999999999999
 21
-87.0
 31
0.0
  0
ARC
  8
DETAIL
  6
CONTINOUS
 62
     5
 10
106.90000000000001
 20
-97.0
 30
0.0
 40
2.2999999999999998
 50
180.0
 51
270.0
  0
LINE
  8
DETAIL
  6
CONTINOUS
 62
     5
 10
104.59999999999999
 20
-94.200000000000045
 30
0.0
 11
104.59999999999999
 21
-97.0
 31
0.0
  0
ARC
  8
DETAIL
  6
CONTINOUS
 62
     5
 10
106.90000000000001
 20
-94.200000000000045
 30
0.0
 40
2.2999999999999998
 50
90.0
 51
180.0
  0
ARC
  8
DETAIL
  6
CONTINOUS
 62
     5
 10
106.90000000000001
 20
-107.0
 30
0.0
 40
2.2999999999999998
 50
180.0
 51
270.0
  0
LINE
  8
DETAIL
  6
CONTINOUS
 62
     5
 10
104.59999999999999
 20
-104.2
 30
0.0
 11
104.59999999999999
 21
-107.0
 31
0.0
  0
ARC
  8
DETAIL
  6
CONTINOUS
 62
     5
 10
106.90000000000001
 20
-104.2
 30
0.0
 40
2.2999999999999998
 50
90.0
 51
180.0
  0
ARC
  8
DETAIL
  6
CONTINOUS
 62
     5
 10
106.90000000000001
 20
-117.0
 30
0.0
 40
2.2999999999999998
 50
180.0
 51
270.0
  0
LINE
  8
DETAIL
  6
CONTINOUS
 62
     5
 10
104.59999999999999
 20
-114.2
 30
0.0
 11
104.59999999999999
 21
-117.0
 31
0.0
  0
ARC
  8
DETAIL
  6
CONTINOUS
 62
     5
 10
106.90000000000001
 20
-114.2
 30
0.0
 40
2.2999999999999998
 50
90.0
 51
180.0
  0
ARC
  8
DETAIL
  6
CONTINOUS
 62
     5
 10
99.100000000000023
 20
-114.2
 30
0.0
 40
2.2999999999999998
 50
0.0
 51
90.0
  0
LINE
  8
DETAIL
  6
CONTINOUS
 62
     5
 10
101.40000000000001
 20
-114.2
 30
0.0
 11
101.40000000000001
 21
-117.0
 31
0.0
  0
ARC
  8
DETAIL
  6
CONTINOUS
 62
     5
 10
99.100000000000023
 20
-117.0
 30
0.0
 40
2.2999999999999998
 50
270.0
 51
0.0
  0
LINE
  8
DETAIL
  6
CONTINOUS
 62
     5
 10
88.100000000000023
 20
-111.90000000000001
 30
0.0
 11
99.100000000000023
 21
-111.90000000000001
 31
0.0
  0
ARC
  8
DETAIL
  6
CONTINOUS
 62
     5
 10
88.100000000000023
 20
-114.2
 30
0.0
 40
2.2999999999999998
 50
90.0
 51
180.0
  0
LINE
  8
DETAIL
  6
CONTINOUS
 62
     5
 10
85.799999999999955
 20
-114.2
 30
0.0
 11
85.799999999999955
 21
-117.0
 31
0.0
  0
LINE
  8
DETAIL
  6
CONTINOUS
 62
     5
 10
88.100000000000023
 20
-119.3
 30
0.0
 11
99.100000000000023
 21
-119.3
 31
0.0
  0
ARC
  8
DETAIL
  6
CONTINOUS
 62
     5
 10
88.100000000000023
 20
-117.0
 30
0.0
 40
2.2999999999999998
 50
180.0
 51
270.0
  0
ARC
  8
DETAIL
  6
CONTINOUS
 62
     5
 10
99.100000000000023
 20
-104.2
 30
0.0
 40
2.2999999999999998
 50
0.0
 51
90.0
  0
LINE
  8
DETAIL
  6
CONTINOUS
 62
     5
 10
101.40000000000001
 20
-104.2
 30
0.0
 11
101.40000000000001
 21
-107.0
 31
0.0
  0
ARC
  8
DETAIL
  6
CONTINOUS
 62
     5
 10
99.100000000000023
 20
-107.0
 30
0.0
 40
2.2999999999999998
 50
270.0
 51
0.0
  0
LINE
  8
DETAIL
  6
CONTINOUS
 62
     5
 10
88.100000000000023
 20
-101.90000000000001
 30
0.0
 11
99.100000000000023
 21
-101.90000000000001
 31
0.0
  0
ARC
  8
DETAIL
  6
CONTINOUS
 62
     5
 10
88.100000000000023
 20
-104.2
 30
0.0
 40
2.2999999999999998
 50
90.0
 51
180.0
  0
LINE
  8
DETAIL
  6
CONTINOUS
 62
     5
 10
85.799999999999955
 20
-104.2
 30
0.0
 11
85.799999999999955
 21
-107.0
 31
0.0
  0
LINE
  8
DETAIL
  6
CONTINOUS
 62
     5
 10
88.100000000000023
 20
-109.3
 30
0.0
 11
99.100000000000023
 21
-109.3
 31
0.0
  0
ARC
  8
DETAIL
  6
CONTINOUS
 62
     5
 10
88.100000000000023
 20
-107.0
 30
0.0
 40
2.2999999999999998
 50
180.0
 51
270.0
  0
ARC
  8
DETAIL
  6
CONTINOUS
 62
     5
 10
99.100000000000023
 20
-94.200000000000045
 30
0.0
 40
2.2999999999999998
 50
0.0
 51
90.0
  0
LINE
  8
DETAIL
  6
CONTINOUS
 62
     5
 10
101.40000000000001
 20
-94.200000000000045
 30
0.0
 11
101.40000000000001
 21
-97.0
 31
0.0
  0
ARC
  8
DETAIL
  6
CONTINOUS
 62
     5
 10
99.100000000000023
 20
-97.0
 30
0.0
 40
2.2999999999999998
 50
270.0
 51
0.0
  0
LINE
  8
DETAIL
  6
CONTINOUS
 62
     5
 10
88.100000000000023
 20
-91.899999999999977
 30
0.0
 11
99.100000000000023
 21
-91.899999999999977
 31
0.0
  0
ARC
  8
DETAIL
  6
CONTINOUS
 62
     5
 10
88.100000000000023
 20
-94.200000000000045
 30
0.0
 40
2.2999999999999998
 50
90.0
 51
180.0
  0
LINE
  8
DETAIL
  6
CONTINOUS
 62
     5
 10
85.799999999999955
 20
-94.200000000000045
 30
0.0
 11
85.799999999999955
 21
-97.0
 31
0.0
  0
LINE
  8
DETAIL
  6
CONTINOUS
 62
     5
 10
88.100000000000023
 20
-99.299999999999955
 30
0.0
 11
99.100000000000023
 21
-99.299999999999955
 31
0.0
  0
ARC
  8
DETAIL
  6
CONTINOUS
 62
     5
 10
88.100000000000023
 20
-97.0
 30
0.0
 40
2.2999999999999998
 50
180.0
 51
270.0
  0
LINE
  8
DETAIL
  6
CONTINOUS
 62
     5
 10
101.40000000000001
 20
-84.200000000000045
 30
0.0
 11
101.40000000000001
 21
-87.0
 31
0.0
  0
ARC
  8
DETAIL
  6
CONTINOUS
 62
     5
 10
99.100000000000023
 20
-87.0
 30
0.0
 40
2.2999999999999998
 50
270.0
 51
0.0
  0
LINE
  8
DETAIL
  6
CONTINOUS
 62
     5
 10
85.799999999999955
 20
-84.200000000000045
 30
0.0
 11
85.799999999999955
 21
-87.0
 31
0.0
  0
LINE
  8
DETAIL
  6
CONTINOUS
 62
     5
 10
88.100000000000023
 20
-89.299999999999955
 30
0.0
 11
99.100000000000023
 21
-89.299999999999955
 31
0.0
  0
ARC
  8
DETAIL
  6
CONTINOUS
 62
     5
 10
88.100000000000023
 20
-87.0
 30
0.0
 40
2.2999999999999998
 50
180.0
 51
270.0
  0
ARC
  8
DETAIL
  6
CONTINOUS
 62
     5
 10
57.899999999999977
 20
-74.200000000000045
 30
0.0
 40
2.2999999999999998
 50
0.0
 51
90.0
  0
ARC
  8
DETAIL
  6
CONTINOUS
 62
     5
 10
57.899999999999977
 20
-77.0
 30
0.0
 40
2.2999999999999998
 50
270.0
 51
0.0
  0
ARC
  8
DETAIL
  6
CONTINOUS
 62
     5
 10
57.899999999999977
 20
-64.200000000000045
 30
0.0
 40
2.2999999999999998
 50
0.0
 51
90.0
  0
ARC
  8
DETAIL
  6
CONTINOUS
 62
     5
 10
57.899999999999977
 20
-67.0
 30
0.0
 40
2.2999999999999998
 50
270.0
 51
0.0
  0
ARC
  8
DETAIL
  6
CONTINOUS
 62
     5
 10
57.899999999999977
 20
-54.200000000000053
 30
0.0
 40
2.2999999999999998
 50
0.0
 51
90.0
  0
ARC
  8
DETAIL
  6
CONTINOUS
 62
     5
 10
57.899999999999977
 20
-57.0
 30
0.0
 40
2.2999999999999998
 50
270.0
 51
0.0
  0
ARC
  8
DETAIL
  6
CONTINOUS
 62
     5
 10
57.899999999999977
 20
-44.200000000000053
 30
0.0
 40
2.2999999999999998
 50
0.0
 51
90.0
  0
ARC
  8
DETAIL
  6
CONTINOUS
 62
     5
 10
57.899999999999977
 20
-47.0
 30
0.0
 40
2.2999999999999998
 50
270.0
 51
0.0
  0
ARC
  8
DETAIL
  6
CONTINOUS
 62
     5
 10
57.899999999999977
 20
-34.200000000000053
 30
0.0
 40
2.2999999999999998
 50
0.0
 51
90.0
  0
ARC
  8
DETAIL
  6
CONTINOUS
 62
     5
 10
57.899999999999977
 20
-37.0
 30
0.0
 40
2.2999999999999998
 50
270.0
 51
0.0
  0
ARC
  8
DETAIL
  6
CONTINOUS
 62
     5
 10
57.899999999999977
 20
-24.200000000000049
 30
0.0
 40
2.2999999999999998
 50
0.0
 51
90.0
  0
ARC
  8
DETAIL
  6
CONTINOUS
 62
     5
 10
57.899999999999977
 20
-27.0
 30
0.0
 40
2.2999999999999998
 50
270.0
 51
0.0
  0
ARC
  8
DETAIL
  6
CONTINOUS
 62
     5
 10
57.899999999999977
 20
-14.200000000000051
 30
0.0
 40
2.2999999999999998
 50
0.0
 51
90.0
  0
ARC
  8
DETAIL
  6
CONTINOUS
 62
     5
 10
57.899999999999977
 20
-17.0
 30
0.0
 40
2.2999999999999998
 50
270.0
 51
0.0
  0
ARC
  8
DETAIL
  6
CONTINOUS
 62
     5
 10
57.899999999999977
 20
-7.0
 30
0.0
 40
2.2999999999999998
 50
270.0
 51
0.0
  0
ARC
  8
DETAIL
  6
CONTINOUS
 62
     5
 10
57.899999999999977
 20
-4.2000000000000446
 30
0.0
 40
2.2999999999999998
 50
0.0
 51
90.0
  0
ARC
  8
DETAIL
  6
CONTINOUS
 62
     5
 10
16.700000000000049
 20
-4.2000000000000446
 30
0.0
 40
2.2999999999999998
 50
0.0
 51
90.0
  0
LINE
  8
DETAIL
  6
CONTINOUS
 62
     5
 10
19.0
 20
-4.2000000000000446
 30
0.0
 11
19.0
 21
-7.0
 31
0.0
  0
ARC
  8
DETAIL
  6
CONTINOUS
 62
     5
 10
16.700000000000049
 20
-7.0
 30
0.0
 40
2.2999999999999998
 50
270.0
 51
0.0
  0
LINE
  8
DETAIL
  6
CONTINOUS
 62
     5
 10
5.7000000000000446
 20
-1.899999999999977
 30
0.0
 11
16.700000000000049
 21
-1.899999999999977
 31
0.0
  0
ARC
  8
DETAIL
  6
CONTINOUS
 62
     5
 10
5.7000000000000446
 20
-4.2000000000000446
 30
0.0
 40
2.2999999999999998
 50
90.0
 51
180.0
  0
LINE
  8
DETAIL
  6
CONTINOUS
 62
     5
 10
3.3999999999999768
 20
-4.2000000000000446
 30
0.0
 11
3.3999999999999768
 21
-7.0
 31
0.0
  0
LINE
  8
DETAIL
  6
CONTINOUS
 62
     5
 10
5.7000000000000446
 20
-9.2999999999999545
 30
0.0
 11
16.700000000000049
 21
-9.2999999999999545
 31
0.0
  0
ARC
  8
DETAIL
  6
CONTINOUS
 62
     5
 10
5.7000000000000446
 20
-7.0
 30
0.0
 40
2.2999999999999998
 50
180.0
 51
270.0
  0
ARC
  8
DETAIL
  6
CONTINOUS
 62
     5
 10
5.7000000000000446
 20
-17.0
 30
0.0
 40
2.2999999999999998
 50
180.0
 51
270.0
  0
LINE
  8
DETAIL
  6
CONTINOUS
 62
     5
 10
5.7000000000000446
 20
-19.299999999999951
 30
0.0
 11
16.700000000000049
 21
-19.299999999999951
 31
0.0
  0
LINE
  8
DETAIL
  6
CONTINOUS
 62
     5
 10
3.3999999999999768
 20
-14.200000000000051
 30
0.0
 11
3.3999999999999768
 21
-17.0
 31
0.0
  0
ARC
  8
DETAIL
  6
CONTINOUS
 62
     5
 10
5.7000000000000446
 20
-14.200000000000051
 30
0.0
 40
2.2999999999999998
 50
90.0
 51
180.0
  0
LINE
  8
DETAIL
  6
CONTINOUS
 62
     5
 10
5.7000000000000446
 20
-11.899999999999981
 30
0.0
 11
16.700000000000049
 21
-11.899999999999981
 31
0.0
  0
ARC
  8
DETAIL
  6
CONTINOUS
 62
     5
 10
16.700000000000049
 20
-17.0
 30
0.0
 40
2.2999999999999998
 50
270.0
 51
0.0
  0
LINE
  8
DETAIL
  6
CONTINOUS
 62
     5
 10
19.0
 20
-14.200000000000051
 30
0.0
 11
19.0
 21
-17.0
 31
0.0
  0
ARC
  8
DETAIL
  6
CONTINOUS
 62
     5
 10
16.700000000000049
 20
-14.200000000000051
 30
0.0
 40
2.2999999999999998
 50
0.0
 51
90.0
  0
ARC
  8
DETAIL
  6
CONTINOUS
 62
     5
 10
5.7000000000000446
 20
-27.0
 30
0.0
 40
2.2999999999999998
 50
180.0
 51
270.0
  0
LINE
  8
DETAIL
  6
CONTINOUS
 62
     5
 10
5.7000000000000446
 20
-29.299999999999951
 30
0.0
 11
16.700000000000049
 21
-29.299999999999951
 31
0.0
  0
LINE
  8
DETAIL
  6
CONTINOUS
 62
     5
 10
3.3999999999999768
 20
-24.200000000000049
 30
0.0
 11
3.3999999999999768
 21
-27.0
 31
0.0
  0
ARC
  8
DETAIL
  6
CONTINOUS
 62
     5
 10
5.7000000000000446
 20
-24.200000000000049
 30
0.0
 40
2.2999999999999998
 50
90.0
 51
180.0
  0
LINE
  8
DETAIL
  6
CONTINOUS
 62
     5
 10
5.7000000000000446
 20
-21.899999999999981
 30
0.0
 11
16.700000000000049
 21
-21.899999999999981
 31
0.0
  0
ARC
  8
DETAIL
  6
CONTINOUS
 62
     5
 10
16.700000000000049
 20
-27.0
 30
0.0
 40
2.2999999999999998
 50
270.0
 51
0.0
  0
LINE
  8
DETAIL
  6
CONTINOUS
 62
     5
 10
19.0
 20
-24.200000000000049
 30
0.0
 11
19.0
 21
-27.0
 31
0.0
  0
ARC
  8
DETAIL
  6
CONTINOUS
 62
     5
 10
16.700000000000049
 20
-24.200000000000049
 30
0.0
 40
2.2999999999999998
 50
0.0
 51
90.0
  0
ARC
  8
DETAIL
  6
CONTINOUS
 62
     5
 10
5.7000000000000446
 20
-37.0
 30
0.0
 40
2.2999999999999998
 50
180.0
 51
270.0
  0
LINE
  8
DETAIL
  6
CONTINOUS
 62
     5
 10
5.7000000000000446
 20
-39.299999999999947
 30
0.0
 11
16.700000000000049
 21
-39.299999999999947
 31
0.0
  0
LINE
  8
DETAIL
  6
CONTINOUS
 62
     5
 10
3.3999999999999768
 20
-34.200000000000053
 30
0.0
 11
3.3999999999999768
 21
-37.0
 31
0.0
  0
ARC
  8
DETAIL
  6
CONTINOUS
 62
     5
 10
5.7000000000000446
 20
-34.200000000000053
 30
0.0
 40
2.2999999999999998
 50
90.0
 51
180.0
  0
LINE
  8
DETAIL
  6
CONTINOUS
 62
     5
 10
5.7000000000000446
 20
-31.899999999999981
 30
0.0
 11
16.700000000000049
 21
-31.899999999999981
 31
0.0
  0
ARC
  8
DETAIL
  6
CONTINOUS
 62
     5
 10
16.700000000000049
 20
-37.0
 30
0.0
 40
2.2999999999999998
 50
270.0
 51
0.0
  0
LINE
  8
DETAIL
  6
CONTINOUS
 62
     5
 10
19.0
 20
-34.200000000000053
 30
0.0
 11
19.0
 21
-37.0
 31
0.0
  0
ARC
  8
DETAIL
  6
CONTINOUS
 62
     5
 10
16.700000000000049
 20
-34.200000000000053
 30
0.0
 40
2.2999999999999998
 50
0.0
 51
90.0
  0
ARC
  8
DETAIL
  6
CONTINOUS
 62
     5
 10
5.7000000000000446
 20
-47.0
 30
0.0
 40
2.2999999999999998
 50
180.0
 51
270.0
  0
LINE
  8
DETAIL
  6
CONTINOUS
 62
     5
 10
5.7000000000000446
 20
-49.299999999999947
 30
0.0
 11
16.700000000000049
 21
-49.299999999999947
 31
0.0
  0
LINE
  8
DETAIL
  6
CONTINOUS
 62
     5
 10
3.3999999999999768
 20
-44.200000000000053
 30
0.0
 11
3.3999999999999768
 21
-47.0
 31
0.0
  0
ARC
  8
DETAIL
  6
CONTINOUS
 62
     5
 10
5.7000000000000446
 20
-44.200000000000053
 30
0.0
 40
2.2999999999999998
 50
90.0
 51
180.0
  0
LINE
  8
DETAIL
  6
CONTINOUS
 62
     5
 10
5.7000000000000446
 20
-41.899999999999977
 30
0.0
 11
16.700000000000049
 21
-41.899999999999977
 31
0.0
  0
ARC
  8
DETAIL
  6
CONTINOUS
 62
     5
 10
16.700000000000049
 20
-47.0
 30
0.0
 40
2.2999999999999998
 50
270.0
 51
0.0
  0
LINE
  8
DETAIL
  6
CONTINOUS
 62
     5
 10
19.0
 20
-44.200000000000053
 30
0.0
 11
19.0
 21
-47.0
 31
0.0
  0
ARC
  8
DETAIL
  6
CONTINOUS
 62
     5
 10
16.700000000000049
 20
-44.200000000000053
 30
0.0
 40
2.2999999999999998
 50
0.0
 51
90.0
  0
ARC
  8
DETAIL
  6
CONTINOUS
 62
     5
 10
5.7000000000000446
 20
-57.0
 30
0.0
 40
2.2999999999999998
 50
180.0
 51
270.0
  0
LINE
  8
DETAIL
  6
CONTINOUS
 62
     5
 10
5.7000000000000446
 20
-59.299999999999947
 30
0.0
 11
16.700000000000049
 21
-59.299999999999947
 31
0.0
  0
LINE
  8
DETAIL
  6
CONTINOUS
 62
     5
 10
3.3999999999999768
 20
-54.200000000000053
 30
0.0
 11
3.3999999999999768
 21
-57.0
 31
0.0
  0
ARC
  8
DETAIL
  6
CONTINOUS
 62
     5
 10
5.7000000000000446
 20
-54.200000000000053
 30
0.0
 40
2.2999999999999998
 50
90.0
 51
180.0
  0
LINE
  8
DETAIL
  6
CONTINOUS
 62
     5
 10
5.7000000000000446
 20
-51.899999999999977
 30
0.0
 11
16.700000000000049
 21
-51.899999999999977
 31
0.0
  0
ARC
  8
DETAIL
  6
CONTINOUS
 62
     5
 10
16.700000000000049
 20
-57.0
 30
0.0
 40
2.2999999999999998
 50
270.0
 51
0.0
  0
LINE
  8
DETAIL
  6
CONTINOUS
 62
     5
 10
19.0
 20
-54.200000000000053
 30
0.0
 11
19.0
 21
-57.0
 31
0.0
  0
ARC
  8
DETAIL
  6
CONTINOUS
 62
     5
 10
16.700000000000049
 20
-54.200000000000053
 30
0.0
 40
2.2999999999999998
 50
0.0
 51
90.0
  0
ARC
  8
DETAIL
  6
CONTINOUS
 62
     5
 10
5.7000000000000446
 20
-67.0
 30
0.0
 40
2.2999999999999998
 50
180.0
 51
270.0
  0
LINE
  8
DETAIL
  6
CONTINOUS
 62
     5
 10
5.7000000000000446
 20
-69.299999999999955
 30
0.0
 11
16.700000000000049
 21
-69.299999999999955
 31
0.0
  0
LINE
  8
DETAIL
  6
CONTINOUS
 62
     5
 10
3.3999999999999768
 20
-64.200000000000045
 30
0.0
 11
3.3999999999999768
 21
-67.0
 31
0.0
  0
ARC
  8
DETAIL
  6
CONTINOUS
 62
     5
 10
5.7000000000000446
 20
-64.200000000000045
 30
0.0
 40
2.2999999999999998
 50
90.0
 51
180.0
  0
LINE
  8
DETAIL
  6
CONTINOUS
 62
     5
 10
5.7000000000000446
 20
-61.899999999999977
 30
0.0
 11
16.700000000000049
 21
-61.899999999999977
 31
0.0
  0
ARC
  8
DETAIL
  6
CONTINOUS
 62
     5
 10
16.700000000000049
 20
-67.0
 30
0.0
 40
2.2999999999999998
 50
270.0
 51
0.0
  0
LINE
  8
DETAIL
  6
CONTINOUS
 62
     5
 10
19.0
 20
-64.200000000000045
 30
0.0
 11
19.0
 21
-67.0
 31
0.0
  0
ARC
  8
DETAIL
  6
CONTINOUS
 62
     5
 10
16.700000000000049
 20
-64.200000000000045
 30
0.0
 40
2.2999999999999998
 50
0.0
 51
90.0
  0
ARC
  8
DETAIL
  6
CONTINOUS
 62
     5
 10
5.7000000000000446
 20
-77.0
 30
0.0
 40
2.2999999999999998
 50
180.0
 51
270.0
  0
LINE
  8
DETAIL
  6
CONTINOUS
 62
     5
 10
5.7000000000000446
 20
-79.299999999999955
 30
0.0
 11
16.700000000000049
 21
-79.299999999999955
 31
0.0
  0
LINE
  8
DETAIL
  6
CONTINOUS
 62
     5
 10
3.3999999999999768
 20
-74.200000000000045
 30
0.0
 11
3.3999999999999768
 21
-77.0
 31
0.0
  0
ARC
  8
DETAIL
  6
CONTINOUS
 62
     5
 10
5.7000000000000446
 20
-74.200000000000045
 30
0.0
 40
2.2999999999999998
 50
90.0
 51
180.0
  0
LINE
  8
DETAIL
  6
CONTINOUS
 62
     5
 10
5.7000000000000446
 20
-71.899999999999977
 30
0.0
 11
16.700000000000049
 21
-71.899999999999977
 31
0.0
  0
ARC
  8
DETAIL
  6
CONTINOUS
 62
     5
 10
16.700000000000049
 20
-77.0
 30
0.0
 40
2.2999999999999998
 50
270.0
 51
0.0
  0
LINE
  8
DETAIL
  6
CONTINOUS
 62
     5
 10
19.0
 20
-74.200000000000045
 30
0.0
 11
19.0
 21
-77.0
 31
0.0
  0
ARC
  8
DETAIL
  6
CONTINOUS
 62
     5
 10
16.700000000000049
 20
-74.200000000000045
 30
0.0
 40
2.2999999999999998
 50
0.0
 51
90.0
  0
LINE
  8
DETAIL
  6
CONTINOUS
 62
     5
 10
5.7000000000000446
 20
-81.899999999999977
 30
0.0
 11
16.700000000000049
 21
-81.899999999999977
 31
0.0
  0
LINE
  8
DETAIL
  6
CONTINOUS
 62
     5
 10
24.5
 20
-81.899999999999977
 30
0.0
 11
35.5
 21
-81.899999999999977
 31
0.0
  0
ARC
  8
DETAIL
  6
CONTINOUS
 62
     5
 10
35.5
 20
-74.200000000000045
 30
0.0
 40
2.2999999999999998
 50
0.0
 51
90.0
  0
LINE
  8
DETAIL
  6
CONTINOUS
 62
     5
 10
37.799999999999947
 20
-74.200000000000045
 30
0.0
 11
37.799999999999947
 21
-77.0
 31
0.0
  0
ARC
  8
DETAIL
  6
CONTINOUS
 62
     5
 10
35.5
 20
-77.0
 30
0.0
 40
2.2999999999999998
 50
270.0
 51
0.0
  0
LINE
  8
DETAIL
  6
CONTINOUS
 62
     5
 10
24.5
 20
-71.899999999999977
 30
0.0
 11
35.5
 21
-71.899999999999977
 31
0.0
  0
ARC
  8
DETAIL
  6
CONTINOUS
 62
     5
 10
24.5
 20
-74.200000000000045
 30
0.0
 40
2.2999999999999998
 50
90.0
 51
180.0
  0
LINE
  8
DETAIL
  6
CONTINOUS
 62
     5
 10
22.200000000000049
 20
-74.200000000000045
 30
0.0
 11
22.200000000000049
 21
-77.0
 31
0.0
  0
LINE
  8
DETAIL
  6
CONTINOUS
 62
     5
 10
24.5
 20
-79.299999999999955
 30
0.0
 11
35.5
 21
-79.299999999999955
 31
0.0
  0
ARC
  8
DETAIL
  6
CONTINOUS
 62
     5
 10
24.5
 20
-77.0
 30
0.0
 40
2.2999999999999998
 50
180.0
 51
270.0
  0
ARC
  8
DETAIL
  6
CONTINOUS
 62
     5
 10
35.5
 20
-64.200000000000045
 30
0.0
 40
2.2999999999999998
 50
0.0
 51
90.0
  0
LINE
  8
DETAIL
  6
CONTINOUS
 62
     5
 10
37.799999999999947
 20
-64.200000000000045
 30
0.0
 11
37.799999999999947
 21
-67.0
 31
0.0
  0
ARC
  8
DETAIL
  6
CONTINOUS
 62
     5
 10
35.5
 20
-67.0
 30
0.0
 40
2.2999999999999998
 50
270.0
 51
0.0
  0
LINE
  8
DETAIL
  6
CONTINOUS
 62
     5
 10
24.5
 20
-61.899999999999977
 30
0.0
 11
35.5
 21
-61.899999999999977
 31
0.0
  0
ARC
  8
DETAIL
  6
CONTINOUS
 62
     5
 10
24.5
 20
-64.200000000000045
 30
0.0
 40
2.2999999999999998
 50
90.0
 51
180.0
  0
LINE
  8
DETAIL
  6
CONTINOUS
 62
     5
 10
22.200000000000049
 20
-64.200000000000045
 30
0.0
 11
22.200000000000049
 21
-67.0
 31
0.0
  0
LINE
  8
DETAIL
  6
CONTINOUS
 62
     5
 10
24.5
 20
-69.299999999999955
 30
0.0
 11
35.5
 21
-69.299999999999955
 31
0.0
  0
ARC
  8
DETAIL
  6
CONTINOUS
 62
     5
 10
24.5
 20
-67.0
 30
0.0
 40
2.2999999999999998
 50
180.0
 51
270.0
  0
ARC
  8
DETAIL
  6
CONTINOUS
 62
     5
 10
35.5
 20
-54.200000000000053
 30
0.0
 40
2.2999999999999998
 50
0.0
 51
90.0
  0
LINE
  8
DETAIL
  6
CONTINOUS
 62
     5
 10
37.799999999999947
 20
-54.200000000000053
 30
0.0
 11
37.799999999999947
 21
-57.0
 31
0.0
  0
ARC
  8
DETAIL
  6
CONTINOUS
 62
     5
 10
35.5
 20
-57.0
 30
0.0
 40
2.2999999999999998
 50
270.0
 51
0.0
  0
LINE
  8
DETAIL
  6
CONTINOUS
 62
     5
 10
24.5
 20
-51.899999999999977
 30
0.0
 11
35.5
 21
-51.899999999999977
 31
0.0
  0
ARC
  8
DETAIL
  6
CONTINOUS
 62
     5
 10
24.5
 20
-54.200000000000053
 30
0.0
 40
2.2999999999999998
 50
90.0
 51
180.0
  0
LINE
  8
DETAIL
  6
CONTINOUS
 62
     5
 10
22.200000000000049
 20
-54.200000000000053
 30
0.0
 11
22.200000000000049
 21
-57.0
 31
0.0
  0
LINE
  8
DETAIL
  6
CONTINOUS
 62
     5
 10
24.5
 20
-59.299999999999947
 30
0.0
 11
35.5
 21
-59.299999999999947
 31
0.0
  0
ARC
  8
DETAIL
  6
CONTINOUS
 62
     5
 10
24.5
 20
-57.0
 30
0.0
 40
2.2999999999999998
 50
180.0
 51
270.0
  0
ARC
  8
DETAIL
  6
CONTINOUS
 62
     5
 10
35.5
 20
-44.200000000000053
 30
0.0
 40
2.2999999999999998
 50
0.0
 51
90.0
  0
LINE
  8
DETAIL
  6
CONTINOUS
 62
     5
 10
37.799999999999947
 20
-44.200000000000053
 30
0.0
 11
37.799999999999947
 21
-47.0
 31
0.0
  0
ARC
  8
DETAIL
  6
CONTINOUS
 62
     5
 10
35.5
 20
-47.0
 30
0.0
 40
2.2999999999999998
 50
270.0
 51
0.0
  0
LINE
  8
DETAIL
  6
CONTINOUS
 62
     5
 10
24.5
 20
-41.899999999999977
 30
0.0
 11
35.5
 21
-41.899999999999977
 31
0.0
  0
ARC
  8
DETAIL
  6
CONTINOUS
 62
     5
 10
24.5
 20
-44.200000000000053
 30
0.0
 40
2.2999999999999998
 50
90.0
 51
180.0
  0
LINE
  8
DETAIL
  6
CONTINOUS
 62
     5
 10
22.200000000000049
 20
-44.200000000000053
 30
0.0
 11
22.200000000000049
 21
-47.0
 31
0.0
  0
LINE
  8
DETAIL
  6
CONTINOUS
 62
     5
 10
24.5
 20
-49.299999999999947
 30
0.0
 11
35.5
 21
-49.299999999999947
 31
0.0
  0
ARC
  8
DETAIL
  6
CONTINOUS
 62
     5
 10
24.5
 20
-47.0
 30
0.0
 40
2.2999999999999998
 50
180.0
 51
270.0
  0
ARC
  8
DETAIL
  6
CONTINOUS
 62
     5
 10
35.5
 20
-34.200000000000053
 30
0.0
 40
2.2999999999999998
 50
0.0
 51
90.0
  0
LINE
  8
DETAIL
  6
CONTINOUS
 62
     5
 10
37.799999999999947
 20
-34.200000000000053
 30
0.0
 11
37.799999999999947
 21
-37.0
 31
0.0
  0
ARC
  8
DETAIL
  6
CONTINOUS
 62
     5
 10
35.5
 20
-37.0
 30
0.0
 40
2.2999999999999998
 50
270.0
 51
0.0
  0
LINE
  8
DETAIL
  6
CONTINOUS
 62
     5
 10
24.5
 20
-31.899999999999981
 30
0.0
 11
35.5
 21
-31.899999999999981
 31
0.0
  0
ARC
  8
DETAIL
  6
CONTINOUS
 62
     5
 10
24.5
 20
-34.200000000000053
 30
0.0
 40
2.2999999999999998
 50
90.0
 51
180.0
  0
LINE
  8
DETAIL
  6
CONTINOUS
 62
     5
 10
22.200000000000049
 20
-34.200000000000053
 30
0.0
 11
22.200000000000049
 21
-37.0
 31
0.0
  0
LINE
  8
DETAIL
  6
CONTINOUS
 62
     5
 10
24.5
 20
-39.299999999999947
 30
0.0
 11
35.5
 21
-39.299999999999947
 31
0.0
  0
ARC
  8
DETAIL
  6
CONTINOUS
 62
     5
 10
24.5
 20
-37.0
 30
0.0
 40
2.2999999999999998
 50
180.0
 51
270.0
  0
ARC
  8
DETAIL
  6
CONTINOUS
 62
     5
 10
35.5
 20
-24.200000000000049
 30
0.0
 40
2.2999999999999998
 50
0.0
 51
90.0
  0
LINE
  8
DETAIL
  6
CONTINOUS
 62
     5
 10
37.799999999999947
 20
-24.200000000000049
 30
0.0
 11
37.799999999999947
 21
-27.0
 31
0.0
  0
ARC
  8
DETAIL
  6
CONTINOUS
 62
     5
 10
35.5
 20
-27.0
 30
0.0
 40
2.2999999999999998
 50
270.0
 51
0.0
  0
LINE
  8
DETAIL
  6
CONTINOUS
 62
     5
 10
24.5
 20
-21.899999999999981
 30
0.0
 11
35.5
 21
-21.899999999999981
 31
0.0
  0
ARC
  8
DETAIL
  6
CONTINOUS
 62
     5
 10
24.5
 20
-24.200000000000049
 30
0.0
 40
2.2999999999999998
 50
90.0
 51
180.0
  0
LINE
  8
DETAIL
  6
CONTINOUS
 62
     5
 10
22.200000000000049
 20
-24.200000000000049
 30
0.0
 11
22.200000000000049
 21
-27.0
 31
0.0
  0
LINE
  8
DETAIL
  6
CONTINOUS
 62
     5
 10
24.5
 20
-29.299999999999951
 30
0.0
 11
35.5
 21
-29.299999999999951
 31
0.0
  0
ARC
  8
DETAIL
  6
CONTINOUS
 62
     5
 10
24.5
 20
-27.0
 30
0.0
 40
2.2999999999999998
 50
180.0
 51
270.0
  0
ARC
  8
DETAIL
  6
CONTINOUS
 62
     5
 10
35.5
 20
-14.200000000000051
 30
0.0
 40
2.2999999999999998
 50
0.0
 51
90.0
  0
LINE
  8
DETAIL
  6
CONTINOUS
 62
     5
 10
37.799999999999947
 20
-14.200000000000051
 30
0.0
 11
37.799999999999947
 21
-17.0
 31
0.0
  0
ARC
  8
DETAIL
  6
CONTINOUS
 62
     5
 10
35.5
 20
-17.0
 30
0.0
 40
2.2999999999999998
 50
270.0
 51
0.0
  0
LINE
  8
DETAIL
  6
CONTINOUS
 62
     5
 10
24.5
 20
-11.899999999999981
 30
0.0
 11
35.5
 21
-11.899999999999981
 31
0.0
  0
ARC
  8
DETAIL
  6
CONTINOUS
 62
     5
 10
24.5
 20
-14.200000000000051
 30
0.0
 40
2.2999999999999998
 50
90.0
 51
180.0
  0
LINE
  8
DETAIL
  6
CONTINOUS
 62
     5
 10
22.200000000000049
 20
-14.200000000000051
 30
0.0
 11
22.200000000000049
 21
-17.0
 31
0.0
  0
LINE
  8
DETAIL
  6
CONTINOUS
 62
     5
 10
24.5
 20
-19.299999999999951
 30
0.0
 11
35.5
 21
-19.299999999999951
 31
0.0
  0
ARC
  8
DETAIL
  6
CONTINOUS
 62
     5
 10
24.5
 20
-17.0
 30
0.0
 40
2.2999999999999998
 50
180.0
 51
270.0
  0
ARC
  8
DETAIL
  6
CONTINOUS
 62
     5
 10
24.5
 20
-7.0
 30
0.0
 40
2.2999999999999998
 50
180.0
 51
270.0
  0
LINE
  8
DETAIL
  6
CONTINOUS
 62
     5
 10
24.5
 20
-9.2999999999999545
 30
0.0
 11
35.5
 21
-9.2999999999999545
 31
0.0
  0
LINE
  8
DETAIL
  6
CONTINOUS
 62
     5
 10
22.200000000000049
 20
-4.2000000000000446
 30
0.0
 11
22.200000000000049
 21
-7.0
 31
0.0
  0
ARC
  8
DETAIL
  6
CONTINOUS
 62
     5
 10
24.5
 20
-4.2000000000000446
 30
0.0
 40
2.2999999999999998
 50
90.0
 51
180.0
  0
LINE
  8
DETAIL
  6
CONTINOUS
 62
     5
 10
24.5
 20
-1.899999999999977
 30
0.0
 11
35.5
 21
-1.899999999999977
 31
0.0
  0
ARC
  8
DETAIL
  6
CONTINOUS
 62
     5
 10
35.5
 20
-7.0
 30
0.0
 40
2.2999999999999998
 50
270.0
 51
0.0
  0
LINE
  8
DETAIL
  6
CONTINOUS
 62
     5
 10
37.799999999999947
 20
-4.2000000000000446
 30
0.0
 11
37.799999999999947
 21
-7.0
 31
0.0
  0
ARC
  8
DETAIL
  6
CONTINOUS
 62
     5
 10
35.5
 20
-4.2000000000000446
 30
0.0
 40
2.2999999999999998
 50
0.0
 51
90.0
  0
LINE
  8
DETAIL
  6
CONTINOUS
 62
     5
 10
46.899999999999977
 20
-81.899999999999977
 30
0.0
 11
57.899999999999977
 21
-81.899999999999977
 31
0.0
  0
LINE
  8
DETAIL
  6
CONTINOUS
 62
     5
 10
46.899999999999977
 20
-71.899999999999977
 30
0.0
 11
57.899999999999977
 21
-71.899999999999977
 31
0.0
  0
ARC
  8
DETAIL
  6
CONTINOUS
 62
     5
 10
46.899999999999977
 20
-74.200000000000045
 30
0.0
 40
2.2999999999999998
 50
90.0
 51
180.0
  0
LINE
  8
DETAIL
  6
CONTINOUS
 62
     5
 10
44.600000000000023
 20
-74.200000000000045
 30
0.0
 11
44.600000000000023
 21
-77.0
 31
0.0
  0
LINE
  8
DETAIL
  6
CONTINOUS
 62
     5
 10
46.899999999999977
 20
-79.299999999999955
 30
0.0
 11
57.899999999999977
 21
-79.299999999999955
 31
0.0
  0
ARC
  8
DETAIL
  6
CONTINOUS
 62
     5
 10
46.899999999999977
 20
-77.0
 30
0.0
 40
2.2999999999999998
 50
180.0
 51
270.0
  0
LINE
  8
DETAIL
  6
CONTINOUS
 62
     5
 10
46.899999999999977
 20
-61.899999999999977
 30
0.0
 11
57.899999999999977
 21
-61.899999999999977
 31
0.0
  0
ARC
  8
DETAIL
  6
CONTINOUS
 62
     5
 10
46.899999999999977
 20
-64.200000000000045
 30
0.0
 40
2.2999999999999998
 50
90.0
 51
180.0
  0
LINE
  8
DETAIL
  6
CONTINOUS
 62
     5
 10
44.600000000000023
 20
-64.200000000000045
 30
0.0
 11
44.600000000000023
 21
-67.0
 31
0.0
  0
LINE
  8
DETAIL
  6
CONTINOUS
 62
     5
 10
46.899999999999977
 20
-69.299999999999955
 30
0.0
 11
57.899999999999977
 21
-69.299999999999955
 31
0.0
  0
ARC
  8
DETAIL
  6
CONTINOUS
 62
     5
 10
46.899999999999977
 20
-67.0
 30
0.0
 40
2.2999999999999998
 50
180.0
 51
270.0
  0
LINE
  8
DETAIL
  6
CONTINOUS
 62
     5
 10
46.899999999999977
 20
-51.899999999999977
 30
0.0
 11
57.899999999999977
 21
-51.899999999999977
 31
0.0
  0
ARC
  8
DETAIL
  6
CONTINOUS
 62
     5
 10
46.899999999999977
 20
-54.200000000000053
 30
0.0
 40
2.2999999999999998
 50
90.0
 51
180.0
  0
LINE
  8
DETAIL
  6
CONTINOUS
 62
     5
 10
44.600000000000023
 20
-54.200000000000053
 30
0.0
 11
44.600000000000023
 21
-57.0
 31
0.0
  0
LINE
  8
DETAIL
  6
CONTINOUS
 62
     5
 10
46.899999999999977
 20
-59.299999999999947
 30
0.0
 11
57.899999999999977
 21
-59.299999999999947
 31
0.0
  0
ARC
  8
DETAIL
  6
CONTINOUS
 62
     5
 10
46.899999999999977
 20
-57.0
 30
0.0
 40
2.2999999999999998
 50
180.0
 51
270.0
  0
LINE
  8
DETAIL
  6
CONTINOUS
 62
     5
 10
46.899999999999977
 20
-41.899999999999977
 30
0.0
 11
57.899999999999977
 21
-41.899999999999977
 31
0.0
  0
ARC
  8
DETAIL
  6
CONTINOUS
 62
     5
 10
46.899999999999977
 20
-44.200000000000053
 30
0.0
 40
2.2999999999999998
 50
90.0
 51
180.0
  0
LINE
  8
DETAIL
  6
CONTINOUS
 62
     5
 10
44.600000000000023
 20
-44.200000000000053
 30
0.0
 11
44.600000000000023
 21
-47.0
 31
0.0
  0
LINE
  8
DETAIL
  6
CONTINOUS
 62
     5
 10
46.899999999999977
 20
-49.299999999999947
 30
0.0
 11
57.899999999999977
 21
-49.299999999999947
 31
0.0
  0
ARC
  8
DETAIL
  6
CONTINOUS
 62
     5
 10
46.899999999999977
 20
-47.0
 30
0.0
 40
2.2999999999999998
 50
180.0
 51
270.0
  0
LINE
  8
DETAIL
  6
CONTINOUS
 62
     5
 10
46.899999999999977
 20
-31.899999999999981
 30
0.0
 11
57.899999999999977
 21
-31.899999999999981
 31
0.0
  0
ARC
  8
DETAIL
  6
CONTINOUS
 62
     5
 10
46.899999999999977
 20
-34.200000000000053
 30
0.0
 40
2.2999999999999998
 50
90.0
 51
180.0
  0
LINE
  8
DETAIL
  6
CONTINOUS
 62
     5
 10
44.600000000000023
 20
-34.200000000000053
 30
0.0
 11
44.600000000000023
 21
-37.0
 31
0.0
  0
LINE
  8
DETAIL
  6
CONTINOUS
 62
     5
 10
46.899999999999977
 20
-39.299999999999947
 30
0.0
 11
57.899999999999977
 21
-39.299999999999947
 31
0.0
  0
ARC
  8
DETAIL
  6
CONTINOUS
 62
     5
 10
46.899999999999977
 20
-37.0
 30
0.0
 40
2.2999999999999998
 50
180.0
 51
270.0
  0
LINE
  8
DETAIL
  6
CONTINOUS
 62
     5
 10
46.899999999999977
 20
-21.899999999999981
 30
0.0
 11
57.899999999999977
 21
-21.899999999999981
 31
0.0
  0
ARC
  8
DETAIL
  6
CONTINOUS
 62
     5
 10
46.899999999999977
 20
-24.200000000000049
 30
0.0
 40
2.2999999999999998
 50
90.0
 51
180.0
  0
LINE
  8
DETAIL
  6
CONTINOUS
 62
     5
 10
44.600000000000023
 20
-24.200000000000049
 30
0.0
 11
44.600000000000023
 21
-27.0
 31
0.0
  0
LINE
  8
DETAIL
  6
CONTINOUS
 62
     5
 10
46.899999999999977
 20
-29.299999999999951
 30
0.0
 11
57.899999999999977
 21
-29.299999999999951
 31
0.0
  0
ARC
  8
DETAIL
  6
CONTINOUS
 62
     5
 10
46.899999999999977
 20
-27.0
 30
0.0
 40
2.2999999999999998
 50
180.0
 51
270.0
  0
LINE
  8
DETAIL
  6
CONTINOUS
 62
     5
 10
46.899999999999977
 20
-11.899999999999981
 30
0.0
 11
57.899999999999977
 21
-11.899999999999981
 31
0.0
  0
ARC
  8
DETAIL
  6
CONTINOUS
 62
     5
 10
46.899999999999977
 20
-14.200000000000051
 30
0.0
 40
2.2999999999999998
 50
90.0
 51
180.0
  0
LINE
  8
DETAIL
  6
CONTINOUS
 62
     5
 10
44.600000000000023
 20
-14.200000000000051
 30
0.0
 11
44.600000000000023
 21
-17.0
 31
0.0
  0
LINE
  8
DETAIL
  6
CONTINOUS
 62
     5
 10
46.899999999999977
 20
-19.299999999999951
 30
0.0
 11
57.899999999999977
 21
-19.299999999999951
 31
0.0
  0
ARC
  8
DETAIL
  6
CONTINOUS
 62
     5
 10
46.899999999999977
 20
-17.0
 30
0.0
 40
2.2999999999999998
 50
180.0
 51
270.0
  0
ARC
  8
DETAIL
  6
CONTINOUS
 62
     5
 10
46.899999999999977
 20
-7.0
 30
0.0
 40
2.2999999999999998
 50
180.0
 51
270.0
  0
LINE
  8
DETAIL
  6
CONTINOUS
 62
     5
 10
46.899999999999977
 20
-9.2999999999999545
 30
0.0
 11
57.899999999999977
 21
-9.2999999999999545
 31
0.0
  0
LINE
  8
DETAIL
  6
CONTINOUS
 62
     5
 10
44.600000000000023
 20
-4.2000000000000446
 30
0.0
 11
44.600000000000023
 21
-7.0
 31
0.0
  0
ARC
  8
DETAIL
  6
CONTINOUS
 62
     5
 10
46.899999999999977
 20
-4.2000000000000446
 30
0.0
 40
2.2999999999999998
 50
90.0
 51
180.0
  0
LINE
  8
DETAIL
  6
CONTINOUS
 62
     5
 10
46.899999999999977
 20
-1.899999999999977
 30
0.0
 11
57.899999999999977
 21
-1.899999999999977
 31
0.0
  0
ARC
  8
DETAIL
  6
CONTINOUS
 62
     5
 10
76.700000000000045
 20
-4.2000000000000446
 30
0.0
 40
2.2999999999999998
 50
0.0
 51
90.0
  0
LINE
  8
DETAIL
  6
CONTINOUS
 62
     5
 10
79.0
 20
-4.2000000000000446
 30
0.0
 11
79.0
 21
-7.0
 31
0.0
  0
ARC
  8
DETAIL
  6
CONTINOUS
 62
     5
 10
76.700000000000045
 20
-7.0
 30
0.0
 40
2.2999999999999998
 50
270.0
 51
0.0
  0
LINE
  8
DETAIL
  6
CONTINOUS
 62
     5
 10
65.700000000000045
 20
-1.899999999999977
 30
0.0
 11
76.700000000000045
 21
-1.899999999999977
 31
0.0
  0
ARC
  8
DETAIL
  6
CONTINOUS
 62
     5
 10
65.700000000000045
 20
-4.2000000000000446
 30
0.0
 40
2.2999999999999998
 50
90.0
 51
180.0
  0
LINE
  8
DETAIL
  6
CONTINOUS
 62
     5
 10
63.399999999999977
 20
-4.2000000000000446
 30
0.0
 11
63.399999999999977
 21
-7.0
 31
0.0
  0
LINE
  8
DETAIL
  6
CONTINOUS
 62
     5
 10
65.700000000000045
 20
-9.2999999999999545
 30
0.0
 11
76.700000000000045
 21
-9.2999999999999545
 31
0.0
  0
ARC
  8
DETAIL
  6
CONTINOUS
 62
     5
 10
65.700000000000045
 20
-7.0
 30
0.0
 40
2.2999999999999998
 50
180.0
 51
270.0
  0
ARC
  8
DETAIL
  6
CONTINOUS
 62
     5
 10
65.700000000000045
 20
-17.0
 30
0.0
 40
2.2999999999999998
 50
180.0
 51
270.0
  0
LINE
  8
DETAIL
  6
CONTINOUS
 62
     5
 10
65.700000000000045
 20
-19.299999999999951
 30
0.0
 11
76.700000000000045
 21
-19.299999999999951
 31
0.0
  0
LINE
  8
DETAIL
  6
CONTINOUS
 62
     5
 10
63.399999999999977
 20
-14.200000000000051
 30
0.0
 11
63.399999999999977
 21
-17.0
 31
0.0
  0
ARC
  8
DETAIL
  6
CONTINOUS
 62
     5
 10
65.700000000000045
 20
-14.200000000000051
 30
0.0
 40
2.2999999999999998
 50
90.0
 51
180.0
  0
LINE
  8
DETAIL
  6
CONTINOUS
 62
     5
 10
65.700000000000045
 20
-11.899999999999981
 30
0.0
 11
76.700000000000045
 21
-11.899999999999981
 31
0.0
  0
ARC
  8
DETAIL
  6
CONTINOUS
 62
     5
 10
76.700000000000045
 20
-17.0
 30
0.0
 40
2.2999999999999998
 50
270.0
 51
0.0
  0
LINE
  8
DETAIL
  6
CONTINOUS
 62
     5
 10
79.0
 20
-14.200000000000051
 30
0.0
 11
79.0
 21
-17.0
 31
0.0
  0
ARC
  8
DETAIL
  6
CONTINOUS
 62
     5
 10
76.700000000000045
 20
-14.200000000000051
 30
0.0
 40
2.2999999999999998
 50
0.0
 51
90.0
  0
ARC
  8
DETAIL
  6
CONTINOUS
 62
     5
 10
65.700000000000045
 20
-27.0
 30
0.0
 40
2.2999999999999998
 50
180.0
 51
270.0
  0
LINE
  8
DETAIL
  6
CONTINOUS
 62
     5
 10
65.700000000000045
 20
-29.299999999999951
 30
0.0
 11
76.700000000000045
 21
-29.299999999999951
 31
0.0
  0
LINE
  8
DETAIL
  6
CONTINOUS
 62
     5
 10
63.399999999999977
 20
-24.200000000000049
 30
0.0
 11
63.399999999999977
 21
-27.0
 31
0.0
  0
ARC
  8
DETAIL
  6
CONTINOUS
 62
     5
 10
65.700000000000045
 20
-24.200000000000049
 30
0.0
 40
2.2999999999999998
 50
90.0
 51
180.0
  0
LINE
  8
DETAIL
  6
CONTINOUS
 62
     5
 10
65.700000000000045
 20
-21.899999999999981
 30
0.0
 11
76.700000000000045
 21
-21.899999999999981
 31
0.0
  0
ARC
  8
DETAIL
  6
CONTINOUS
 62
     5
 10
76.700000000000045
 20
-27.0
 30
0.0
 40
2.2999999999999998
 50
270.0
 51
0.0
  0
LINE
  8
DETAIL
  6
CONTINOUS
 62
     5
 10
79.0
 20
-24.200000000000049
 30
0.0
 11
79.0
 21
-27.0
 31
0.0
  0
ARC
  8
DETAIL
  6
CONTINOUS
 62
     5
 10
76.700000000000045
 20
-24.200000000000049
 30
0.0
 40
2.2999999999999998
 50
0.0
 51
90.0
  0
ARC
  8
DETAIL
  6
CONTINOUS
 62
     5
 10
65.700000000000045
 20
-37.0
 30
0.0
 40
2.2999999999999998
 50
180.0
 51
270.0
  0
LINE
  8
DETAIL
  6
CONTINOUS
 62
     5
 10
65.700000000000045
 20
-39.299999999999947
 30
0.0
 11
76.700000000000045
 21
-39.299999999999947
 31
0.0
  0
LINE
  8
DETAIL
  6
CONTINOUS
 62
     5
 10
63.399999999999977
 20
-34.200000000000053
 30
0.0
 11
63.399999999999977
 21
-37.0
 31
0.0
  0
ARC
  8
DETAIL
  6
CONTINOUS
 62
     5
 10
65.700000000000045
 20
-34.200000000000053
 30
0.0
 40
2.2999999999999998
 50
90.0
 51
180.0
  0
LINE
  8
DETAIL
  6
CONTINOUS
 62
     5
 10
65.700000000000045
 20
-31.899999999999981
 30
0.0
 11
76.700000000000045
 21
-31.899999999999981
 31
0.0
  0
ARC
  8
DETAIL
  6
CONTINOUS
 62
     5
 10
76.700000000000045
 20
-37.0
 30
0.0
 40
2.2999999999999998
 50
270.0
 51
0.0
  0
LINE
  8
DETAIL
  6
CONTINOUS
 62
     5
 10
79.0
 20
-34.200000000000053
 30
0.0
 11
79.0
 21
-37.0
 31
0.0
  0
ARC
  8
DETAIL
  6
CONTINOUS
 62
     5
 10
76.700000000000045
 20
-34.200000000000053
 30
0.0
 40
2.2999999999999998
 50
0.0
 51
90.0
  0
ARC
  8
DETAIL
  6
CONTINOUS
 62
     5
 10
65.700000000000045
 20
-47.0
 30
0.0
 40
2.2999999999999998
 50
180.0
 51
270.0
  0
LINE
  8
DETAIL
  6
CONTINOUS
 62
     5
 10
65.700000000000045
 20
-49.299999999999947
 30
0.0
 11
76.700000000000045
 21
-49.299999999999947
 31
0.0
  0
LINE
  8
DETAIL
  6
CONTINOUS
 62
     5
 10
63.399999999999977
 20
-44.200000000000053
 30
0.0
 11
63.399999999999977
 21
-47.0
 31
0.0
  0
ARC
  8
DETAIL
  6
CONTINOUS
 62
     5
 10
65.700000000000045
 20
-44.200000000000053
 30
0.0
 40
2.2999999999999998
 50
90.0
 51
180.0
  0
LINE
  8
DETAIL
  6
CONTINOUS
 62
     5
 10
65.700000000000045
 20
-41.899999999999977
 30
0.0
 11
76.700000000000045
 21
-41.899999999999977
 31
0.0
  0
ARC
  8
DETAIL
  6
CONTINOUS
 62
     5
 10
76.700000000000045
 20
-47.0
 30
0.0
 40
2.2999999999999998
 50
270.0
 51
0.0
  0
LINE
  8
DETAIL
  6
CONTINOUS
 62
     5
 10
79.0
 20
-44.200000000000053
 30
0.0
 11
79.0
 21
-47.0
 31
0.0
  0
ARC
  8
DETAIL
  6
CONTINOUS
 62
     5
 10
76.700000000000045
 20
-44.200000000000053
 30
0.0
 40
2.2999999999999998
 50
0.0
 51
90.0
  0
ARC
  8
DETAIL
  6
CONTINOUS
 62
     5
 10
65.700000000000045
 20
-57.0
 30
0.0
 40
2.2999999999999998
 50
180.0
 51
270.0
  0
LINE
  8
DETAIL
  6
CONTINOUS
 62
     5
 10
65.700000000000045
 20
-59.299999999999947
 30
0.0
 11
76.700000000000045
 21
-59.299999999999947
 31
0.0
  0
LINE
  8
DETAIL
  6
CONTINOUS
 62
     5
 10
63.399999999999977
 20
-54.200000000000053
 30
0.0
 11
63.399999999999977
 21
-57.0
 31
0.0
  0
ARC
  8
DETAIL
  6
CONTINOUS
 62
     5
 10
65.700000000000045
 20
-54.200000000000053
 30
0.0
 40
2.2999999999999998
 50
90.0
 51
180.0
  0
LINE
  8
DETAIL
  6
CONTINOUS
 62
     5
 10
65.700000000000045
 20
-51.899999999999977
 30
0.0
 11
76.700000000000045
 21
-51.899999999999977
 31
0.0
  0
ARC
  8
DETAIL
  6
CONTINOUS
 62
     5
 10
76.700000000000045
 20
-57.0
 30
0.0
 40
2.2999999999999998
 50
270.0
 51
0.0
  0
LINE
  8
DETAIL
  6
CONTINOUS
 62
     5
 10
79.0
 20
-54.200000000000053
 30
0.0
 11
79.0
 21
-57.0
 31
0.0
  0
ARC
  8
DETAIL
  6
CONTINOUS
 62
     5
 10
76.700000000000045
 20
-54.200000000000053
 30
0.0
 40
2.2999999999999998
 50
0.0
 51
90.0
  0
ARC
  8
DETAIL
  6
CONTINOUS
 62
     5
 10
65.700000000000045
 20
-67.0
 30
0.0
 40
2.2999999999999998
 50
180.0
 51
270.0
  0
LINE
  8
DETAIL
  6
CONTINOUS
 62
     5
 10
65.700000000000045
 20
-69.299999999999955
 30
0.0
 11
76.700000000000045
 21
-69.299999999999955
 31
0.0
  0
LINE
  8
DETAIL
  6
CONTINOUS
 62
     5
 10
63.399999999999977
 20
-64.200000000000045
 30
0.0
 11
63.399999999999977
 21
-67.0
 31
0.0
  0
ARC
  8
DETAIL
  6
CONTINOUS
 62
     5
 10
65.700000000000045
 20
-64.200000000000045
 30
0.0
 40
2.2999999999999998
 50
90.0
 51
180.0
  0
LINE
  8
DETAIL
  6
CONTINOUS
 62
     5
 10
65.700000000000045
 20
-61.899999999999977
 30
0.0
 11
76.700000000000045
 21
-61.899999999999977
 31
0.0
  0
ARC
  8
DETAIL
  6
CONTINOUS
 62
     5
 10
76.700000000000045
 20
-67.0
 30
0.0
 40
2.2999999999999998
 50
270.0
 51
0.0
  0
LINE
  8
DETAIL
  6
CONTINOUS
 62
     5
 10
79.0
 20
-64.200000000000045
 30
0.0
 11
79.0
 21
-67.0
 31
0.0
  0
ARC
  8
DETAIL
  6
CONTINOUS
 62
     5
 10
76.700000000000045
 20
-64.200000000000045
 30
0.0
 40
2.2999999999999998
 50
0.0
 51
90.0
  0
ARC
  8
DETAIL
  6
CONTINOUS
 62
     5
 10
65.700000000000045
 20
-77.0
 30
0.0
 40
2.2999999999999998
 50
180.0
 51
270.0
  0
LINE
  8
DETAIL
  6
CONTINOUS
 62
     5
 10
65.700000000000045
 20
-79.299999999999955
 30
0.0
 11
76.700000000000045
 21
-79.299999999999955
 31
0.0
  0
LINE
  8
DETAIL
  6
CONTINOUS
 62
     5
 10
63.399999999999977
 20
-74.200000000000045
 30
0.0
 11
63.399999999999977
 21
-77.0
 31
0.0
  0
ARC
  8
DETAIL
  6
CONTINOUS
 62
     5
 10
65.700000000000045
 20
-74.200000000000045
 30
0.0
 40
2.2999999999999998
 50
90.0
 51
180.0
  0
LINE
  8
DETAIL
  6
CONTINOUS
 62
     5
 10
65.700000000000045
 20
-71.899999999999977
 30
0.0
 11
76.700000000000045
 21
-71.899999999999977
 31
0.0
  0
ARC
  8
DETAIL
  6
CONTINOUS
 62
     5
 10
76.700000000000045
 20
-77.0
 30
0.0
 40
2.2999999999999998
 50
270.0
 51
0.0
  0
LINE
  8
DETAIL
  6
CONTINOUS
 62
     5
 10
79.0
 20
-74.200000000000045
 30
0.0
 11
79.0
 21
-77.0
 31
0.0
  0
ARC
  8
DETAIL
  6
CONTINOUS
 62
     5
 10
76.700000000000045
 20
-74.200000000000045
 30
0.0
 40
2.2999999999999998
 50
0.0
 51
90.0
  0
LINE
  8
DETAIL
  6
CONTINOUS
 62
     5
 10
65.700000000000045
 20
-81.899999999999977
 30
0.0
 11
76.700000000000045
 21
-81.899999999999977
 31
0.0
  0
LINE
  8
DETAIL
  6
CONTINOUS
 62
     5
 10
60.200000000000053
 20
-74.200000000000045
 30
0.0
 11
60.200000000000053
 21
-77.0
 31
0.0
  0
LINE
  8
DETAIL
  6
CONTINOUS
 62
     5
 10
60.200000000000053
 20
-64.200000000000045
 30
0.0
 11
60.200000000000053
 21
-67.0
 31
0.0
  0
LINE
  8
DETAIL
  6
CONTINOUS
 62
     5
 10
60.200000000000053
 20
-54.200000000000053
 30
0.0
 11
60.200000000000053
 21
-57.0
 31
0.0
  0
LINE
  8
DETAIL
  6
CONTINOUS
 62
     5
 10
60.200000000000053
 20
-44.200000000000053
 30
0.0
 11
60.200000000000053
 21
-47.0
 31
0.0
  0
LINE
  8
DETAIL
  6
CONTINOUS
 62
     5
 10
60.200000000000053
 20
-34.200000000000053
 30
0.0
 11
60.200000000000053
 21
-37.0
 31
0.0
  0
LINE
  8
DETAIL
  6
CONTINOUS
 62
     5
 10
60.200000000000053
 20
-24.200000000000049
 30
0.0
 11
60.200000000000053
 21
-27.0
 31
0.0
  0
LINE
  8
DETAIL
  6
CONTINOUS
 62
     5
 10
60.200000000000053
 20
-14.200000000000051
 30
0.0
 11
60.200000000000053
 21
-17.0
 31
0.0
  0
LINE
  8
DETAIL
  6
CONTINOUS
 62
     5
 10
60.200000000000053
 20
-4.2000000000000446
 30
0.0
 11
60.200000000000053
 21
-7.0
 31
0.0
  0
ARC
  8
DETAIL
  6
CONTINOUS
 62
     5
 10
106.90000000000001
 20
-4.2000000000000446
 30
0.0
 40
2.2999999999999998
 50
90.0
 51
180.0
  0
LINE
  8
DETAIL
  6
CONTINOUS
 62
     5
 10
104.59999999999999
 20
-4.2000000000000446
 30
0.0
 11
104.59999999999999
 21
-7.0
 31
0.0
  0
ARC
  8
DETAIL
  6
CONTINOUS
 62
     5
 10
106.90000000000001
 20
-7.0
 30
0.0
 40
2.2999999999999998
 50
180.0
 51
270.0
  0
ARC
  8
DETAIL
  6
CONTINOUS
 62
     5
 10
106.90000000000001
 20
-17.0
 30
0.0
 40
2.2999999999999998
 50
180.0
 51
270.0
  0
LINE
  8
DETAIL
  6
CONTINOUS
 62
     5
 10
104.59999999999999
 20
-14.200000000000051
 30
0.0
 11
104.59999999999999
 21
-17.0
 31
0.0
  0
ARC
  8
DETAIL
  6
CONTINOUS
 62
     5
 10
106.90000000000001
 20
-14.200000000000051
 30
0.0
 40
2.2999999999999998
 50
90.0
 51
180.0
  0
ARC
  8
DETAIL
  6
CONTINOUS
 62
     5
 10
106.90000000000001
 20
-27.0
 30
0.0
 40
2.2999999999999998
 50
180.0
 51
270.0
  0
LINE
  8
DETAIL
  6
CONTINOUS
 62
     5
 10
104.59999999999999
 20
-24.200000000000049
 30
0.0
 11
104.59999999999999
 21
-27.0
 31
0.0
  0
ARC
  8
DETAIL
  6
CONTINOUS
 62
     5
 10
106.90000000000001
 20
-24.200000000000049
 30
0.0
 40
2.2999999999999998
 50
90.0
 51
180.0
  0
ARC
  8
DETAIL
  6
CONTINOUS
 62
     5
 10
106.90000000000001
 20
-37.0
 30
0.0
 40
2.2999999999999998
 50
180.0
 51
270.0
  0
LINE
  8
DETAIL
  6
CONTINOUS
 62
     5
 10
104.59999999999999
 20
-34.200000000000053
 30
0.0
 11
104.59999999999999
 21
-37.0
 31
0.0
  0
ARC
  8
DETAIL
  6
CONTINOUS
 62
     5
 10
106.90000000000001
 20
-34.200000000000053
 30
0.0
 40
2.2999999999999998
 50
90.0
 51
180.0
  0
ARC
  8
DETAIL
  6
CONTINOUS
 62
     5
 10
106.90000000000001
 20
-47.0
 30
0.0
 40
2.2999999999999998
 50
180.0
 51
270.0
  0
LINE
  8
DETAIL
  6
CONTINOUS
 62
     5
 10
104.59999999999999
 20
-44.200000000000053
 30
0.0
 11
104.59999999999999
 21
-47.0
 31
0.0
  0
ARC
  8
DETAIL
  6
CONTINOUS
 62
     5
 10
106.90000000000001
 20
-44.200000000000053
 30
0.0
 40
2.2999999999999998
 50
90.0
 51
180.0
  0
ARC
  8
DETAIL
  6
CONTINOUS
 62
     5
 10
106.90000000000001
 20
-57.0
 30
0.0
 40
2.2999999999999998
 50
180.0
 51
270.0
  0
LINE
  8
DETAIL
  6
CONTINOUS
 62
     5
 10
104.59999999999999
 20
-54.200000000000053
 30
0.0
 11
104.59999999999999
 21
-57.0
 31
0.0
  0
ARC
  8
DETAIL
  6
CONTINOUS
 62
     5
 10
106.90000000000001
 20
-54.200000000000053
 30
0.0
 40
2.2999999999999998
 50
90.0
 51
180.0
  0
ARC
  8
DETAIL
  6
CONTINOUS
 62
     5
 10
106.90000000000001
 20
-67.0
 30
0.0
 40
2.2999999999999998
 50
180.0
 51
270.0
  0
LINE
  8
DETAIL
  6
CONTINOUS
 62
     5
 10
104.59999999999999
 20
-64.200000000000045
 30
0.0
 11
104.59999999999999
 21
-67.0
 31
0.0
  0
ARC
  8
DETAIL
  6
CONTINOUS
 62
     5
 10
106.90000000000001
 20
-64.200000000000045
 30
0.0
 40
2.2999999999999998
 50
90.0
 51
180.0
  0
ARC
  8
DETAIL
  6
CONTINOUS
 62
     5
 10
106.90000000000001
 20
-77.0
 30
0.0
 40
2.2999999999999998
 50
180.0
 51
270.0
  0
LINE
  8
DETAIL
  6
CONTINOUS
 62
     5
 10
104.59999999999999
 20
-74.200000000000045
 30
0.0
 11
104.59999999999999
 21
-77.0
 31
0.0
  0
ARC
  8
DETAIL
  6
CONTINOUS
 62
     5
 10
106.90000000000001
 20
-74.200000000000045
 30
0.0
 40
2.2999999999999998
 50
90.0
 51
180.0
  0
LINE
  8
DETAIL
  6
CONTINOUS
 62
     5
 10
88.100000000000023
 20
-81.899999999999977
 30
0.0
 11
99.100000000000023
 21
-81.899999999999977
 31
0.0
  0
ARC
  8
DETAIL
  6
CONTINOUS
 62
     5
 10
99.100000000000023
 20
-74.200000000000045
 30
0.0
 40
2.2999999999999998
 50
0.0
 51
90.0
  0
LINE
  8
DETAIL
  6
CONTINOUS
 62
     5
 10
101.40000000000001
 20
-74.200000000000045
 30
0.0
 11
101.40000000000001
 21
-77.0
 31
0.0
  0
ARC
  8
DETAIL
  6
CONTINOUS
 62
     5
 10
99.100000000000023
 20
-77.0
 30
0.0
 40
2.2999999999999998
 50
270.0
 51
0.0
  0
LINE
  8
DETAIL
  6
CONTINOUS
 62
     5
 10
88.100000000000023
 20
-71.899999999999977
 30
0.0
 11
99.100000000000023
 21
-71.899999999999977
 31
0.0
  0
ARC
  8
DETAIL
  6
CONTINOUS
 62
     5
 10
88.100000000000023
 20
-74.200000000000045
 30
0.0
 40
2.2999999999999998
 50
90.0
 51
180.0
  0
LINE
  8
DETAIL
  6
CONTINOUS
 62
     5
 10
85.799999999999955
 20
-74.200000000000045
 30
0.0
 11
85.799999999999955
 21
-77.0
 31
0.0
  0
LINE
  8
DETAIL
  6
CONTINOUS
 62
     5
 10
88.100000000000023
 20
-79.299999999999955
 30
0.0
 11
99.100000000000023
 21
-79.299999999999955
 31
0.0
  0
ARC
  8
DETAIL
  6
CONTINOUS
 62
     5
 10
88.100000000000023
 20
-77.0
 30
0.0
 40
2.2999999999999998
 50
180.0
 51
270.0
  0
ARC
  8
DETAIL
  6
CONTINOUS
 62
     5
 10
99.100000000000023
 20
-64.200000000000045
 30
0.0
 40
2.2999999999999998
 50
0.0
 51
90.0
  0
LINE
  8
DETAIL
  6
CONTINOUS
 62
     5
 10
101.40000000000001
 20
-64.200000000000045
 30
0.0
 11
101.40000000000001
 21
-67.0
 31
0.0
  0
ARC
  8
DETAIL
  6
CONTINOUS
 62
     5
 10
99.100000000000023
 20
-67.0
 30
0.0
 40
2.2999999999999998
 50
270.0
 51
0.0
  0
LINE
  8
DETAIL
  6
CONTINOUS
 62
     5
 10
88.100000000000023
 20
-61.899999999999977
 30
0.0
 11
99.100000000000023
 21
-61.899999999999977
 31
0.0
  0
ARC
  8
DETAIL
  6
CONTINOUS
 62
     5
 10
88.100000000000023
 20
-64.200000000000045
 30
0.0
 40
2.2999999999999998
 50
90.0
 51
180.0
  0
LINE
  8
DETAIL
  6
CONTINOUS
 62
     5
 10
85.799999999999955
 20
-64.200000000000045
 30
0.0
 11
85.799999999999955
 21
-67.0
 31
0.0
  0
LINE
  8
DETAIL
  6
CONTINOUS
 62
     5
 10
88.100000000000023
 20
-69.299999999999955
 30
0.0
 11
99.100000000000023
 21
-69.299999999999955
 31
0.0
  0
ARC
  8
DETAIL
  6
CONTINOUS
 62
     5
 10
88.100000000000023
 20
-67.0
 30
0.0
 40
2.2999999999999998
 50
180.0
 51
270.0
  0
ARC
  8
DETAIL
  6
CONTINOUS
 62
     5
 10
99.100000000000023
 20
-54.200000000000053
 30
0.0
 40
2.2999999999999998
 50
0.0
 51
90.0
  0
LINE
  8
DETAIL
  6
CONTINOUS
 62
     5
 10
101.40000000000001
 20
-54.200000000000053
 30
0.0
 11
101.40000000000001
 21
-57.0
 31
0.0
  0
ARC
  8
DETAIL
  6
CONTINOUS
 62
     5
 10
99.100000000000023
 20
-57.0
 30
0.0
 40
2.2999999999999998
 50
270.0
 51
0.0
  0
LINE
  8
DETAIL
  6
CONTINOUS
 62
     5
 10
88.100000000000023
 20
-51.899999999999977
 30
0.0
 11
99.100000000000023
 21
-51.899999999999977
 31
0.0
  0
ARC
  8
DETAIL
  6
CONTINOUS
 62
     5
 10
88.100000000000023
 20
-54.200000000000053
 30
0.0
 40
2.2999999999999998
 50
90.0
 51
180.0
  0
LINE
  8
DETAIL
  6
CONTINOUS
 62
     5
 10
85.799999999999955
 20
-54.200000000000053
 30
0.0
 11
85.799999999999955
 21
-57.0
 31
0.0
  0
LINE
  8
DETAIL
  6
CONTINOUS
 62
     5
 10
88.100000000000023
 20
-59.299999999999947
 30
0.0
 11
99.100000000000023
 21
-59.299999999999947
 31
0.0
  0
ARC
  8
DETAIL
  6
CONTINOUS
 62
     5
 10
88.100000000000023
 20
-57.0
 30
0.0
 40
2.2999999999999998
 50
180.0
 51
270.0
  0
ARC
  8
DETAIL
  6
CONTINOUS
 62
     5
 10
99.100000000000023
 20
-44.200000000000053
 30
0.0
 40
2.2999999999999998
 50
0.0
 51
90.0
  0
LINE
  8
DETAIL
  6
CONTINOUS
 62
     5
 10
101.40000000000001
 20
-44.200000000000053
 30
0.0
 11
101.40000000000001
 21
-47.0
 31
0.0
  0
ARC
  8
DETAIL
  6
CONTINOUS
 62
     5
 10
99.100000000000023
 20
-47.0
 30
0.0
 40
2.2999999999999998
 50
270.0
 51
0.0
  0
LINE
  8
DETAIL
  6
CONTINOUS
 62
     5
 10
88.100000000000023
 20
-41.899999999999977
 30
0.0
 11
99.100000000000023
 21
-41.899999999999977
 31
0.0
  0
ARC
  8
DETAIL
  6
CONTINOUS
 62
     5
 10
88.100000000000023
 20
-44.200000000000053
 30
0.0
 40
2.2999999999999998
 50
90.0
 51
180.0
  0
LINE
  8
DETAIL
  6
CONTINOUS
 62
     5
 10
85.799999999999955
 20
-44.200000000000053
 30
0.0
 11
85.799999999999955
 21
-47.0
 31
0.0
  0
LINE
  8
DETAIL
  6
CONTINOUS
 62
     5
 10
88.100000000000023
 20
-49.299999999999947
 30
0.0
 11
99.100000000000023
 21
-49.299999999999947
 31
0.0
  0
ARC
  8
DETAIL
  6
CONTINOUS
 62
     5
 10
88.100000000000023
 20
-47.0
 30
0.0
 40
2.2999999999999998
 50
180.0
 51
270.0
  0
ARC
  8
DETAIL
  6
CONTINOUS
 62
     5
 10
99.100000000000023
 20
-34.200000000000053
 30
0.0
 40
2.2999999999999998
 50
0.0
 51
90.0
  0
LINE
  8
DETAIL
  6
CONTINOUS
 62
     5
 10
101.40000000000001
 20
-34.200000000000053
 30
0.0
 11
101.40000000000001
 21
-37.0
 31
0.0
  0
ARC
  8
DETAIL
  6
CONTINOUS
 62
     5
 10
99.100000000000023
 20
-37.0
 30
0.0
 40
2.2999999999999998
 50
270.0
 51
0.0
  0
LINE
  8
DETAIL
  6
CONTINOUS
 62
     5
 10
88.100000000000023
 20
-31.899999999999981
 30
0.0
 11
99.100000000000023
 21
-31.899999999999981
 31
0.0
  0
ARC
  8
DETAIL
  6
CONTINOUS
 62
     5
 10
88.100000000000023
 20
-34.200000000000053
 30
0.0
 40
2.2999999999999998
 50
90.0
 51
180.0
  0
LINE
  8
DETAIL
  6
CONTINOUS
 62
     5
 10
85.799999999999955
 20
-34.200000000000053
 30
0.0
 11
85.799999999999955
 21
-37.0
 31
0.0
  0
LINE
  8
DETAIL
  6
CONTINOUS
 62
     5
 10
88.100000000000023
 20
-39.299999999999947
 30
0.0
 11
99.100000000000023
 21
-39.299999999999947
 31
0.0
  0
ARC
  8
DETAIL
  6
CONTINOUS
 62
     5
 10
88.100000000000023
 20
-37.0
 30
0.0
 40
2.2999999999999998
 50
180.0
 51
270.0
  0
ARC
  8
DETAIL
  6
CONTINOUS
 62
     5
 10
99.100000000000023
 20
-24.200000000000049
 30
0.0
 40
2.2999999999999998
 50
0.0
 51
90.0
  0
LINE
  8
DETAIL
  6
CONTINOUS
 62
     5
 10
101.40000000000001
 20
-24.200000000000049
 30
0.0
 11
101.40000000000001
 21
-27.0
 31
0.0
  0
ARC
  8
DETAIL
  6
CONTINOUS
 62
     5
 10
99.100000000000023
 20
-27.0
 30
0.0
 40
2.2999999999999998
 50
270.0
 51
0.0
  0
LINE
  8
DETAIL
  6
CONTINOUS
 62
     5
 10
88.100000000000023
 20
-21.899999999999981
 30
0.0
 11
99.100000000000023
 21
-21.899999999999981
 31
0.0
  0
ARC
  8
DETAIL
  6
CONTINOUS
 62
     5
 10
88.100000000000023
 20
-24.200000000000049
 30
0.0
 40
2.2999999999999998
 50
90.0
 51
180.0
  0
LINE
  8
DETAIL
  6
CONTINOUS
 62
     5
 10
85.799999999999955
 20
-24.200000000000049
 30
0.0
 11
85.799999999999955
 21
-27.0
 31
0.0
  0
LINE
  8
DETAIL
  6
CONTINOUS
 62
     5
 10
88.100000000000023
 20
-29.299999999999951
 30
0.0
 11
99.100000000000023
 21
-29.299999999999951
 31
0.0
  0
ARC
  8
DETAIL
  6
CONTINOUS
 62
     5
 10
88.100000000000023
 20
-27.0
 30
0.0
 40
2.2999999999999998
 50
180.0
 51
270.0
  0
ARC
  8
DETAIL
  6
CONTINOUS
 62
     5
 10
99.100000000000023
 20
-14.200000000000051
 30
0.0
 40
2.2999999999999998
 50
0.0
 51
90.0
  0
LINE
  8
DETAIL
  6
CONTINOUS
 62
     5
 10
101.40000000000001
 20
-14.200000000000051
 30
0.0
 11
101.40000000000001
 21
-17.0
 31
0.0
  0
ARC
  8
DETAIL
  6
CONTINOUS
 62
     5
 10
99.100000000000023
 20
-17.0
 30
0.0
 40
2.2999999999999998
 50
270.0
 51
0.0
  0
LINE
  8
DETAIL
  6
CONTINOUS
 62
     5
 10
88.100000000000023
 20
-11.899999999999981
 30
0.0
 11
99.100000000000023
 21
-11.899999999999981
 31
0.0
  0
ARC
  8
DETAIL
  6
CONTINOUS
 62
     5
 10
88.100000000000023
 20
-14.200000000000051
 30
0.0
 40
2.2999999999999998
 50
90.0
 51
180.0
  0
LINE
  8
DETAIL
  6
CONTINOUS
 62
     5
 10
85.799999999999955
 20
-14.200000000000051
 30
0.0
 11
85.799999999999955
 21
-17.0
 31
0.0
  0
LINE
  8
DETAIL
  6
CONTINOUS
 62
     5
 10
88.100000000000023
 20
-19.299999999999951
 30
0.0
 11
99.100000000000023
 21
-19.299999999999951
 31
0.0
  0
ARC
  8
DETAIL
  6
CONTINOUS
 62
     5
 10
88.100000000000023
 20
-17.0
 30
0.0
 40
2.2999999999999998
 50
180.0
 51
270.0
  0
ARC
  8
DETAIL
  6
CONTINOUS
 62
     5
 10
88.100000000000023
 20
-7.0
 30
0.0
 40
2.2999999999999998
 50
180.0
 51
270.0
  0
LINE
  8
DETAIL
  6
CONTINOUS
 62
     5
 10
88.100000000000023
 20
-9.2999999999999545
 30
0.0
 11
99.100000000000023
 21
-9.2999999999999545
 31
0.0
  0
LINE
  8
DETAIL
  6
CONTINOUS
 62
     5
 10
85.799999999999955
 20
-4.2000000000000446
 30
0.0
 11
85.799999999999955
 21
-7.0
 31
0.0
  0
ARC
  8
DETAIL
  6
CONTINOUS
 62
     5
 10
88.100000000000023
 20
-4.2000000000000446
 30
0.0
 40
2.2999999999999998
 50
90.0
 51
180.0
  0
LINE
  8
DETAIL
  6
CONTINOUS
 62
     5
 10
88.100000000000023
 20
-1.899999999999977
 30
0.0
 11
99.100000000000023
 21
-1.899999999999977
 31
0.0
  0
ARC
  8
DETAIL
  6
CONTINOUS
 62
     5
 10
99.100000000000023
 20
-7.0
 30
0.0
 40
2.2999999999999998
 50
270.0
 51
0.0
  0
LINE
  8
DETAIL
  6
CONTINOUS
 62
     5
 10
101.40000000000001
 20
-4.2000000000000446
 30
0.0
 11
101.40000000000001
 21
-7.0
 31
0.0
  0
ARC
  8
DETAIL
  6
CONTINOUS
 62
     5
 10
99.100000000000023
 20
-4.2000000000000446
 30
0.0
 40
2.2999999999999998
 50
0.0
 51
90.0
  0
ARC
  8
DETAIL
  6
CONTINOUS
 62
     5
 10
117.90000000000001
 20
-84.200000000000045
 30
0.0
 40
2.2999999999999998
 50
0.0
 51
90.0
  0
ARC
  8
DETAIL
  6
CONTINOUS
 62
     5
 10
117.90000000000001
 20
-87.0
 30
0.0
 40
2.2999999999999998
 50
270.0
 51
0.0
  0
LINE
  8
DETAIL
  6
CONTINOUS
 62
     5
 10
120.2
 20
-84.200000000000045
 30
0.0
 11
120.2
 21
-87.0
 31
0.0
  0
ARC
  8
DETAIL
  6
CONTINOUS
 62
     5
 10
117.90000000000001
 20
-97.0
 30
0.0
 40
2.2999999999999998
 50
270.0
 51
0.0
  0
LINE
  8
DETAIL
  6
CONTINOUS
 62
     5
 10
120.2
 20
-94.200000000000045
 30
0.0
 11
120.2
 21
-97.0
 31
0.0
  0
ARC
  8
DETAIL
  6
CONTINOUS
 62
     5
 10
117.90000000000001
 20
-94.200000000000045
 30
0.0
 40
2.2999999999999998
 50
0.0
 51
90.0
  0
ARC
  8
DETAIL
  6
CONTINOUS
 62
     5
 10
117.90000000000001
 20
-107.0
 30
0.0
 40
2.2999999999999998
 50
270.0
 51
0.0
  0
LINE
  8
DETAIL
  6
CONTINOUS
 62
     5
 10
120.2
 20
-104.2
 30
0.0
 11
120.2
 21
-107.0
 31
0.0
  0
ARC
  8
DETAIL
  6
CONTINOUS
 62
     5
 10
117.90000000000001
 20
-104.2
 30
0.0
 40
2.2999999999999998
 50
0.0
 51
90.0
  0
ARC
  8
DETAIL
  6
CONTINOUS
 62
     5
 10
117.90000000000001
 20
-117.0
 30
0.0
 40
2.2999999999999998
 50
270.0
 51
0.0
  0
LINE
  8
DETAIL
  6
CONTINOUS
 62
     5
 10
120.2
 20
-114.2
 30
0.0
 11
120.2
 21
-117.0
 31
0.0
  0
ARC
  8
DETAIL
  6
CONTINOUS
 62
     5
 10
117.90000000000001
 20
-114.2
 30
0.0
 40
2.2999999999999998
 50
0.0
 51
90.0
  0
ARC
  8
DETAIL
  6
CONTINOUS
 62
     5
 10
117.90000000000001
 20
-4.2000000000000446
 30
0.0
 40
2.2999999999999998
 50
0.0
 51
90.0
  0
LINE
  8
DETAIL
  6
CONTINOUS
 62
     5
 10
120.2
 20
-4.2000000000000446
 30
0.0
 11
120.2
 21
-7.0
 31
0.0
  0
ARC
  8
DETAIL
  6
CONTINOUS
 62
     5
 10
117.90000000000001
 20
-7.0
 30
0.0
 40
2.2999999999999998
 50
270.0
 51
0.0
  0
ARC
  8
DETAIL
  6
CONTINOUS
 62
     5
 10
117.90000000000001
 20
-17.0
 30
0.0
 40
2.2999999999999998
 50
270.0
 51
0.0
  0
LINE
  8
DETAIL
  6
CONTINOUS
 62
     5
 10
120.2
 20
-14.200000000000051
 30
0.0
 11
120.2
 21
-17.0
 31
0.0
  0
ARC
  8
DETAIL
  6
CONTINOUS
 62
     5
 10
117.90000000000001
 20
-14.200000000000051
 30
0.0
 40
2.2999999999999998
 50
0.0
 51
90.0
  0
ARC
  8
DETAIL
  6
CONTINOUS
 62
     5
 10
117.90000000000001
 20
-27.0
 30
0.0
 40
2.2999999999999998
 50
270.0
 51
0.0
  0
LINE
  8
DETAIL
  6
CONTINOUS
 62
     5
 10
120.2
 20
-24.200000000000049
 30
0.0
 11
120.2
 21
-27.0
 31
0.0
  0
ARC
  8
DETAIL
  6
CONTINOUS
 62
     5
 10
117.90000000000001
 20
-24.200000000000049
 30
0.0
 40
2.2999999999999998
 50
0.0
 51
90.0
  0
ARC
  8
DETAIL
  6
CONTINOUS
 62
     5
 10
117.90000000000001
 20
-37.0
 30
0.0
 40
2.2999999999999998
 50
270.0
 51
0.0
  0
LINE
  8
DETAIL
  6
CONTINOUS
 62
     5
 10
120.2
 20
-34.200000000000053
 30
0.0
 11
120.2
 21
-37.0
 31
0.0
  0
ARC
  8
DETAIL
  6
CONTINOUS
 62
     5
 10
117.90000000000001
 20
-34.200000000000053
 30
0.0
 40
2.2999999999999998
 50
0.0
 51
90.0
  0
ARC
  8
DETAIL
  6
CONTINOUS
 62
     5
 10
117.90000000000001
 20
-47.0
 30
0.0
 40
2.2999999999999998
 50
270.0
 51
0.0
  0
LINE
  8
DETAIL
  6
CONTINOUS
 62
     5
 10
120.2
 20
-44.200000000000053
 30
0.0
 11
120.2
 21
-47.0
 31
0.0
  0
ARC
  8
DETAIL
  6
CONTINOUS
 62
     5
 10
117.90000000000001
 20
-44.200000000000053
 30
0.0
 40
2.2999999999999998
 50
0.0
 51
90.0
  0
ARC
  8
DETAIL
  6
CONTINOUS
 62
     5
 10
117.90000000000001
 20
-57.0
 30
0.0
 40
2.2999999999999998
 50
270.0
 51
0.0
  0
LINE
  8
DETAIL
  6
CONTINOUS
 62
     5
 10
120.2
 20
-54.200000000000053
 30
0.0
 11
120.2
 21
-57.0
 31
0.0
  0
ARC
  8
DETAIL
  6
CONTINOUS
 62
     5
 10
117.90000000000001
 20
-54.200000000000053
 30
0.0
 40
2.2999999999999998
 50
0.0
 51
90.0
  0
ARC
  8
DETAIL
  6
CONTINOUS
 62
     5
 10
117.90000000000001
 20
-67.0
 30
0.0
 40
2.2999999999999998
 50
270.0
 51
0.0
  0
LINE
  8
DETAIL
  6
CONTINOUS
 62
     5
 10
120.2
 20
-64.200000000000045
 30
0.0
 11
120.2
 21
-67.0
 31
0.0
  0
ARC
  8
DETAIL
  6
CONTINOUS
 62
     5
 10
117.90000000000001
 20
-64.200000000000045
 30
0.0
 40
2.2999999999999998
 50
0.0
 51
90.0
  0
ARC
  8
DETAIL
  6
CONTINOUS
 62
     5
 10
117.90000000000001
 20
-77.0
 30
0.0
 40
2.2999999999999998
 50
270.0
 51
0.0
  0
LINE
  8
DETAIL
  6
CONTINOUS
 62
     5
 10
120.2
 20
-74.200000000000045
 30
0.0
 11
120.2
 21
-77.0
 31
0.0
  0
ARC
  8
DETAIL
  6
CONTINOUS
 62
     5
 10
117.90000000000001
 20
-74.200000000000045
 30
0.0
 40
2.2999999999999998
 50
0.0
 51
90.0
  0
ARC
  8
OUTLINE
  6
CONTINUOUS
 62
     3
 10
149.0
 20
149.0
 30
0.0
 40
18.0
 50
0.0
 51
90.0
  0
ARC
  8
DETAIL
  6
CONTINUOUS
 62
     5
 10
149.0
 20
149.0
 30
0.0
 40
18.0
 50
0.0
 51
90.0
  0
ARC
  8
DETAIL
  6
CONTINUOUS
 62
     5
 10
151.0
 20
151.0
 30
0.0
 40
12.0
 50
0.0
 51
90.0
  0
LINE
  8
DETAIL
  6
CONTINOUS
 62
     5
 10
106.90000000000001
 20
111.90000000000001
 30
0.0
 11
117.90000000000001
 21
111.90000000000001
 31
0.0
  0
LINE
  8
DETAIL
  6
CONTINOUS
 62
     5
 10
106.90000000000001
 20
119.3
 30
0.0
 11
117.90000000000001
 21
119.3
 31
0.0
  0
LINE
  8
DETAIL
  6
CONTINOUS
 62
     5
 10
106.90000000000001
 20
101.90000000000001
 30
0.0
 11
117.90000000000001
 21
101.90000000000001
 31
0.0
  0
LINE
  8
DETAIL
  6
CONTINOUS
 62
     5
 10
106.90000000000001
 20
109.3
 30
0.0
 11
117.90000000000001
 21
109.3
 31
0.0
  0
LINE
  8
DETAIL
  6
CONTINOUS
 62
     5
 10
106.90000000000001
 20
91.899999999999977
 30
0.0
 11
117.90000000000001
 21
91.899999999999977
 31
0.0
  0
LINE
  8
DETAIL
  6
CONTINOUS
 62
     5
 10
106.90000000000001
 20
99.299999999999955
 30
0.0
 11
117.90000000000001
 21
99.299999999999955
 31
0.0
  0
LINE
  8
DETAIL
  6
CONTINOUS
 62
     5
 10
106.90000000000001
 20
81.899999999999977
 30
0.0
 11
117.90000000000001
 21
81.899999999999977
 31
0.0
  0
LINE
  8
DETAIL
  6
CONTINOUS
 62
     5
 10
106.90000000000001
 20
89.299999999999955
 30
0.0
 11
117.90000000000001
 21
89.299999999999955
 31
0.0
  0
LINE
  8
DETAIL
  6
CONTINOUS
 62
     5
 10
106.90000000000001
 20
71.899999999999977
 30
0.0
 11
117.90000000000001
 21
71.899999999999977
 31
0.0
  0
LINE
  8
DETAIL
  6
CONTINOUS
 62
     5
 10
106.90000000000001
 20
79.299999999999955
 30
0.0
 11
117.90000000000001
 21
79.299999999999955
 31
0.0
  0
LINE
  8
DETAIL
  6
CONTINOUS
 62
     5
 10
106.90000000000001
 20
61.899999999999977
 30
0.0
 11
117.90000000000001
 21
61.899999999999977
 31
0.0
  0
LINE
  8
DETAIL
  6
CONTINOUS
 62
     5
 10
106.90000000000001
 20
69.299999999999955
 30
0.0
 11
117.90000000000001
 21
69.299999999999955
 31
0.0
  0
LINE
  8
DETAIL
  6
CONTINOUS
 62
     5
 10
106.90000000000001
 20
51.899999999999977
 30
0.0
 11
117.90000000000001
 21
51.899999999999977
 31
0.0
  0
LINE
  8
DETAIL
  6
CONTINOUS
 62
     5
 10
106.90000000000001
 20
59.299999999999947
 30
0.0
 11
117.90000000000001
 21
59.299999999999947
 31
0.0
  0
LINE
  8
DETAIL
  6
CONTINOUS
 62
     5
 10
106.90000000000001
 20
41.899999999999977
 30
0.0
 11
117.90000000000001
 21
41.899999999999977
 31
0.0
  0
LINE
  8
DETAIL
  6
CONTINOUS
 62
     5
 10
106.90000000000001
 20
49.299999999999947
 30
0.0
 11
117.90000000000001
 21
49.299999999999947
 31
0.0
  0
LINE
  8
DETAIL
  6
CONTINOUS
 62
     5
 10
106.90000000000001
 20
31.899999999999981
 30
0.0
 11
117.90000000000001
 21
31.899999999999981
 31
0.0
  0
LINE
  8
DETAIL
  6
CONTINOUS
 62
     5
 10
106.90000000000001
 20
39.299999999999947
 30
0.0
 11
117.90000000000001
 21
39.299999999999947
 31
0.0
  0
LINE
  8
DETAIL
  6
CONTINOUS
 62
     5
 10
106.90000000000001
 20
21.899999999999981
 30
0.0
 11
117.90000000000001
 21
21.899999999999981
 31
0.0
  0
LINE
  8
DETAIL
  6
CONTINOUS
 62
     5
 10
106.90000000000001
 20
29.299999999999951
 30
0.0
 11
117.90000000000001
 21
29.299999999999951
 31
0.0
  0
LINE
  8
DETAIL
  6
CONTINOUS
 62
     5
 10
106.90000000000001
 20
11.899999999999981
 30
0.0
 11
117.90000000000001
 21
11.899999999999981
 31
0.0
  0
LINE
  8
DETAIL
  6
CONTINOUS
 62
     5
 10
106.90000000000001
 20
19.299999999999951
 30
0.0
 11
117.90000000000001
 21
19.299999999999951
 31
0.0
  0
LINE
  8
DETAIL
  6
CONTINOUS
 62
     5
 10
106.90000000000001
 20
9.2999999999999545
 30
0.0
 11
117.90000000000001
 21
9.2999999999999545
 31
0.0
  0
LINE
  8
DETAIL
  6
CONTINOUS
 62
     5
 10
106.90000000000001
 20
1.899999999999977
 30
0.0
 11
117.90000000000001
 21
1.899999999999977
 31
0.0
  0
ARC
  8
DETAIL
  6
CONTINOUS
 62
     5
 10
88.100000000000023
 20
84.200000000000045
 30
0.0
 40
2.2999999999999998
 50
180.0
 51
270.0
  0
ARC
  8
DETAIL
  6
CONTINOUS
 62
     5
 10
99.100000000000023
 20
84.200000000000045
 30
0.0
 40
2.2999999999999998
 50
270.0
 51
0.0
  0
ARC
  8
DETAIL
  6
CONTINOUS
 62
     5
 10
106.90000000000001
 20
84.200000000000045
 30
0.0
 40
2.2999999999999998
 50
180.0
 51
270.0
  0
ARC
  8
DETAIL
  6
CONTINOUS
 62
     5
 10
46.899999999999977
 20
84.200000000000045
 30
0.0
 40
2.2999999999999998
 50
180.0
 51
270.0
  0
ARC
  8
DETAIL
  6
CONTINOUS
 62
     5
 10
57.899999999999977
 20
84.200000000000045
 30
0.0
 40
2.2999999999999998
 50
270.0
 51
0.0
  0
ARC
  8
DETAIL
  6
CONTINOUS
 62
     5
 10
76.700000000000045
 20
84.200000000000045
 30
0.0
 40
2.2999999999999998
 50
270.0
 51
0.0
  0
ARC
  8
DETAIL
  6
CONTINOUS
 62
     5
 10
65.700000000000045
 20
84.200000000000045
 30
0.0
 40
2.2999999999999998
 50
180.0
 51
270.0
  0
ARC
  8
DETAIL
  6
CONTINOUS
 62
     5
 10
24.5
 20
84.200000000000045
 30
0.0
 40
2.2999999999999998
 50
180.0
 51
270.0
  0
ARC
  8
DETAIL
  6
CONTINOUS
 62
     5
 10
35.5
 20
84.200000000000045
 30
0.0
 40
2.2999999999999998
 50
270.0
 51
0.0
  0
ARC
  8
DETAIL
  6
CONTINOUS
 62
     5
 10
16.700000000000049
 20
84.200000000000045
 30
0.0
 40
2.2999999999999998
 50
270.0
 51
0.0
  0
ARC
  8
DETAIL
  6
CONTINOUS
 62
     5
 10
5.7000000000000446
 20
84.200000000000045
 30
0.0
 40
2.2999999999999998
 50
180.0
 51
270.0
  0
ARC
  8
DETAIL
  6
CONTINOUS
 62
     5
 10
57.899999999999977
 20
4.2000000000000446
 30
0.0
 40
2.2999999999999998
 50
270.0
 51
0.0
  0
ARC
  8
DETAIL
  6
CONTINOUS
 62
     5
 10
57.899999999999977
 20
7.0
 30
0.0
 40
2.2999999999999998
 50
0.0
 51
90.0
  0
ARC
  8
DETAIL
  6
CONTINOUS
 62
     5
 10
57.899999999999977
 20
17.0
 30
0.0
 40
2.2999999999999998
 50
0.0
 51
90.0
  0
ARC
  8
DETAIL
  6
CONTINOUS
 62
     5
 10
57.899999999999977
 20
14.200000000000051
 30
0.0
 40
2.2999999999999998
 50
270.0
 51
0.0
  0
ARC
  8
DETAIL
  6
CONTINOUS
 62
     5
 10
57.899999999999977
 20
27.0
 30
0.0
 40
2.2999999999999998
 50
0.0
 51
90.0
  0
ARC
  8
DETAIL
  6
CONTINOUS
 62
     5
 10
57.899999999999977
 20
24.200000000000049
 30
0.0
 40
2.2999999999999998
 50
270.0
 51
0.0
  0
ARC
  8
DETAIL
  6
CONTINOUS
 62
     5
 10
57.899999999999977
 20
37.0
 30
0.0
 40
2.2999999999999998
 50
0.0
 51
90.0
  0
ARC
  8
DETAIL
  6
CONTINOUS
 62
     5
 10
57.899999999999977
 20
34.200000000000053
 30
0.0
 40
2.2999999999999998
 50
270.0
 51
0.0
  0
ARC
  8
DETAIL
  6
CONTINOUS
 62
     5
 10
57.899999999999977
 20
47.0
 30
0.0
 40
2.2999999999999998
 50
0.0
 51
90.0
  0
ARC
  8
DETAIL
  6
CONTINOUS
 62
     5
 10
57.899999999999977
 20
44.200000000000053
 30
0.0
 40
2.2999999999999998
 50
270.0
 51
0.0
  0
ARC
  8
DETAIL
  6
CONTINOUS
 62
     5
 10
57.899999999999977
 20
57.0
 30
0.0
 40
2.2999999999999998
 50
0.0
 51
90.0
  0
ARC
  8
DETAIL
  6
CONTINOUS
 62
     5
 10
57.899999999999977
 20
54.200000000000053
 30
0.0
 40
2.2999999999999998
 50
270.0
 51
0.0
  0
ARC
  8
DETAIL
  6
CONTINOUS
 62
     5
 10
57.899999999999977
 20
67.0
 30
0.0
 40
2.2999999999999998
 50
0.0
 51
90.0
  0
ARC
  8
DETAIL
  6
CONTINOUS
 62
     5
 10
57.899999999999977
 20
64.200000000000045
 30
0.0
 40
2.2999999999999998
 50
270.0
 51
0.0
  0
ARC
  8
DETAIL
  6
CONTINOUS
 62
     5
 10
57.899999999999977
 20
77.0
 30
0.0
 40
2.2999999999999998
 50
0.0
 51
90.0
  0
ARC
  8
DETAIL
  6
CONTINOUS
 62
     5
 10
57.899999999999977
 20
74.200000000000045
 30
0.0
 40
2.2999999999999998
 50
270.0
 51
0.0
  0
LINE
  8
DETAIL
  6
CONTINOUS
 62
     5
 10
46.899999999999977
 20
1.899999999999977
 30
0.0
 11
57.899999999999977
 21
1.899999999999977
 31
0.0
  0
ARC
  8
DETAIL
  6
CONTINOUS
 62
     5
 10
46.899999999999977
 20
4.2000000000000446
 30
0.0
 40
2.2999999999999998
 50
180.0
 51
270.0
  0
LINE
  8
DETAIL
  6
CONTINOUS
 62
     5
 10
44.600000000000023
 20
4.2000000000000446
 30
0.0
 11
44.600000000000023
 21
7.0
 31
0.0
  0
LINE
  8
DETAIL
  6
CONTINOUS
 62
     5
 10
46.899999999999977
 20
9.2999999999999545
 30
0.0
 11
57.899999999999977
 21
9.2999999999999545
 31
0.0
  0
ARC
  8
DETAIL
  6
CONTINOUS
 62
     5
 10
46.899999999999977
 20
7.0
 30
0.0
 40
2.2999999999999998
 50
90.0
 51
180.0
  0
ARC
  8
DETAIL
  6
CONTINOUS
 62
     5
 10
46.899999999999977
 20
17.0
 30
0.0
 40
2.2999999999999998
 50
90.0
 51
180.0
  0
LINE
  8
DETAIL
  6
CONTINOUS
 62
     5
 10
46.899999999999977
 20
19.299999999999951
 30
0.0
 11
57.899999999999977
 21
19.299999999999951
 31
0.0
  0
LINE
  8
DETAIL
  6
CONTINOUS
 62
     5
 10
44.600000000000023
 20
14.200000000000051
 30
0.0
 11
44.600000000000023
 21
17.0
 31
0.0
  0
ARC
  8
DETAIL
  6
CONTINOUS
 62
     5
 10
46.899999999999977
 20
14.200000000000051
 30
0.0
 40
2.2999999999999998
 50
180.0
 51
270.0
  0
LINE
  8
DETAIL
  6
CONTINOUS
 62
     5
 10
46.899999999999977
 20
11.899999999999981
 30
0.0
 11
57.899999999999977
 21
11.899999999999981
 31
0.0
  0
ARC
  8
DETAIL
  6
CONTINOUS
 62
     5
 10
46.899999999999977
 20
27.0
 30
0.0
 40
2.2999999999999998
 50
90.0
 51
180.0
  0
LINE
  8
DETAIL
  6
CONTINOUS
 62
     5
 10
46.899999999999977
 20
29.299999999999951
 30
0.0
 11
57.899999999999977
 21
29.299999999999951
 31
0.0
  0
LINE
  8
DETAIL
  6
CONTINOUS
 62
     5
 10
44.600000000000023
 20
24.200000000000049
 30
0.0
 11
44.600000000000023
 21
27.0
 31
0.0
  0
ARC
  8
DETAIL
  6
CONTINOUS
 62
     5
 10
46.899999999999977
 20
24.200000000000049
 30
0.0
 40
2.2999999999999998
 50
180.0
 51
270.0
  0
LINE
  8
DETAIL
  6
CONTINOUS
 62
     5
 10
46.899999999999977
 20
21.899999999999981
 30
0.0
 11
57.899999999999977
 21
21.899999999999981
 31
0.0
  0
ARC
  8
DETAIL
  6
CONTINOUS
 62
     5
 10
46.899999999999977
 20
37.0
 30
0.0
 40
2.2999999999999998
 50
90.0
 51
180.0
  0
LINE
  8
DETAIL
  6
CONTINOUS
 62
     5
 10
46.899999999999977
 20
39.299999999999947
 30
0.0
 11
57.899999999999977
 21
39.299999999999947
 31
0.0
  0
LINE
  8
DETAIL
  6
CONTINOUS
 62
     5
 10
44.600000000000023
 20
34.200000000000053
 30
0.0
 11
44.600000000000023
 21
37.0
 31
0.0
  0
ARC
  8
DETAIL
  6
CONTINOUS
 62
     5
 10
46.899999999999977
 20
34.200000000000053
 30
0.0
 40
2.2999999999999998
 50
180.0
 51
270.0
  0
LINE
  8
DETAIL
  6
CONTINOUS
 62
     5
 10
46.899999999999977
 20
31.899999999999981
 30
0.0
 11
57.899999999999977
 21
31.899999999999981
 31
0.0
  0
ARC
  8
DETAIL
  6
CONTINOUS
 62
     5
 10
46.899999999999977
 20
47.0
 30
0.0
 40
2.2999999999999998
 50
90.0
 51
180.0
  0
LINE
  8
DETAIL
  6
CONTINOUS
 62
     5
 10
46.899999999999977
 20
49.299999999999947
 30
0.0
 11
57.899999999999977
 21
49.299999999999947
 31
0.0
  0
LINE
  8
DETAIL
  6
CONTINOUS
 62
     5
 10
44.600000000000023
 20
44.200000000000053
 30
0.0
 11
44.600000000000023
 21
47.0
 31
0.0
  0
ARC
  8
DETAIL
  6
CONTINOUS
 62
     5
 10
46.899999999999977
 20
44.200000000000053
 30
0.0
 40
2.2999999999999998
 50
180.0
 51
270.0
  0
LINE
  8
DETAIL
  6
CONTINOUS
 62
     5
 10
46.899999999999977
 20
41.899999999999977
 30
0.0
 11
57.899999999999977
 21
41.899999999999977
 31
0.0
  0
ARC
  8
DETAIL
  6
CONTINOUS
 62
     5
 10
46.899999999999977
 20
57.0
 30
0.0
 40
2.2999999999999998
 50
90.0
 51
180.0
  0
LINE
  8
DETAIL
  6
CONTINOUS
 62
     5
 10
46.899999999999977
 20
59.299999999999947
 30
0.0
 11
57.899999999999977
 21
59.299999999999947
 31
0.0
  0
LINE
  8
DETAIL
  6
CONTINOUS
 62
     5
 10
44.600000000000023
 20
54.200000000000053
 30
0.0
 11
44.600000000000023
 21
57.0
 31
0.0
  0
ARC
  8
DETAIL
  6
CONTINOUS
 62
     5
 10
46.899999999999977
 20
54.200000000000053
 30
0.0
 40
2.2999999999999998
 50
180.0
 51
270.0
  0
LINE
  8
DETAIL
  6
CONTINOUS
 62
     5
 10
46.899999999999977
 20
51.899999999999977
 30
0.0
 11
57.899999999999977
 21
51.899999999999977
 31
0.0
  0
ARC
  8
DETAIL
  6
CONTINOUS
 62
     5
 10
46.899999999999977
 20
67.0
 30
0.0
 40
2.2999999999999998
 50
90.0
 51
180.0
  0
LINE
  8
DETAIL
  6
CONTINOUS
 62
     5
 10
46.899999999999977
 20
69.299999999999955
 30
0.0
 11
57.899999999999977
 21
69.299999999999955
 31
0.0
  0
LINE
  8
DETAIL
  6
CONTINOUS
 62
     5
 10
44.600000000000023
 20
64.200000000000045
 30
0.0
 11
44.600000000000023
 21
67.0
 31
0.0
  0
ARC
  8
DETAIL
  6
CONTINOUS
 62
     5
 10
46.899999999999977
 20
64.200000000000045
 30
0.0
 40
2.2999999999999998
 50
180.0
 51
270.0
  0
LINE
  8
DETAIL
  6
CONTINOUS
 62
     5
 10
46.899999999999977
 20
61.899999999999977
 30
0.0
 11
57.899999999999977
 21
61.899999999999977
 31
0.0
  0
ARC
  8
DETAIL
  6
CONTINOUS
 62
     5
 10
46.899999999999977
 20
77.0
 30
0.0
 40
2.2999999999999998
 50
90.0
 51
180.0
  0
LINE
  8
DETAIL
  6
CONTINOUS
 62
     5
 10
46.899999999999977
 20
79.299999999999955
 30
0.0
 11
57.899999999999977
 21
79.299999999999955
 31
0.0
  0
LINE
  8
DETAIL
  6
CONTINOUS
 62
     5
 10
44.600000000000023
 20
74.200000000000045
 30
0.0
 11
44.600000000000023
 21
77.0
 31
0.0
  0
ARC
  8
DETAIL
  6
CONTINOUS
 62
     5
 10
46.899999999999977
 20
74.200000000000045
 30
0.0
 40
2.2999999999999998
 50
180.0
 51
270.0
  0
LINE
  8
DETAIL
  6
CONTINOUS
 62
     5
 10
46.899999999999977
 20
71.899999999999977
 30
0.0
 11
57.899999999999977
 21
71.899999999999977
 31
0.0
  0
LINE
  8
DETAIL
  6
CONTINOUS
 62
     5
 10
46.899999999999977
 20
81.899999999999977
 30
0.0
 11
57.899999999999977
 21
81.899999999999977
 31
0.0
  0
ARC
  8
DETAIL
  6
CONTINOUS
 62
     5
 10
35.5
 20
4.2000000000000446
 30
0.0
 40
2.2999999999999998
 50
270.0
 51
0.0
  0
LINE
  8
DETAIL
  6
CONTINOUS
 62
     5
 10
37.799999999999947
 20
4.2000000000000446
 30
0.0
 11
37.799999999999947
 21
7.0
 31
0.0
  0
ARC
  8
DETAIL
  6
CONTINOUS
 62
     5
 10
35.5
 20
7.0
 30
0.0
 40
2.2999999999999998
 50
0.0
 51
90.0
  0
LINE
  8
DETAIL
  6
CONTINOUS
 62
     5
 10
24.5
 20
1.899999999999977
 30
0.0
 11
35.5
 21
1.899999999999977
 31
0.0
  0
ARC
  8
DETAIL
  6
CONTINOUS
 62
     5
 10
24.5
 20
4.2000000000000446
 30
0.0
 40
2.2999999999999998
 50
180.0
 51
270.0
  0
LINE
  8
DETAIL
  6
CONTINOUS
 62
     5
 10
22.200000000000049
 20
4.2000000000000446
 30
0.0
 11
22.200000000000049
 21
7.0
 31
0.0
  0
LINE
  8
DETAIL
  6
CONTINOUS
 62
     5
 10
24.5
 20
9.2999999999999545
 30
0.0
 11
35.5
 21
9.2999999999999545
 31
0.0
  0
ARC
  8
DETAIL
  6
CONTINOUS
 62
     5
 10
24.5
 20
7.0
 30
0.0
 40
2.2999999999999998
 50
90.0
 51
180.0
  0
ARC
  8
DETAIL
  6
CONTINOUS
 62
     5
 10
24.5
 20
17.0
 30
0.0
 40
2.2999999999999998
 50
90.0
 51
180.0
  0
LINE
  8
DETAIL
  6
CONTINOUS
 62
     5
 10
24.5
 20
19.299999999999951
 30
0.0
 11
35.5
 21
19.299999999999951
 31
0.0
  0
LINE
  8
DETAIL
  6
CONTINOUS
 62
     5
 10
22.200000000000049
 20
14.200000000000051
 30
0.0
 11
22.200000000000049
 21
17.0
 31
0.0
  0
ARC
  8
DETAIL
  6
CONTINOUS
 62
     5
 10
24.5
 20
14.200000000000051
 30
0.0
 40
2.2999999999999998
 50
180.0
 51
270.0
  0
LINE
  8
DETAIL
  6
CONTINOUS
 62
     5
 10
24.5
 20
11.899999999999981
 30
0.0
 11
35.5
 21
11.899999999999981
 31
0.0
  0
ARC
  8
DETAIL
  6
CONTINOUS
 62
     5
 10
35.5
 20
17.0
 30
0.0
 40
2.2999999999999998
 50
0.0
 51
90.0
  0
LINE
  8
DETAIL
  6
CONTINOUS
 62
     5
 10
37.799999999999947
 20
14.200000000000051
 30
0.0
 11
37.799999999999947
 21
17.0
 31
0.0
  0
ARC
  8
DETAIL
  6
CONTINOUS
 62
     5
 10
35.5
 20
14.200000000000051
 30
0.0
 40
2.2999999999999998
 50
270.0
 51
0.0
  0
ARC
  8
DETAIL
  6
CONTINOUS
 62
     5
 10
24.5
 20
27.0
 30
0.0
 40
2.2999999999999998
 50
90.0
 51
180.0
  0
LINE
  8
DETAIL
  6
CONTINOUS
 62
     5
 10
24.5
 20
29.299999999999951
 30
0.0
 11
35.5
 21
29.299999999999951
 31
0.0
  0
LINE
  8
DETAIL
  6
CONTINOUS
 62
     5
 10
22.200000000000049
 20
24.200000000000049
 30
0.0
 11
22.200000000000049
 21
27.0
 31
0.0
  0
ARC
  8
DETAIL
  6
CONTINOUS
 62
     5
 10
24.5
 20
24.200000000000049
 30
0.0
 40
2.2999999999999998
 50
180.0
 51
270.0
  0
LINE
  8
DETAIL
  6
CONTINOUS
 62
     5
 10
24.5
 20
21.899999999999981
 30
0.0
 11
35.5
 21
21.899999999999981
 31
0.0
  0
ARC
  8
DETAIL
  6
CONTINOUS
 62
     5
 10
35.5
 20
27.0
 30
0.0
 40
2.2999999999999998
 50
0.0
 51
90.0
  0
LINE
  8
DETAIL
  6
CONTINOUS
 62
     5
 10
37.799999999999947
 20
24.200000000000049
 30
0.0
 11
37.799999999999947
 21
27.0
 31
0.0
  0
ARC
  8
DETAIL
  6
CONTINOUS
 62
     5
 10
35.5
 20
24.200000000000049
 30
0.0
 40
2.2999999999999998
 50
270.0
 51
0.0
  0
ARC
  8
DETAIL
  6
CONTINOUS
 62
     5
 10
24.5
 20
37.0
 30
0.0
 40
2.2999999999999998
 50
90.0
 51
180.0
  0
LINE
  8
DETAIL
  6
CONTINOUS
 62
     5
 10
24.5
 20
39.299999999999947
 30
0.0
 11
35.5
 21
39.299999999999947
 31
0.0
  0
LINE
  8
DETAIL
  6
CONTINOUS
 62
     5
 10
22.200000000000049
 20
34.200000000000053
 30
0.0
 11
22.200000000000049
 21
37.0
 31
0.0
  0
ARC
  8
DETAIL
  6
CONTINOUS
 62
     5
 10
24.5
 20
34.200000000000053
 30
0.0
 40
2.2999999999999998
 50
180.0
 51
270.0
  0
LINE
  8
DETAIL
  6
CONTINOUS
 62
     5
 10
24.5
 20
31.899999999999981
 30
0.0
 11
35.5
 21
31.899999999999981
 31
0.0
  0
ARC
  8
DETAIL
  6
CONTINOUS
 62
     5
 10
35.5
 20
37.0
 30
0.0
 40
2.2999999999999998
 50
0.0
 51
90.0
  0
LINE
  8
DETAIL
  6
CONTINOUS
 62
     5
 10
37.799999999999947
 20
34.200000000000053
 30
0.0
 11
37.799999999999947
 21
37.0
 31
0.0
  0
ARC
  8
DETAIL
  6
CONTINOUS
 62
     5
 10
35.5
 20
34.200000000000053
 30
0.0
 40
2.2999999999999998
 50
270.0
 51
0.0
  0
ARC
  8
DETAIL
  6
CONTINOUS
 62
     5
 10
24.5
 20
47.0
 30
0.0
 40
2.2999999999999998
 50
90.0
 51
180.0
  0
LINE
  8
DETAIL
  6
CONTINOUS
 62
     5
 10
24.5
 20
49.299999999999947
 30
0.0
 11
35.5
 21
49.299999999999947
 31
0.0
  0
LINE
  8
DETAIL
  6
CONTINOUS
 62
     5
 10
22.200000000000049
 20
44.200000000000053
 30
0.0
 11
22.200000000000049
 21
47.0
 31
0.0
  0
ARC
  8
DETAIL
  6
CONTINOUS
 62
     5
 10
24.5
 20
44.200000000000053
 30
0.0
 40
2.2999999999999998
 50
180.0
 51
270.0
  0
LINE
  8
DETAIL
  6
CONTINOUS
 62
     5
 10
24.5
 20
41.899999999999977
 30
0.0
 11
35.5
 21
41.899999999999977
 31
0.0
  0
ARC
  8
DETAIL
  6
CONTINOUS
 62
     5
 10
35.5
 20
47.0
 30
0.0
 40
2.2999999999999998
 50
0.0
 51
90.0
  0
LINE
  8
DETAIL
  6
CONTINOUS
 62
     5
 10
37.799999999999947
 20
44.200000000000053
 30
0.0
 11
37.799999999999947
 21
47.0
 31
0.0
  0
ARC
  8
DETAIL
  6
CONTINOUS
 62
     5
 10
35.5
 20
44.200000000000053
 30
0.0
 40
2.2999999999999998
 50
270.0
 51
0.0
  0
ARC
  8
DETAIL
  6
CONTINOUS
 62
     5
 10
24.5
 20
57.0
 30
0.0
 40
2.2999999999999998
 50
90.0
 51
180.0
  0
LINE
  8
DETAIL
  6
CONTINOUS
 62
     5
 10
24.5
 20
59.299999999999947
 30
0.0
 11
35.5
 21
59.299999999999947
 31
0.0
  0
LINE
  8
DETAIL
  6
CONTINOUS
 62
     5
 10
22.200000000000049
 20
54.200000000000053
 30
0.0
 11
22.200000000000049
 21
57.0
 31
0.0
  0
ARC
  8
DETAIL
  6
CONTINOUS
 62
     5
 10
24.5
 20
54.200000000000053
 30
0.0
 40
2.2999999999999998
 50
180.0
 51
270.0
  0
LINE
  8
DETAIL
  6
CONTINOUS
 62
     5
 10
24.5
 20
51.899999999999977
 30
0.0
 11
35.5
 21
51.899999999999977
 31
0.0
  0
ARC
  8
DETAIL
  6
CONTINOUS
 62
     5
 10
35.5
 20
57.0
 30
0.0
 40
2.2999999999999998
 50
0.0
 51
90.0
  0
LINE
  8
DETAIL
  6
CONTINOUS
 62
     5
 10
37.799999999999947
 20
54.200000000000053
 30
0.0
 11
37.799999999999947
 21
57.0
 31
0.0
  0
ARC
  8
DETAIL
  6
CONTINOUS
 62
     5
 10
35.5
 20
54.200000000000053
 30
0.0
 40
2.2999999999999998
 50
270.0
 51
0.0
  0
ARC
  8
DETAIL
  6
CONTINOUS
 62
     5
 10
24.5
 20
67.0
 30
0.0
 40
2.2999999999999998
 50
90.0
 51
180.0
  0
LINE
  8
DETAIL
  6
CONTINOUS
 62
     5
 10
24.5
 20
69.299999999999955
 30
0.0
 11
35.5
 21
69.299999999999955
 31
0.0
  0
LINE
  8
DETAIL
  6
CONTINOUS
 62
     5
 10
22.200000000000049
 20
64.200000000000045
 30
0.0
 11
22.200000000000049
 21
67.0
 31
0.0
  0
ARC
  8
DETAIL
  6
CONTINOUS
 62
     5
 10
24.5
 20
64.200000000000045
 30
0.0
 40
2.2999999999999998
 50
180.0
 51
270.0
  0
LINE
  8
DETAIL
  6
CONTINOUS
 62
     5
 10
24.5
 20
61.899999999999977
 30
0.0
 11
35.5
 21
61.899999999999977
 31
0.0
  0
ARC
  8
DETAIL
  6
CONTINOUS
 62
     5
 10
35.5
 20
67.0
 30
0.0
 40
2.2999999999999998
 50
0.0
 51
90.0
  0
LINE
  8
DETAIL
  6
CONTINOUS
 62
     5
 10
37.799999999999947
 20
64.200000000000045
 30
0.0
 11
37.799999999999947
 21
67.0
 31
0.0
  0
ARC
  8
DETAIL
  6
CONTINOUS
 62
     5
 10
35.5
 20
64.200000000000045
 30
0.0
 40
2.2999999999999998
 50
270.0
 51
0.0
  0
ARC
  8
DETAIL
  6
CONTINOUS
 62
     5
 10
24.5
 20
77.0
 30
0.0
 40
2.2999999999999998
 50
90.0
 51
180.0
  0
LINE
  8
DETAIL
  6
CONTINOUS
 62
     5
 10
24.5
 20
79.299999999999955
 30
0.0
 11
35.5
 21
79.299999999999955
 31
0.0
  0
LINE
  8
DETAIL
  6
CONTINOUS
 62
     5
 10
22.200000000000049
 20
74.200000000000045
 30
0.0
 11
22.200000000000049
 21
77.0
 31
0.0
  0
ARC
  8
DETAIL
  6
CONTINOUS
 62
     5
 10
24.5
 20
74.200000000000045
 30
0.0
 40
2.2999999999999998
 50
180.0
 51
270.0
  0
LINE
  8
DETAIL
  6
CONTINOUS
 62
     5
 10
24.5
 20
71.899999999999977
 30
0.0
 11
35.5
 21
71.899999999999977
 31
0.0
  0
ARC
  8
DETAIL
  6
CONTINOUS
 62
     5
 10
35.5
 20
77.0
 30
0.0
 40
2.2999999999999998
 50
0.0
 51
90.0
  0
LINE
  8
DETAIL
  6
CONTINOUS
 62
     5
 10
37.799999999999947
 20
74.200000000000045
 30
0.0
 11
37.799999999999947
 21
77.0
 31
0.0
  0
ARC
  8
DETAIL
  6
CONTINOUS
 62
     5
 10
35.5
 20
74.200000000000045
 30
0.0
 40
2.2999999999999998
 50
270.0
 51
0.0
  0
LINE
  8
DETAIL
  6
CONTINOUS
 62
     5
 10
24.5
 20
81.899999999999977
 30
0.0
 11
35.5
 21
81.899999999999977
 31
0.0
  0
LINE
  8
DETAIL
  6
CONTINOUS
 62
     5
 10
5.7000000000000446
 20
81.899999999999977
 30
0.0
 11
16.700000000000049
 21
81.899999999999977
 31
0.0
  0
ARC
  8
DETAIL
  6
CONTINOUS
 62
     5
 10
16.700000000000049
 20
74.200000000000045
 30
0.0
 40
2.2999999999999998
 50
270.0
 51
0.0
  0
LINE
  8
DETAIL
  6
CONTINOUS
 62
     5
 10
19.0
 20
74.200000000000045
 30
0.0
 11
19.0
 21
77.0
 31
0.0
  0
ARC
  8
DETAIL
  6
CONTINOUS
 62
     5
 10
16.700000000000049
 20
77.0
 30
0.0
 40
2.2999999999999998
 50
0.0
 51
90.0
  0
LINE
  8
DETAIL
  6
CONTINOUS
 62
     5
 10
5.7000000000000446
 20
71.899999999999977
 30
0.0
 11
16.700000000000049
 21
71.899999999999977
 31
0.0
  0
ARC
  8
DETAIL
  6
CONTINOUS
 62
     5
 10
5.7000000000000446
 20
74.200000000000045
 30
0.0
 40
2.2999999999999998
 50
180.0
 51
270.0
  0
LINE
  8
DETAIL
  6
CONTINOUS
 62
     5
 10
3.3999999999999768
 20
74.200000000000045
 30
0.0
 11
3.3999999999999768
 21
77.0
 31
0.0
  0
LINE
  8
DETAIL
  6
CONTINOUS
 62
     5
 10
5.7000000000000446
 20
79.299999999999955
 30
0.0
 11
16.700000000000049
 21
79.299999999999955
 31
0.0
  0
ARC
  8
DETAIL
  6
CONTINOUS
 62
     5
 10
5.7000000000000446
 20
77.0
 30
0.0
 40
2.2999999999999998
 50
90.0
 51
180.0
  0
ARC
  8
DETAIL
  6
CONTINOUS
 62
     5
 10
16.700000000000049
 20
64.200000000000045
 30
0.0
 40
2.2999999999999998
 50
270.0
 51
0.0
  0
LINE
  8
DETAIL
  6
CONTINOUS
 62
     5
 10
19.0
 20
64.200000000000045
 30
0.0
 11
19.0
 21
67.0
 31
0.0
  0
ARC
  8
DETAIL
  6
CONTINOUS
 62
     5
 10
16.700000000000049
 20
67.0
 30
0.0
 40
2.2999999999999998
 50
0.0
 51
90.0
  0
LINE
  8
DETAIL
  6
CONTINOUS
 62
     5
 10
5.7000000000000446
 20
61.899999999999977
 30
0.0
 11
16.700000000000049
 21
61.899999999999977
 31
0.0
  0
ARC
  8
DETAIL
  6
CONTINOUS
 62
     5
 10
5.7000000000000446
 20
64.200000000000045
 30
0.0
 40
2.2999999999999998
 50
180.0
 51
270.0
  0
LINE
  8
DETAIL
  6
CONTINOUS
 62
     5
 10
3.3999999999999768
 20
64.200000000000045
 30
0.0
 11
3.3999999999999768
 21
67.0
 31
0.0
  0
LINE
  8
DETAIL
  6
CONTINOUS
 62
     5
 10
5.7000000000000446
 20
69.299999999999955
 30
0.0
 11
16.700000000000049
 21
69.299999999999955
 31
0.0
  0
ARC
  8
DETAIL
  6
CONTINOUS
 62
     5
 10
5.7000000000000446
 20
67.0
 30
0.0
 40
2.2999999999999998
 50
90.0
 51
180.0
  0
ARC
  8
DETAIL
  6
CONTINOUS
 62
     5
 10
16.700000000000049
 20
54.200000000000053
 30
0.0
 40
2.2999999999999998
 50
270.0
 51
0.0
  0
LINE
  8
DETAIL
  6
CONTINOUS
 62
     5
 10
19.0
 20
54.200000000000053
 30
0.0
 11
19.0
 21
57.0
 31
0.0
  0
ARC
  8
DETAIL
  6
CONTINOUS
 62
     5
 10
16.700000000000049
 20
57.0
 30
0.0
 40
2.2999999999999998
 50
0.0
 51
90.0
  0
LINE
  8
DETAIL
  6
CONTINOUS
 62
     5
 10
5.7000000000000446
 20
51.899999999999977
 30
0.0
 11
16.700000000000049
 21
51.899999999999977
 31
0.0
  0
ARC
  8
DETAIL
  6
CONTINOUS
 62
     5
 10
5.7000000000000446
 20
54.200000000000053
 30
0.0
 40
2.2999999999999998
 50
180.0
 51
270.0
  0
LINE
  8
DETAIL
  6
CONTINOUS
 62
     5
 10
3.3999999999999768
 20
54.200000000000053
 30
0.0
 11
3.3999999999999768
 21
57.0
 31
0.0
  0
LINE
  8
DETAIL
  6
CONTINOUS
 62
     5
 10
5.7000000000000446
 20
59.299999999999947
 30
0.0
 11
16.700000000000049
 21
59.299999999999947
 31
0.0
  0
ARC
  8
DETAIL
  6
CONTINOUS
 62
     5
 10
5.7000000000000446
 20
57.0
 30
0.0
 40
2.2999999999999998
 50
90.0
 51
180.0
  0
ARC
  8
DETAIL
  6
CONTINOUS
 62
     5
 10
16.700000000000049
 20
44.200000000000053
 30
0.0
 40
2.2999999999999998
 50
270.0
 51
0.0
  0
LINE
  8
DETAIL
  6
CONTINOUS
 62
     5
 10
19.0
 20
44.200000000000053
 30
0.0
 11
19.0
 21
47.0
 31
0.0
  0
ARC
  8
DETAIL
  6
CONTINOUS
 62
     5
 10
16.700000000000049
 20
47.0
 30
0.0
 40
2.2999999999999998
 50
0.0
 51
90.0
  0
LINE
  8
DETAIL
  6
CONTINOUS
 62
     5
 10
5.7000000000000446
 20
41.899999999999977
 30
0.0
 11
16.700000000000049
 21
41.899999999999977
 31
0.0
  0
ARC
  8
DETAIL
  6
CONTINOUS
 62
     5
 10
5.7000000000000446
 20
44.200000000000053
 30
0.0
 40
2.2999999999999998
 50
180.0
 51
270.0
  0
LINE
  8
DETAIL
  6
CONTINOUS
 62
     5
 10
3.3999999999999768
 20
44.200000000000053
 30
0.0
 11
3.3999999999999768
 21
47.0
 31
0.0
  0
LINE
  8
DETAIL
  6
CONTINOUS
 62
     5
 10
5.7000000000000446
 20
49.299999999999947
 30
0.0
 11
16.700000000000049
 21
49.299999999999947
 31
0.0
  0
ARC
  8
DETAIL
  6
CONTINOUS
 62
     5
 10
5.7000000000000446
 20
47.0
 30
0.0
 40
2.2999999999999998
 50
90.0
 51
180.0
  0
ARC
  8
DETAIL
  6
CONTINOUS
 62
     5
 10
16.700000000000049
 20
34.200000000000053
 30
0.0
 40
2.2999999999999998
 50
270.0
 51
0.0
  0
LINE
  8
DETAIL
  6
CONTINOUS
 62
     5
 10
19.0
 20
34.200000000000053
 30
0.0
 11
19.0
 21
37.0
 31
0.0
  0
ARC
  8
DETAIL
  6
CONTINOUS
 62
     5
 10
16.700000000000049
 20
37.0
 30
0.0
 40
2.2999999999999998
 50
0.0
 51
90.0
  0
LINE
  8
DETAIL
  6
CONTINOUS
 62
     5
 10
5.7000000000000446
 20
31.899999999999981
 30
0.0
 11
16.700000000000049
 21
31.899999999999981
 31
0.0
  0
ARC
  8
DETAIL
  6
CONTINOUS
 62
     5
 10
5.7000000000000446
 20
34.200000000000053
 30
0.0
 40
2.2999999999999998
 50
180.0
 51
270.0
  0
LINE
  8
DETAIL
  6
CONTINOUS
 62
     5
 10
3.3999999999999768
 20
34.200000000000053
 30
0.0
 11
3.3999999999999768
 21
37.0
 31
0.0
  0
LINE
  8
DETAIL
  6
CONTINOUS
 62
     5
 10
5.7000000000000446
 20
39.299999999999947
 30
0.0
 11
16.700000000000049
 21
39.299999999999947
 31
0.0
  0
ARC
  8
DETAIL
  6
CONTINOUS
 62
     5
 10
5.7000000000000446
 20
37.0
 30
0.0
 40
2.2999999999999998
 50
90.0
 51
180.0
  0
ARC
  8
DETAIL
  6
CONTINOUS
 62
     5
 10
16.700000000000049
 20
24.200000000000049
 30
0.0
 40
2.2999999999999998
 50
270.0
 51
0.0
  0
LINE
  8
DETAIL
  6
CONTINOUS
 62
     5
 10
19.0
 20
24.200000000000049
 30
0.0
 11
19.0
 21
27.0
 31
0.0
  0
ARC
  8
DETAIL
  6
CONTINOUS
 62
     5
 10
16.700000000000049
 20
27.0
 30
0.0
 40
2.2999999999999998
 50
0.0
 51
90.0
  0
LINE
  8
DETAIL
  6
CONTINOUS
 62
     5
 10
5.7000000000000446
 20
21.899999999999981
 30
0.0
 11
16.700000000000049
 21
21.899999999999981
 31
0.0
  0
ARC
  8
DETAIL
  6
CONTINOUS
 62
     5
 10
5.7000000000000446
 20
24.200000000000049
 30
0.0
 40
2.2999999999999998
 50
180.0
 51
270.0
  0
LINE
  8
DETAIL
  6
CONTINOUS
 62
     5
 10
3.3999999999999768
 20
24.200000000000049
 30
0.0
 11
3.3999999999999768
 21
27.0
 31
0.0
  0
LINE
  8
DETAIL
  6
CONTINOUS
 62
     5
 10
5.7000000000000446
 20
29.299999999999951
 30
0.0
 11
16.700000000000049
 21
29.299999999999951
 31
0.0
  0
ARC
  8
DETAIL
  6
CONTINOUS
 62
     5
 10
5.7000000000000446
 20
27.0
 30
0.0
 40
2.2999999999999998
 50
90.0
 51
180.0
  0
ARC
  8
DETAIL
  6
CONTINOUS
 62
     5
 10
16.700000000000049
 20
14.200000000000051
 30
0.0
 40
2.2999999999999998
 50
270.0
 51
0.0
  0
LINE
  8
DETAIL
  6
CONTINOUS
 62
     5
 10
19.0
 20
14.200000000000051
 30
0.0
 11
19.0
 21
17.0
 31
0.0
  0
ARC
  8
DETAIL
  6
CONTINOUS
 62
     5
 10
16.700000000000049
 20
17.0
 30
0.0
 40
2.2999999999999998
 50
0.0
 51
90.0
  0
LINE
  8
DETAIL
  6
CONTINOUS
 62
     5
 10
5.7000000000000446
 20
11.899999999999981
 30
0.0
 11
16.700000000000049
 21
11.899999999999981
 31
0.0
  0
ARC
  8
DETAIL
  6
CONTINOUS
 62
     5
 10
5.7000000000000446
 20
14.200000000000051
 30
0.0
 40
2.2999999999999998
 50
180.0
 51
270.0
  0
LINE
  8
DETAIL
  6
CONTINOUS
 62
     5
 10
3.3999999999999768
 20
14.200000000000051
 30
0.0
 11
3.3999999999999768
 21
17.0
 31
0.0
  0
LINE
  8
DETAIL
  6
CONTINOUS
 62
     5
 10
5.7000000000000446
 20
19.299999999999951
 30
0.0
 11
16.700000000000049
 21
19.299999999999951
 31
0.0
  0
ARC
  8
DETAIL
  6
CONTINOUS
 62
     5
 10
5.7000000000000446
 20
17.0
 30
0.0
 40
2.2999999999999998
 50
90.0
 51
180.0
  0
ARC
  8
DETAIL
  6
CONTINOUS
 62
     5
 10
5.7000000000000446
 20
7.0
 30
0.0
 40
2.2999999999999998
 50
90.0
 51
180.0
  0
LINE
  8
DETAIL
  6
CONTINOUS
 62
     5
 10
5.7000000000000446
 20
9.2999999999999545
 30
0.0
 11
16.700000000000049
 21
9.2999999999999545
 31
0.0
  0
LINE
  8
DETAIL
  6
CONTINOUS
 62
     5
 10
3.3999999999999768
 20
4.2000000000000446
 30
0.0
 11
3.3999999999999768
 21
7.0
 31
0.0
  0
ARC
  8
DETAIL
  6
CONTINOUS
 62
     5
 10
5.7000000000000446
 20
4.2000000000000446
 30
0.0
 40
2.2999999999999998
 50
180.0
 51
270.0
  0
LINE
  8
DETAIL
  6
CONTINOUS
 62
     5
 10
5.7000000000000446
 20
1.899999999999977
 30
0.0
 11
16.700000000000049
 21
1.899999999999977
 31
0.0
  0
ARC
  8
DETAIL
  6
CONTINOUS
 62
     5
 10
16.700000000000049
 20
7.0
 30
0.0
 40
2.2999999999999998
 50
0.0
 51
90.0
  0
LINE
  8
DETAIL
  6
CONTINOUS
 62
     5
 10
19.0
 20
4.2000000000000446
 30
0.0
 11
19.0
 21
7.0
 31
0.0
  0
ARC
  8
DETAIL
  6
CONTINOUS
 62
     5
 10
16.700000000000049
 20
4.2000000000000446
 30
0.0
 40
2.2999999999999998
 50
270.0
 51
0.0
  0
ARC
  8
DETAIL
  6
CONTINOUS
 62
     5
 10
99.100000000000023
 20
4.2000000000000446
 30
0.0
 40
2.2999999999999998
 50
270.0
 51
0.0
  0
LINE
  8
DETAIL
  6
CONTINOUS
 62
     5
 10
101.40000000000001
 20
4.2000000000000446
 30
0.0
 11
101.40000000000001
 21
7.0
 31
0.0
  0
ARC
  8
DETAIL
  6
CONTINOUS
 62
     5
 10
99.100000000000023
 20
7.0
 30
0.0
 40
2.2999999999999998
 50
0.0
 51
90.0
  0
LINE
  8
DETAIL
  6
CONTINOUS
 62
     5
 10
88.100000000000023
 20
1.899999999999977
 30
0.0
 11
99.100000000000023
 21
1.899999999999977
 31
0.0
  0
ARC
  8
DETAIL
  6
CONTINOUS
 62
     5
 10
88.100000000000023
 20
4.2000000000000446
 30
0.0
 40
2.2999999999999998
 50
180.0
 51
270.0
  0
LINE
  8
DETAIL
  6
CONTINOUS
 62
     5
 10
85.799999999999955
 20
4.2000000000000446
 30
0.0
 11
85.799999999999955
 21
7.0
 31
0.0
  0
LINE
  8
DETAIL
  6
CONTINOUS
 62
     5
 10
88.100000000000023
 20
9.2999999999999545
 30
0.0
 11
99.100000000000023
 21
9.2999999999999545
 31
0.0
  0
ARC
  8
DETAIL
  6
CONTINOUS
 62
     5
 10
88.100000000000023
 20
7.0
 30
0.0
 40
2.2999999999999998
 50
90.0
 51
180.0
  0
ARC
  8
DETAIL
  6
CONTINOUS
 62
     5
 10
88.100000000000023
 20
17.0
 30
0.0
 40
2.2999999999999998
 50
90.0
 51
180.0
  0
LINE
  8
DETAIL
  6
CONTINOUS
 62
     5
 10
88.100000000000023
 20
19.299999999999951
 30
0.0
 11
99.100000000000023
 21
19.299999999999951
 31
0.0
  0
LINE
  8
DETAIL
  6
CONTINOUS
 62
     5
 10
85.799999999999955
 20
14.200000000000051
 30
0.0
 11
85.799999999999955
 21
17.0
 31
0.0
  0
ARC
  8
DETAIL
  6
CONTINOUS
 62
     5
 10
88.100000000000023
 20
14.200000000000051
 30
0.0
 40
2.2999999999999998
 50
180.0
 51
270.0
  0
LINE
  8
DETAIL
  6
CONTINOUS
 62
     5
 10
88.100000000000023
 20
11.899999999999981
 30
0.0
 11
99.100000000000023
 21
11.899999999999981
 31
0.0
  0
ARC
  8
DETAIL
  6
CONTINOUS
 62
     5
 10
99.100000000000023
 20
17.0
 30
0.0
 40
2.2999999999999998
 50
0.0
 51
90.0
  0
LINE
  8
DETAIL
  6
CONTINOUS
 62
     5
 10
101.40000000000001
 20
14.200000000000051
 30
0.0
 11
101.40000000000001
 21
17.0
 31
0.0
  0
ARC
  8
DETAIL
  6
CONTINOUS
 62
     5
 10
99.100000000000023
 20
14.200000000000051
 30
0.0
 40
2.2999999999999998
 50
270.0
 51
0.0
  0
ARC
  8
DETAIL
  6
CONTINOUS
 62
     5
 10
88.100000000000023
 20
27.0
 30
0.0
 40
2.2999999999999998
 50
90.0
 51
180.0
  0
LINE
  8
DETAIL
  6
CONTINOUS
 62
     5
 10
88.100000000000023
 20
29.299999999999951
 30
0.0
 11
99.100000000000023
 21
29.299999999999951
 31
0.0
  0
LINE
  8
DETAIL
  6
CONTINOUS
 62
     5
 10
85.799999999999955
 20
24.200000000000049
 30
0.0
 11
85.799999999999955
 21
27.0
 31
0.0
  0
ARC
  8
DETAIL
  6
CONTINOUS
 62
     5
 10
88.100000000000023
 20
24.200000000000049
 30
0.0
 40
2.2999999999999998
 50
180.0
 51
270.0
  0
LINE
  8
DETAIL
  6
CONTINOUS
 62
     5
 10
88.100000000000023
 20
21.899999999999981
 30
0.0
 11
99.100000000000023
 21
21.899999999999981
 31
0.0
  0
ARC
  8
DETAIL
  6
CONTINOUS
 62
     5
 10
99.100000000000023
 20
27.0
 30
0.0
 40
2.2999999999999998
 50
0.0
 51
90.0
  0
LINE
  8
DETAIL
  6
CONTINOUS
 62
     5
 10
101.40000000000001
 20
24.200000000000049
 30
0.0
 11
101.40000000000001
 21
27.0
 31
0.0
  0
ARC
  8
DETAIL
  6
CONTINOUS
 62
     5
 10
99.100000000000023
 20
24.200000000000049
 30
0.0
 40
2.2999999999999998
 50
270.0
 51
0.0
  0
ARC
  8
DETAIL
  6
CONTINOUS
 62
     5
 10
88.100000000000023
 20
37.0
 30
0.0
 40
2.2999999999999998
 50
90.0
 51
180.0
  0
LINE
  8
DETAIL
  6
CONTINOUS
 62
     5
 10
88.100000000000023
 20
39.299999999999947
 30
0.0
 11
99.100000000000023
 21
39.299999999999947
 31
0.0
  0
LINE
  8
DETAIL
  6
CONTINOUS
 62
     5
 10
85.799999999999955
 20
34.200000000000053
 30
0.0
 11
85.799999999999955
 21
37.0
 31
0.0
  0
ARC
  8
DETAIL
  6
CONTINOUS
 62
     5
 10
88.100000000000023
 20
34.200000000000053
 30
0.0
 40
2.2999999999999998
 50
180.0
 51
270.0
  0
LINE
  8
DETAIL
  6
CONTINOUS
 62
     5
 10
88.100000000000023
 20
31.899999999999981
 30
0.0
 11
99.100000000000023
 21
31.899999999999981
 31
0.0
  0
ARC
  8
DETAIL
  6
CONTINOUS
 62
     5
 10
99.100000000000023
 20
37.0
 30
0.0
 40
2.2999999999999998
 50
0.0
 51
90.0
  0
LINE
  8
DETAIL
  6
CONTINOUS
 62
     5
 10
101.40000000000001
 20
34.200000000000053
 30
0.0
 11
101.40000000000001
 21
37.0
 31
0.0
  0
ARC
  8
DETAIL
  6
CONTINOUS
 62
     5
 10
99.100000000000023
 20
34.200000000000053
 30
0.0
 40
2.2999999999999998
 50
270.0
 51
0.0
  0
ARC
  8
DETAIL
  6
CONTINOUS
 62
     5
 10
88.100000000000023
 20
47.0
 30
0.0
 40
2.2999999999999998
 50
90.0
 51
180.0
  0
LINE
  8
DETAIL
  6
CONTINOUS
 62
     5
 10
88.100000000000023
 20
49.299999999999947
 30
0.0
 11
99.100000000000023
 21
49.299999999999947
 31
0.0
  0
LINE
  8
DETAIL
  6
CONTINOUS
 62
     5
 10
85.799999999999955
 20
44.200000000000053
 30
0.0
 11
85.799999999999955
 21
47.0
 31
0.0
  0
ARC
  8
DETAIL
  6
CONTINOUS
 62
     5
 10
88.100000000000023
 20
44.200000000000053
 30
0.0
 40
2.2999999999999998
 50
180.0
 51
270.0
  0
LINE
  8
DETAIL
  6
CONTINOUS
 62
     5
 10
88.100000000000023
 20
41.899999999999977
 30
0.0
 11
99.100000000000023
 21
41.899999999999977
 31
0.0
  0
ARC
  8
DETAIL
  6
CONTINOUS
 62
     5
 10
99.100000000000023
 20
47.0
 30
0.0
 40
2.2999999999999998
 50
0.0
 51
90.0
  0
LINE
  8
DETAIL
  6
CONTINOUS
 62
     5
 10
101.40000000000001
 20
44.200000000000053
 30
0.0
 11
101.40000000000001
 21
47.0
 31
0.0
  0
ARC
  8
DETAIL
  6
CONTINOUS
 62
     5
 10
99.100000000000023
 20
44.200000000000053
 30
0.0
 40
2.2999999999999998
 50
270.0
 51
0.0
  0
ARC
  8
DETAIL
  6
CONTINOUS
 62
     5
 10
88.100000000000023
 20
57.0
 30
0.0
 40
2.2999999999999998
 50
90.0
 51
180.0
  0
LINE
  8
DETAIL
  6
CONTINOUS
 62
     5
 10
88.100000000000023
 20
59.299999999999947
 30
0.0
 11
99.100000000000023
 21
59.299999999999947
 31
0.0
  0
LINE
  8
DETAIL
  6
CONTINOUS
 62
     5
 10
85.799999999999955
 20
54.200000000000053
 30
0.0
 11
85.799999999999955
 21
57.0
 31
0.0
  0
ARC
  8
DETAIL
  6
CONTINOUS
 62
     5
 10
88.100000000000023
 20
54.200000000000053
 30
0.0
 40
2.2999999999999998
 50
180.0
 51
270.0
  0
LINE
  8
DETAIL
  6
CONTINOUS
 62
     5
 10
88.100000000000023
 20
51.899999999999977
 30
0.0
 11
99.100000000000023
 21
51.899999999999977
 31
0.0
  0
ARC
  8
DETAIL
  6
CONTINOUS
 62
     5
 10
99.100000000000023
 20
57.0
 30
0.0
 40
2.2999999999999998
 50
0.0
 51
90.0
  0
LINE
  8
DETAIL
  6
CONTINOUS
 62
     5
 10
101.40000000000001
 20
54.200000000000053
 30
0.0
 11
101.40000000000001
 21
57.0
 31
0.0
  0
ARC
  8
DETAIL
  6
CONTINOUS
 62
     5
 10
99.100000000000023
 20
54.200000000000053
 30
0.0
 40
2.2999999999999998
 50
270.0
 51
0.0
  0
ARC
  8
DETAIL
  6
CONTINOUS
 62
     5
 10
88.100000000000023
 20
67.0
 30
0.0
 40
2.2999999999999998
 50
90.0
 51
180.0
  0
LINE
  8
DETAIL
  6
CONTINOUS
 62
     5
 10
88.100000000000023
 20
69.299999999999955
 30
0.0
 11
99.100000000000023
 21
69.299999999999955
 31
0.0
  0
LINE
  8
DETAIL
  6
CONTINOUS
 62
     5
 10
85.799999999999955
 20
64.200000000000045
 30
0.0
 11
85.799999999999955
 21
67.0
 31
0.0
  0
ARC
  8
DETAIL
  6
CONTINOUS
 62
     5
 10
88.100000000000023
 20
64.200000000000045
 30
0.0
 40
2.2999999999999998
 50
180.0
 51
270.0
  0
LINE
  8
DETAIL
  6
CONTINOUS
 62
     5
 10
88.100000000000023
 20
61.899999999999977
 30
0.0
 11
99.100000000000023
 21
61.899999999999977
 31
0.0
  0
ARC
  8
DETAIL
  6
CONTINOUS
 62
     5
 10
99.100000000000023
 20
67.0
 30
0.0
 40
2.2999999999999998
 50
0.0
 51
90.0
  0
LINE
  8
DETAIL
  6
CONTINOUS
 62
     5
 10
101.40000000000001
 20
64.200000000000045
 30
0.0
 11
101.40000000000001
 21
67.0
 31
0.0
  0
ARC
  8
DETAIL
  6
CONTINOUS
 62
     5
 10
99.100000000000023
 20
64.200000000000045
 30
0.0
 40
2.2999999999999998
 50
270.0
 51
0.0
  0
ARC
  8
DETAIL
  6
CONTINOUS
 62
     5
 10
88.100000000000023
 20
77.0
 30
0.0
 40
2.2999999999999998
 50
90.0
 51
180.0
  0
LINE
  8
DETAIL
  6
CONTINOUS
 62
     5
 10
88.100000000000023
 20
79.299999999999955
 30
0.0
 11
99.100000000000023
 21
79.299999999999955
 31
0.0
  0
LINE
  8
DETAIL
  6
CONTINOUS
 62
     5
 10
85.799999999999955
 20
74.200000000000045
 30
0.0
 11
85.799999999999955
 21
77.0
 31
0.0
  0
ARC
  8
DETAIL
  6
CONTINOUS
 62
     5
 10
88.100000000000023
 20
74.200000000000045
 30
0.0
 40
2.2999999999999998
 50
180.0
 51
270.0
  0
LINE
  8
DETAIL
  6
CONTINOUS
 62
     5
 10
88.100000000000023
 20
71.899999999999977
 30
0.0
 11
99.100000000000023
 21
71.899999999999977
 31
0.0
  0
ARC
  8
DETAIL
  6
CONTINOUS
 62
     5
 10
99.100000000000023
 20
77.0
 30
0.0
 40
2.2999999999999998
 50
0.0
 51
90.0
  0
LINE
  8
DETAIL
  6
CONTINOUS
 62
     5
 10
101.40000000000001
 20
74.200000000000045
 30
0.0
 11
101.40000000000001
 21
77.0
 31
0.0
  0
ARC
  8
DETAIL
  6
CONTINOUS
 62
     5
 10
99.100000000000023
 20
74.200000000000045
 30
0.0
 40
2.2999999999999998
 50
270.0
 51
0.0
  0
LINE
  8
DETAIL
  6
CONTINOUS
 62
     5
 10
88.100000000000023
 20
81.899999999999977
 30
0.0
 11
99.100000000000023
 21
81.899999999999977
 31
0.0
  0
ARC
  8
DETAIL
  6
CONTINOUS
 62
     5
 10
106.90000000000001
 20
74.200000000000045
 30
0.0
 40
2.2999999999999998
 50
180.0
 51
270.0
  0
LINE
  8
DETAIL
  6
CONTINOUS
 62
     5
 10
104.59999999999999
 20
74.200000000000045
 30
0.0
 11
104.59999999999999
 21
77.0
 31
0.0
  0
ARC
  8
DETAIL
  6
CONTINOUS
 62
     5
 10
106.90000000000001
 20
77.0
 30
0.0
 40
2.2999999999999998
 50
90.0
 51
180.0
  0
ARC
  8
DETAIL
  6
CONTINOUS
 62
     5
 10
106.90000000000001
 20
64.200000000000045
 30
0.0
 40
2.2999999999999998
 50
180.0
 51
270.0
  0
LINE
  8
DETAIL
  6
CONTINOUS
 62
     5
 10
104.59999999999999
 20
64.200000000000045
 30
0.0
 11
104.59999999999999
 21
67.0
 31
0.0
  0
ARC
  8
DETAIL
  6
CONTINOUS
 62
     5
 10
106.90000000000001
 20
67.0
 30
0.0
 40
2.2999999999999998
 50
90.0
 51
180.0
  0
ARC
  8
DETAIL
  6
CONTINOUS
 62
     5
 10
106.90000000000001
 20
54.200000000000053
 30
0.0
 40
2.2999999999999998
 50
180.0
 51
270.0
  0
LINE
  8
DETAIL
  6
CONTINOUS
 62
     5
 10
104.59999999999999
 20
54.200000000000053
 30
0.0
 11
104.59999999999999
 21
57.0
 31
0.0
  0
ARC
  8
DETAIL
  6
CONTINOUS
 62
     5
 10
106.90000000000001
 20
57.0
 30
0.0
 40
2.2999999999999998
 50
90.0
 51
180.0
  0
ARC
  8
DETAIL
  6
CONTINOUS
 62
     5
 10
106.90000000000001
 20
44.200000000000053
 30
0.0
 40
2.2999999999999998
 50
180.0
 51
270.0
  0
LINE
  8
DETAIL
  6
CONTINOUS
 62
     5
 10
104.59999999999999
 20
44.200000000000053
 30
0.0
 11
104.59999999999999
 21
47.0
 31
0.0
  0
ARC
  8
DETAIL
  6
CONTINOUS
 62
     5
 10
106.90000000000001
 20
47.0
 30
0.0
 40
2.2999999999999998
 50
90.0
 51
180.0
  0
ARC
  8
DETAIL
  6
CONTINOUS
 62
     5
 10
106.90000000000001
 20
34.200000000000053
 30
0.0
 40
2.2999999999999998
 50
180.0
 51
270.0
  0
LINE
  8
DETAIL
  6
CONTINOUS
 62
     5
 10
104.59999999999999
 20
34.200000000000053
 30
0.0
 11
104.59999999999999
 21
37.0
 31
0.0
  0
ARC
  8
DETAIL
  6
CONTINOUS
 62
     5
 10
106.90000000000001
 20
37.0
 30
0.0
 40
2.2999999999999998
 50
90.0
 51
180.0
  0
ARC
  8
DETAIL
  6
CONTINOUS
 62
     5
 10
106.90000000000001
 20
24.200000000000049
 30
0.0
 40
2.2999999999999998
 50
180.0
 51
270.0
  0
LINE
  8
DETAIL
  6
CONTINOUS
 62
     5
 10
104.59999999999999
 20
24.200000000000049
 30
0.0
 11
104.59999999999999
 21
27.0
 31
0.0
  0
ARC
  8
DETAIL
  6
CONTINOUS
 62
     5
 10
106.90000000000001
 20
27.0
 30
0.0
 40
2.2999999999999998
 50
90.0
 51
180.0
  0
ARC
  8
DETAIL
  6
CONTINOUS
 62
     5
 10
106.90000000000001
 20
14.200000000000051
 30
0.0
 40
2.2999999999999998
 50
180.0
 51
270.0
  0
LINE
  8
DETAIL
  6
CONTINOUS
 62
     5
 10
104.59999999999999
 20
14.200000000000051
 30
0.0
 11
104.59999999999999
 21
17.0
 31
0.0
  0
ARC
  8
DETAIL
  6
CONTINOUS
 62
     5
 10
106.90000000000001
 20
17.0
 30
0.0
 40
2.2999999999999998
 50
90.0
 51
180.0
  0
ARC
  8
DETAIL
  6
CONTINOUS
 62
     5
 10
106.90000000000001
 20
7.0
 30
0.0
 40
2.2999999999999998
 50
90.0
 51
180.0
  0
LINE
  8
DETAIL
  6
CONTINOUS
 62
     5
 10
104.59999999999999
 20
4.2000000000000446
 30
0.0
 11
104.59999999999999
 21
7.0
 31
0.0
  0
ARC
  8
DETAIL
  6
CONTINOUS
 62
     5
 10
106.90000000000001
 20
4.2000000000000446
 30
0.0
 40
2.2999999999999998
 50
180.0
 51
270.0
  0
LINE
  8
DETAIL
  6
CONTINOUS
 62
     5
 10
60.200000000000053
 20
4.2000000000000446
 30
0.0
 11
60.200000000000053
 21
7.0
 31
0.0
  0
LINE
  8
DETAIL
  6
CONTINOUS
 62
     5
 10
60.200000000000053
 20
14.200000000000051
 30
0.0
 11
60.200000000000053
 21
17.0
 31
0.0
  0
LINE
  8
DETAIL
  6
CONTINOUS
 62
     5
 10
60.200000000000053
 20
24.200000000000049
 30
0.0
 11
60.200000000000053
 21
27.0
 31
0.0
  0
LINE
  8
DETAIL
  6
CONTINOUS
 62
     5
 10
60.200000000000053
 20
34.200000000000053
 30
0.0
 11
60.200000000000053
 21
37.0
 31
0.0
  0
LINE
  8
DETAIL
  6
CONTINOUS
 62
     5
 10
60.200000000000053
 20
44.200000000000053
 30
0.0
 11
60.200000000000053
 21
47.0
 31
0.0
  0
LINE
  8
DETAIL
  6
CONTINOUS
 62
     5
 10
60.200000000000053
 20
54.200000000000053
 30
0.0
 11
60.200000000000053
 21
57.0
 31
0.0
  0
LINE
  8
DETAIL
  6
CONTINOUS
 62
     5
 10
60.200000000000053
 20
64.200000000000045
 30
0.0
 11
60.200000000000053
 21
67.0
 31
0.0
  0
LINE
  8
DETAIL
  6
CONTINOUS
 62
     5
 10
60.200000000000053
 20
74.200000000000045
 30
0.0
 11
60.200000000000053
 21
77.0
 31
0.0
  0
LINE
  8
DETAIL
  6
CONTINOUS
 62
     5
 10
65.700000000000045
 20
81.899999999999977
 30
0.0
 11
76.700000000000045
 21
81.899999999999977
 31
0.0
  0
ARC
  8
DETAIL
  6
CONTINOUS
 62
     5
 10
76.700000000000045
 20
74.200000000000045
 30
0.0
 40
2.2999999999999998
 50
270.0
 51
0.0
  0
LINE
  8
DETAIL
  6
CONTINOUS
 62
     5
 10
79.0
 20
74.200000000000045
 30
0.0
 11
79.0
 21
77.0
 31
0.0
  0
ARC
  8
DETAIL
  6
CONTINOUS
 62
     5
 10
76.700000000000045
 20
77.0
 30
0.0
 40
2.2999999999999998
 50
0.0
 51
90.0
  0
LINE
  8
DETAIL
  6
CONTINOUS
 62
     5
 10
65.700000000000045
 20
71.899999999999977
 30
0.0
 11
76.700000000000045
 21
71.899999999999977
 31
0.0
  0
ARC
  8
DETAIL
  6
CONTINOUS
 62
     5
 10
65.700000000000045
 20
74.200000000000045
 30
0.0
 40
2.2999999999999998
 50
180.0
 51
270.0
  0
LINE
  8
DETAIL
  6
CONTINOUS
 62
     5
 10
63.399999999999977
 20
74.200000000000045
 30
0.0
 11
63.399999999999977
 21
77.0
 31
0.0
  0
LINE
  8
DETAIL
  6
CONTINOUS
 62
     5
 10
65.700000000000045
 20
79.299999999999955
 30
0.0
 11
76.700000000000045
 21
79.299999999999955
 31
0.0
  0
ARC
  8
DETAIL
  6
CONTINOUS
 62
     5
 10
65.700000000000045
 20
77.0
 30
0.0
 40
2.2999999999999998
 50
90.0
 51
180.0
  0
ARC
  8
DETAIL
  6
CONTINOUS
 62
     5
 10
76.700000000000045
 20
64.200000000000045
 30
0.0
 40
2.2999999999999998
 50
270.0
 51
0.0
  0
LINE
  8
DETAIL
  6
CONTINOUS
 62
     5
 10
79.0
 20
64.200000000000045
 30
0.0
 11
79.0
 21
67.0
 31
0.0
  0
ARC
  8
DETAIL
  6
CONTINOUS
 62
     5
 10
76.700000000000045
 20
67.0
 30
0.0
 40
2.2999999999999998
 50
0.0
 51
90.0
  0
LINE
  8
DETAIL
  6
CONTINOUS
 62
     5
 10
65.700000000000045
 20
61.899999999999977
 30
0.0
 11
76.700000000000045
 21
61.899999999999977
 31
0.0
  0
ARC
  8
DETAIL
  6
CONTINOUS
 62
     5
 10
65.700000000000045
 20
64.200000000000045
 30
0.0
 40
2.2999999999999998
 50
180.0
 51
270.0
  0
LINE
  8
DETAIL
  6
CONTINOUS
 62
     5
 10
63.399999999999977
 20
64.200000000000045
 30
0.0
 11
63.399999999999977
 21
67.0
 31
0.0
  0
LINE
  8
DETAIL
  6
CONTINOUS
 62
     5
 10
65.700000000000045
 20
69.299999999999955
 30
0.0
 11
76.700000000000045
 21
69.299999999999955
 31
0.0
  0
ARC
  8
DETAIL
  6
CONTINOUS
 62
     5
 10
65.700000000000045
 20
67.0
 30
0.0
 40
2.2999999999999998
 50
90.0
 51
180.0
  0
ARC
  8
DETAIL
  6
CONTINOUS
 62
     5
 10
76.700000000000045
 20
54.200000000000053
 30
0.0
 40
2.2999999999999998
 50
270.0
 51
0.0
  0
LINE
  8
DETAIL
  6
CONTINOUS
 62
     5
 10
79.0
 20
54.200000000000053
 30
0.0
 11
79.0
 21
57.0
 31
0.0
  0
ARC
  8
DETAIL
  6
CONTINOUS
 62
     5
 10
76.700000000000045
 20
57.0
 30
0.0
 40
2.2999999999999998
 50
0.0
 51
90.0
  0
LINE
  8
DETAIL
  6
CONTINOUS
 62
     5
 10
65.700000000000045
 20
51.899999999999977
 30
0.0
 11
76.700000000000045
 21
51.899999999999977
 31
0.0
  0
ARC
  8
DETAIL
  6
CONTINOUS
 62
     5
 10
65.700000000000045
 20
54.200000000000053
 30
0.0
 40
2.2999999999999998
 50
180.0
 51
270.0
  0
LINE
  8
DETAIL
  6
CONTINOUS
 62
     5
 10
63.399999999999977
 20
54.200000000000053
 30
0.0
 11
63.399999999999977
 21
57.0
 31
0.0
  0
LINE
  8
DETAIL
  6
CONTINOUS
 62
     5
 10
65.700000000000045
 20
59.299999999999947
 30
0.0
 11
76.700000000000045
 21
59.299999999999947
 31
0.0
  0
ARC
  8
DETAIL
  6
CONTINOUS
 62
     5
 10
65.700000000000045
 20
57.0
 30
0.0
 40
2.2999999999999998
 50
90.0
 51
180.0
  0
ARC
  8
DETAIL
  6
CONTINOUS
 62
     5
 10
76.700000000000045
 20
44.200000000000053
 30
0.0
 40
2.2999999999999998
 50
270.0
 51
0.0
  0
LINE
  8
DETAIL
  6
CONTINOUS
 62
     5
 10
79.0
 20
44.200000000000053
 30
0.0
 11
79.0
 21
47.0
 31
0.0
  0
ARC
  8
DETAIL
  6
CONTINOUS
 62
     5
 10
76.700000000000045
 20
47.0
 30
0.0
 40
2.2999999999999998
 50
0.0
 51
90.0
  0
LINE
  8
DETAIL
  6
CONTINOUS
 62
     5
 10
65.700000000000045
 20
41.899999999999977
 30
0.0
 11
76.700000000000045
 21
41.899999999999977
 31
0.0
  0
ARC
  8
DETAIL
  6
CONTINOUS
 62
     5
 10
65.700000000000045
 20
44.200000000000053
 30
0.0
 40
2.2999999999999998
 50
180.0
 51
270.0
  0
LINE
  8
DETAIL
  6
CONTINOUS
 62
     5
 10
63.399999999999977
 20
44.200000000000053
 30
0.0
 11
63.399999999999977
 21
47.0
 31
0.0
  0
LINE
  8
DETAIL
  6
CONTINOUS
 62
     5
 10
65.700000000000045
 20
49.299999999999947
 30
0.0
 11
76.700000000000045
 21
49.299999999999947
 31
0.0
  0
ARC
  8
DETAIL
  6
CONTINOUS
 62
     5
 10
65.700000000000045
 20
47.0
 30
0.0
 40
2.2999999999999998
 50
90.0
 51
180.0
  0
ARC
  8
DETAIL
  6
CONTINOUS
 62
     5
 10
76.700000000000045
 20
34.200000000000053
 30
0.0
 40
2.2999999999999998
 50
270.0
 51
0.0
  0
LINE
  8
DETAIL
  6
CONTINOUS
 62
     5
 10
79.0
 20
34.200000000000053
 30
0.0
 11
79.0
 21
37.0
 31
0.0
  0
ARC
  8
DETAIL
  6
CONTINOUS
 62
     5
 10
76.700000000000045
 20
37.0
 30
0.0
 40
2.2999999999999998
 50
0.0
 51
90.0
  0
LINE
  8
DETAIL
  6
CONTINOUS
 62
     5
 10
65.700000000000045
 20
31.899999999999981
 30
0.0
 11
76.700000000000045
 21
31.899999999999981
 31
0.0
  0
ARC
  8
DETAIL
  6
CONTINOUS
 62
     5
 10
65.700000000000045
 20
34.200000000000053
 30
0.0
 40
2.2999999999999998
 50
180.0
 51
270.0
  0
LINE
  8
DETAIL
  6
CONTINOUS
 62
     5
 10
63.399999999999977
 20
34.200000000000053
 30
0.0
 11
63.399999999999977
 21
37.0
 31
0.0
  0
LINE
  8
DETAIL
  6
CONTINOUS
 62
     5
 10
65.700000000000045
 20
39.299999999999947
 30
0.0
 11
76.700000000000045
 21
39.299999999999947
 31
0.0
  0
ARC
  8
DETAIL
  6
CONTINOUS
 62
     5
 10
65.700000000000045
 20
37.0
 30
0.0
 40
2.2999999999999998
 50
90.0
 51
180.0
  0
ARC
  8
DETAIL
  6
CONTINOUS
 62
     5
 10
76.700000000000045
 20
24.200000000000049
 30
0.0
 40
2.2999999999999998
 50
270.0
 51
0.0
  0
LINE
  8
DETAIL
  6
CONTINOUS
 62
     5
 10
79.0
 20
24.200000000000049
 30
0.0
 11
79.0
 21
27.0
 31
0.0
  0
ARC
  8
DETAIL
  6
CONTINOUS
 62
     5
 10
76.700000000000045
 20
27.0
 30
0.0
 40
2.2999999999999998
 50
0.0
 51
90.0
  0
LINE
  8
DETAIL
  6
CONTINOUS
 62
     5
 10
65.700000000000045
 20
21.899999999999981
 30
0.0
 11
76.700000000000045
 21
21.899999999999981
 31
0.0
  0
ARC
  8
DETAIL
  6
CONTINOUS
 62
     5
 10
65.700000000000045
 20
24.200000000000049
 30
0.0
 40
2.2999999999999998
 50
180.0
 51
270.0
  0
LINE
  8
DETAIL
  6
CONTINOUS
 62
     5
 10
63.399999999999977
 20
24.200000000000049
 30
0.0
 11
63.399999999999977
 21
27.0
 31
0.0
  0
LINE
  8
DETAIL
  6
CONTINOUS
 62
     5
 10
65.700000000000045
 20
29.299999999999951
 30
0.0
 11
76.700000000000045
 21
29.299999999999951
 31
0.0
  0
ARC
  8
DETAIL
  6
CONTINOUS
 62
     5
 10
65.700000000000045
 20
27.0
 30
0.0
 40
2.2999999999999998
 50
90.0
 51
180.0
  0
ARC
  8
DETAIL
  6
CONTINOUS
 62
     5
 10
76.700000000000045
 20
14.200000000000051
 30
0.0
 40
2.2999999999999998
 50
270.0
 51
0.0
  0
LINE
  8
DETAIL
  6
CONTINOUS
 62
     5
 10
79.0
 20
14.200000000000051
 30
0.0
 11
79.0
 21
17.0
 31
0.0
  0
ARC
  8
DETAIL
  6
CONTINOUS
 62
     5
 10
76.700000000000045
 20
17.0
 30
0.0
 40
2.2999999999999998
 50
0.0
 51
90.0
  0
LINE
  8
DETAIL
  6
CONTINOUS
 62
     5
 10
65.700000000000045
 20
11.899999999999981
 30
0.0
 11
76.700000000000045
 21
11.899999999999981
 31
0.0
  0
ARC
  8
DETAIL
  6
CONTINOUS
 62
     5
 10
65.700000000000045
 20
14.200000000000051
 30
0.0
 40
2.2999999999999998
 50
180.0
 51
270.0
  0
LINE
  8
DETAIL
  6
CONTINOUS
 62
     5
 10
63.399999999999977
 20
14.200000000000051
 30
0.0
 11
63.399999999999977
 21
17.0
 31
0.0
  0
LINE
  8
DETAIL
  6
CONTINOUS
 62
     5
 10
65.700000000000045
 20
19.299999999999951
 30
0.0
 11
76.700000000000045
 21
19.299999999999951
 31
0.0
  0
ARC
  8
DETAIL
  6
CONTINOUS
 62
     5
 10
65.700000000000045
 20
17.0
 30
0.0
 40
2.2999999999999998
 50
90.0
 51
180.0
  0
ARC
  8
DETAIL
  6
CONTINOUS
 62
     5
 10
65.700000000000045
 20
7.0
 30
0.0
 40
2.2999999999999998
 50
90.0
 51
180.0
  0
LINE
  8
DETAIL
  6
CONTINOUS
 62
     5
 10
65.700000000000045
 20
9.2999999999999545
 30
0.0
 11
76.700000000000045
 21
9.2999999999999545
 31
0.0
  0
LINE
  8
DETAIL
  6
CONTINOUS
 62
     5
 10
63.399999999999977
 20
4.2000000000000446
 30
0.0
 11
63.399999999999977
 21
7.0
 31
0.0
  0
ARC
  8
DETAIL
  6
CONTINOUS
 62
     5
 10
65.700000000000045
 20
4.2000000000000446
 30
0.0
 40
2.2999999999999998
 50
180.0
 51
270.0
  0
LINE
  8
DETAIL
  6
CONTINOUS
 62
     5
 10
65.700000000000045
 20
1.899999999999977
 30
0.0
 11
76.700000000000045
 21
1.899999999999977
 31
0.0
  0
ARC
  8
DETAIL
  6
CONTINOUS
 62
     5
 10
76.700000000000045
 20
7.0
 30
0.0
 40
2.2999999999999998
 50
0.0
 51
90.0
  0
LINE
  8
DETAIL
  6
CONTINOUS
 62
     5
 10
79.0
 20
4.2000000000000446
 30
0.0
 11
79.0
 21
7.0
 31
0.0
  0
ARC
  8
DETAIL
  6
CONTINOUS
 62
     5
 10
76.700000000000045
 20
4.2000000000000446
 30
0.0
 40
2.2999999999999998
 50
270.0
 51
0.0
  0
ARC
  8
DETAIL
  6
CONTINOUS
 62
     5
 10
57.899999999999977
 20
87.0
 30
0.0
 40
2.2999999999999998
 50
0.0
 51
90.0
  0
ARC
  8
DETAIL
  6
CONTINOUS
 62
     5
 10
57.899999999999977
 20
97.0
 30
0.0
 40
2.2999999999999998
 50
0.0
 51
90.0
  0
ARC
  8
DETAIL
  6
CONTINOUS
 62
     5
 10
57.899999999999977
 20
94.200000000000045
 30
0.0
 40
2.2999999999999998
 50
270.0
 51
0.0
  0
ARC
  8
DETAIL
  6
CONTINOUS
 62
     5
 10
57.899999999999977
 20
107.0
 30
0.0
 40
2.2999999999999998
 50
0.0
 51
90.0
  0
ARC
  8
DETAIL
  6
CONTINOUS
 62
     5
 10
57.899999999999977
 20
104.2
 30
0.0
 40
2.2999999999999998
 50
270.0
 51
0.0
  0
ARC
  8
DETAIL
  6
CONTINOUS
 62
     5
 10
57.899999999999977
 20
117.0
 30
0.0
 40
2.2999999999999998
 50
0.0
 51
90.0
  0
ARC
  8
DETAIL
  6
CONTINOUS
 62
     5
 10
57.899999999999977
 20
114.2
 30
0.0
 40
2.2999999999999998
 50
270.0
 51
0.0
  0
ARC
  8
DETAIL
  6
CONTINOUS
 62
     5
 10
46.899999999999977
 20
87.0
 30
0.0
 40
2.2999999999999998
 50
90.0
 51
180.0
  0
LINE
  8
DETAIL
  6
CONTINOUS
 62
     5
 10
46.899999999999977
 20
89.299999999999955
 30
0.0
 11
57.899999999999977
 21
89.299999999999955
 31
0.0
  0
LINE
  8
DETAIL
  6
CONTINOUS
 62
     5
 10
44.600000000000023
 20
84.200000000000045
 30
0.0
 11
44.600000000000023
 21
87.0
 31
0.0
  0
ARC
  8
DETAIL
  6
CONTINOUS
 62
     5
 10
46.899999999999977
 20
97.0
 30
0.0
 40
2.2999999999999998
 50
90.0
 51
180.0
  0
LINE
  8
DETAIL
  6
CONTINOUS
 62
     5
 10
46.899999999999977
 20
99.299999999999955
 30
0.0
 11
57.899999999999977
 21
99.299999999999955
 31
0.0
  0
LINE
  8
DETAIL
  6
CONTINOUS
 62
     5
 10
44.600000000000023
 20
94.200000000000045
 30
0.0
 11
44.600000000000023
 21
97.0
 31
0.0
  0
ARC
  8
DETAIL
  6
CONTINOUS
 62
     5
 10
46.899999999999977
 20
94.200000000000045
 30
0.0
 40
2.2999999999999998
 50
180.0
 51
270.0
  0
LINE
  8
DETAIL
  6
CONTINOUS
 62
     5
 10
46.899999999999977
 20
91.899999999999977
 30
0.0
 11
57.899999999999977
 21
91.899999999999977
 31
0.0
  0
ARC
  8
DETAIL
  6
CONTINOUS
 62
     5
 10
46.899999999999977
 20
107.0
 30
0.0
 40
2.2999999999999998
 50
90.0
 51
180.0
  0
LINE
  8
DETAIL
  6
CONTINOUS
 62
     5
 10
46.899999999999977
 20
109.3
 30
0.0
 11
57.899999999999977
 21
109.3
 31
0.0
  0
LINE
  8
DETAIL
  6
CONTINOUS
 62
     5
 10
44.600000000000023
 20
104.2
 30
0.0
 11
44.600000000000023
 21
107.0
 31
0.0
  0
ARC
  8
DETAIL
  6
CONTINOUS
 62
     5
 10
46.899999999999977
 20
104.2
 30
0.0
 40
2.2999999999999998
 50
180.0
 51
270.0
  0
LINE
  8
DETAIL
  6
CONTINOUS
 62
     5
 10
46.899999999999977
 20
101.90000000000001
 30
0.0
 11
57.899999999999977
 21
101.90000000000001
 31
0.0
  0
ARC
  8
DETAIL
  6
CONTINOUS
 62
     5
 10
46.899999999999977
 20
117.0
 30
0.0
 40
2.2999999999999998
 50
90.0
 51
180.0
  0
LINE
  8
DETAIL
  6
CONTINOUS
 62
     5
 10
46.899999999999977
 20
119.3
 30
0.0
 11
57.899999999999977
 21
119.3
 31
0.0
  0
LINE
  8
DETAIL
  6
CONTINOUS
 62
     5
 10
44.600000000000023
 20
114.2
 30
0.0
 11
44.600000000000023
 21
117.0
 31
0.0
  0
ARC
  8
DETAIL
  6
CONTINOUS
 62
     5
 10
46.899999999999977
 20
114.2
 30
0.0
 40
2.2999999999999998
 50
180.0
 51
270.0
  0
LINE
  8
DETAIL
  6
CONTINOUS
 62
     5
 10
46.899999999999977
 20
111.90000000000001
 30
0.0
 11
57.899999999999977
 21
111.90000000000001
 31
0.0
  0
ARC
  8
DETAIL
  6
CONTINOUS
 62
     5
 10
24.5
 20
87.0
 30
0.0
 40
2.2999999999999998
 50
90.0
 51
180.0
  0
LINE
  8
DETAIL
  6
CONTINOUS
 62
     5
 10
24.5
 20
89.299999999999955
 30
0.0
 11
35.5
 21
89.299999999999955
 31
0.0
  0
LINE
  8
DETAIL
  6
CONTINOUS
 62
     5
 10
22.200000000000049
 20
84.200000000000045
 30
0.0
 11
22.200000000000049
 21
87.0
 31
0.0
  0
ARC
  8
DETAIL
  6
CONTINOUS
 62
     5
 10
35.5
 20
87.0
 30
0.0
 40
2.2999999999999998
 50
0.0
 51
90.0
  0
LINE
  8
DETAIL
  6
CONTINOUS
 62
     5
 10
37.799999999999947
 20
84.200000000000045
 30
0.0
 11
37.799999999999947
 21
87.0
 31
0.0
  0
ARC
  8
DETAIL
  6
CONTINOUS
 62
     5
 10
24.5
 20
97.0
 30
0.0
 40
2.2999999999999998
 50
90.0
 51
180.0
  0
LINE
  8
DETAIL
  6
CONTINOUS
 62
     5
 10
24.5
 20
99.299999999999955
 30
0.0
 11
35.5
 21
99.299999999999955
 31
0.0
  0
LINE
  8
DETAIL
  6
CONTINOUS
 62
     5
 10
22.200000000000049
 20
94.200000000000045
 30
0.0
 11
22.200000000000049
 21
97.0
 31
0.0
  0
ARC
  8
DETAIL
  6
CONTINOUS
 62
     5
 10
24.5
 20
94.200000000000045
 30
0.0
 40
2.2999999999999998
 50
180.0
 51
270.0
  0
LINE
  8
DETAIL
  6
CONTINOUS
 62
     5
 10
24.5
 20
91.899999999999977
 30
0.0
 11
35.5
 21
91.899999999999977
 31
0.0
  0
ARC
  8
DETAIL
  6
CONTINOUS
 62
     5
 10
35.5
 20
97.0
 30
0.0
 40
2.2999999999999998
 50
0.0
 51
90.0
  0
LINE
  8
DETAIL
  6
CONTINOUS
 62
     5
 10
37.799999999999947
 20
94.200000000000045
 30
0.0
 11
37.799999999999947
 21
97.0
 31
0.0
  0
ARC
  8
DETAIL
  6
CONTINOUS
 62
     5
 10
35.5
 20
94.200000000000045
 30
0.0
 40
2.2999999999999998
 50
270.0
 51
0.0
  0
ARC
  8
DETAIL
  6
CONTINOUS
 62
     5
 10
24.5
 20
107.0
 30
0.0
 40
2.2999999999999998
 50
90.0
 51
180.0
  0
LINE
  8
DETAIL
  6
CONTINOUS
 62
     5
 10
24.5
 20
109.3
 30
0.0
 11
35.5
 21
109.3
 31
0.0
  0
LINE
  8
DETAIL
  6
CONTINOUS
 62
     5
 10
22.200000000000049
 20
104.2
 30
0.0
 11
22.200000000000049
 21
107.0
 31
0.0
  0
ARC
  8
DETAIL
  6
CONTINOUS
 62
     5
 10
24.5
 20
104.2
 30
0.0
 40
2.2999999999999998
 50
180.0
 51
270.0
  0
LINE
  8
DETAIL
  6
CONTINOUS
 62
     5
 10
24.5
 20
101.90000000000001
 30
0.0
 11
35.5
 21
101.90000000000001
 31
0.0
  0
ARC
  8
DETAIL
  6
CONTINOUS
 62
     5
 10
35.5
 20
107.0
 30
0.0
 40
2.2999999999999998
 50
0.0
 51
90.0
  0
LINE
  8
DETAIL
  6
CONTINOUS
 62
     5
 10
37.799999999999947
 20
104.2
 30
0.0
 11
37.799999999999947
 21
107.0
 31
0.0
  0
ARC
  8
DETAIL
  6
CONTINOUS
 62
     5
 10
35.5
 20
104.2
 30
0.0
 40
2.2999999999999998
 50
270.0
 51
0.0
  0
ARC
  8
DETAIL
  6
CONTINOUS
 62
     5
 10
24.5
 20
117.0
 30
0.0
 40
2.2999999999999998
 50
90.0
 51
180.0
  0
LINE
  8
DETAIL
  6
CONTINOUS
 62
     5
 10
24.5
 20
119.3
 30
0.0
 11
35.5
 21
119.3
 31
0.0
  0
LINE
  8
DETAIL
  6
CONTINOUS
 62
     5
 10
22.200000000000049
 20
114.2
 30
0.0
 11
22.200000000000049
 21
117.0
 31
0.0
  0
ARC
  8
DETAIL
  6
CONTINOUS
 62
     5
 10
24.5
 20
114.2
 30
0.0
 40
2.2999999999999998
 50
180.0
 51
270.0
  0
LINE
  8
DETAIL
  6
CONTINOUS
 62
     5
 10
24.5
 20
111.90000000000001
 30
0.0
 11
35.5
 21
111.90000000000001
 31
0.0
  0
ARC
  8
DETAIL
  6
CONTINOUS
 62
     5
 10
35.5
 20
117.0
 30
0.0
 40
2.2999999999999998
 50
0.0
 51
90.0
  0
LINE
  8
DETAIL
  6
CONTINOUS
 62
     5
 10
37.799999999999947
 20
114.2
 30
0.0
 11
37.799999999999947
 21
117.0
 31
0.0
  0
ARC
  8
DETAIL
  6
CONTINOUS
 62
     5
 10
35.5
 20
114.2
 30
0.0
 40
2.2999999999999998
 50
270.0
 51
0.0
  0
ARC
  8
DETAIL
  6
CONTINOUS
 62
     5
 10
16.700000000000049
 20
114.2
 30
0.0
 40
2.2999999999999998
 50
270.0
 51
0.0
  0
LINE
  8
DETAIL
  6
CONTINOUS
 62
     5
 10
19.0
 20
114.2
 30
0.0
 11
19.0
 21
117.0
 31
0.0
  0
ARC
  8
DETAIL
  6
CONTINOUS
 62
     5
 10
16.700000000000049
 20
117.0
 30
0.0
 40
2.2999999999999998
 50
0.0
 51
90.0
  0
LINE
  8
DETAIL
  6
CONTINOUS
 62
     5
 10
5.7000000000000446
 20
111.90000000000001
 30
0.0
 11
16.700000000000049
 21
111.90000000000001
 31
0.0
  0
ARC
  8
DETAIL
  6
CONTINOUS
 62
     5
 10
5.7000000000000446
 20
114.2
 30
0.0
 40
2.2999999999999998
 50
180.0
 51
270.0
  0
LINE
  8
DETAIL
  6
CONTINOUS
 62
     5
 10
3.3999999999999768
 20
114.2
 30
0.0
 11
3.3999999999999768
 21
117.0
 31
0.0
  0
LINE
  8
DETAIL
  6
CONTINOUS
 62
     5
 10
5.7000000000000446
 20
119.3
 30
0.0
 11
16.700000000000049
 21
119.3
 31
0.0
  0
ARC
  8
DETAIL
  6
CONTINOUS
 62
     5
 10
5.7000000000000446
 20
117.0
 30
0.0
 40
2.2999999999999998
 50
90.0
 51
180.0
  0
ARC
  8
DETAIL
  6
CONTINOUS
 62
     5
 10
16.700000000000049
 20
104.2
 30
0.0
 40
2.2999999999999998
 50
270.0
 51
0.0
  0
LINE
  8
DETAIL
  6
CONTINOUS
 62
     5
 10
19.0
 20
104.2
 30
0.0
 11
19.0
 21
107.0
 31
0.0
  0
ARC
  8
DETAIL
  6
CONTINOUS
 62
     5
 10
16.700000000000049
 20
107.0
 30
0.0
 40
2.2999999999999998
 50
0.0
 51
90.0
  0
LINE
  8
DETAIL
  6
CONTINOUS
 62
     5
 10
5.7000000000000446
 20
101.90000000000001
 30
0.0
 11
16.700000000000049
 21
101.90000000000001
 31
0.0
  0
ARC
  8
DETAIL
  6
CONTINOUS
 62
     5
 10
5.7000000000000446
 20
104.2
 30
0.0
 40
2.2999999999999998
 50
180.0
 51
270.0
  0
LINE
  8
DETAIL
  6
CONTINOUS
 62
     5
 10
3.3999999999999768
 20
104.2
 30
0.0
 11
3.3999999999999768
 21
107.0
 31
0.0
  0
LINE
  8
DETAIL
  6
CONTINOUS
 62
     5
 10
5.7000000000000446
 20
109.3
 30
0.0
 11
16.700000000000049
 21
109.3
 31
0.0
  0
ARC
  8
DETAIL
  6
CONTINOUS
 62
     5
 10
5.7000000000000446
 20
107.0
 30
0.0
 40
2.2999999999999998
 50
90.0
 51
180.0
  0
ARC
  8
DETAIL
  6
CONTINOUS
 62
     5
 10
16.700000000000049
 20
94.200000000000045
 30
0.0
 40
2.2999999999999998
 50
270.0
 51
0.0
  0
LINE
  8
DETAIL
  6
CONTINOUS
 62
     5
 10
19.0
 20
94.200000000000045
 30
0.0
 11
19.0
 21
97.0
 31
0.0
  0
ARC
  8
DETAIL
  6
CONTINOUS
 62
     5
 10
16.700000000000049
 20
97.0
 30
0.0
 40
2.2999999999999998
 50
0.0
 51
90.0
  0
LINE
  8
DETAIL
  6
CONTINOUS
 62
     5
 10
5.7000000000000446
 20
91.899999999999977
 30
0.0
 11
16.700000000000049
 21
91.899999999999977
 31
0.0
  0
ARC
  8
DETAIL
  6
CONTINOUS
 62
     5
 10
5.7000000000000446
 20
94.200000000000045
 30
0.0
 40
2.2999999999999998
 50
180.0
 51
270.0
  0
LINE
  8
DETAIL
  6
CONTINOUS
 62
     5
 10
3.3999999999999768
 20
94.200000000000045
 30
0.0
 11
3.3999999999999768
 21
97.0
 31
0.0
  0
LINE
  8
DETAIL
  6
CONTINOUS
 62
     5
 10
5.7000000000000446
 20
99.299999999999955
 30
0.0
 11
16.700000000000049
 21
99.299999999999955
 31
0.0
  0
ARC
  8
DETAIL
  6
CONTINOUS
 62
     5
 10
5.7000000000000446
 20
97.0
 30
0.0
 40
2.2999999999999998
 50
90.0
 51
180.0
  0
LINE
  8
DETAIL
  6
CONTINOUS
 62
     5
 10
19.0
 20
84.200000000000045
 30
0.0
 11
19.0
 21
87.0
 31
0.0
  0
ARC
  8
DETAIL
  6
CONTINOUS
 62
     5
 10
16.700000000000049
 20
87.0
 30
0.0
 40
2.2999999999999998
 50
0.0
 51
90.0
  0
LINE
  8
DETAIL
  6
CONTINOUS
 62
     5
 10
3.3999999999999768
 20
84.200000000000045
 30
0.0
 11
3.3999999999999768
 21
87.0
 31
0.0
  0
LINE
  8
DETAIL
  6
CONTINOUS
 62
     5
 10
5.7000000000000446
 20
89.299999999999955
 30
0.0
 11
16.700000000000049
 21
89.299999999999955
 31
0.0
  0
ARC
  8
DETAIL
  6
CONTINOUS
 62
     5
 10
5.7000000000000446
 20
87.0
 30
0.0
 40
2.2999999999999998
 50
90.0
 51
180.0
  0
ARC
  8
DETAIL
  6
CONTINOUS
 62
     5
 10
88.100000000000023
 20
87.0
 30
0.0
 40
2.2999999999999998
 50
90.0
 51
180.0
  0
LINE
  8
DETAIL
  6
CONTINOUS
 62
     5
 10
88.100000000000023
 20
89.299999999999955
 30
0.0
 11
99.100000000000023
 21
89.299999999999955
 31
0.0
  0
LINE
  8
DETAIL
  6
CONTINOUS
 62
     5
 10
85.799999999999955
 20
84.200000000000045
 30
0.0
 11
85.799999999999955
 21
87.0
 31
0.0
  0
ARC
  8
DETAIL
  6
CONTINOUS
 62
     5
 10
99.100000000000023
 20
87.0
 30
0.0
 40
2.2999999999999998
 50
0.0
 51
90.0
  0
LINE
  8
DETAIL
  6
CONTINOUS
 62
     5
 10
101.40000000000001
 20
84.200000000000045
 30
0.0
 11
101.40000000000001
 21
87.0
 31
0.0
  0
ARC
  8
DETAIL
  6
CONTINOUS
 62
     5
 10
88.100000000000023
 20
97.0
 30
0.0
 40
2.2999999999999998
 50
90.0
 51
180.0
  0
LINE
  8
DETAIL
  6
CONTINOUS
 62
     5
 10
88.100000000000023
 20
99.299999999999955
 30
0.0
 11
99.100000000000023
 21
99.299999999999955
 31
0.0
  0
LINE
  8
DETAIL
  6
CONTINOUS
 62
     5
 10
85.799999999999955
 20
94.200000000000045
 30
0.0
 11
85.799999999999955
 21
97.0
 31
0.0
  0
ARC
  8
DETAIL
  6
CONTINOUS
 62
     5
 10
88.100000000000023
 20
94.200000000000045
 30
0.0
 40
2.2999999999999998
 50
180.0
 51
270.0
  0
LINE
  8
DETAIL
  6
CONTINOUS
 62
     5
 10
88.100000000000023
 20
91.899999999999977
 30
0.0
 11
99.100000000000023
 21
91.899999999999977
 31
0.0
  0
ARC
  8
DETAIL
  6
CONTINOUS
 62
     5
 10
99.100000000000023
 20
97.0
 30
0.0
 40
2.2999999999999998
 50
0.0
 51
90.0
  0
LINE
  8
DETAIL
  6
CONTINOUS
 62
     5
 10
101.40000000000001
 20
94.200000000000045
 30
0.0
 11
101.40000000000001
 21
97.0
 31
0.0
  0
ARC
  8
DETAIL
  6
CONTINOUS
 62
     5
 10
99.100000000000023
 20
94.200000000000045
 30
0.0
 40
2.2999999999999998
 50
270.0
 51
0.0
  0
ARC
  8
DETAIL
  6
CONTINOUS
 62
     5
 10
88.100000000000023
 20
107.0
 30
0.0
 40
2.2999999999999998
 50
90.0
 51
180.0
  0
LINE
  8
DETAIL
  6
CONTINOUS
 62
     5
 10
88.100000000000023
 20
109.3
 30
0.0
 11
99.100000000000023
 21
109.3
 31
0.0
  0
LINE
  8
DETAIL
  6
CONTINOUS
 62
     5
 10
85.799999999999955
 20
104.2
 30
0.0
 11
85.799999999999955
 21
107.0
 31
0.0
  0
ARC
  8
DETAIL
  6
CONTINOUS
 62
     5
 10
88.100000000000023
 20
104.2
 30
0.0
 40
2.2999999999999998
 50
180.0
 51
270.0
  0
LINE
  8
DETAIL
  6
CONTINOUS
 62
     5
 10
88.100000000000023
 20
101.90000000000001
 30
0.0
 11
99.100000000000023
 21
101.90000000000001
 31
0.0
  0
ARC
  8
DETAIL
  6
CONTINOUS
 62
     5
 10
99.100000000000023
 20
107.0
 30
0.0
 40
2.2999999999999998
 50
0.0
 51
90.0
  0
LINE
  8
DETAIL
  6
CONTINOUS
 62
     5
 10
101.40000000000001
 20
104.2
 30
0.0
 11
101.40000000000001
 21
107.0
 31
0.0
  0
ARC
  8
DETAIL
  6
CONTINOUS
 62
     5
 10
99.100000000000023
 20
104.2
 30
0.0
 40
2.2999999999999998
 50
270.0
 51
0.0
  0
ARC
  8
DETAIL
  6
CONTINOUS
 62
     5
 10
88.100000000000023
 20
117.0
 30
0.0
 40
2.2999999999999998
 50
90.0
 51
180.0
  0
LINE
  8
DETAIL
  6
CONTINOUS
 62
     5
 10
88.100000000000023
 20
119.3
 30
0.0
 11
99.100000000000023
 21
119.3
 31
0.0
  0
LINE
  8
DETAIL
  6
CONTINOUS
 62
     5
 10
85.799999999999955
 20
114.2
 30
0.0
 11
85.799999999999955
 21
117.0
 31
0.0
  0
ARC
  8
DETAIL
  6
CONTINOUS
 62
     5
 10
88.100000000000023
 20
114.2
 30
0.0
 40
2.2999999999999998
 50
180.0
 51
270.0
  0
LINE
  8
DETAIL
  6
CONTINOUS
 62
     5
 10
88.100000000000023
 20
111.90000000000001
 30
0.0
 11
99.100000000000023
 21
111.90000000000001
 31
0.0
  0
ARC
  8
DETAIL
  6
CONTINOUS
 62
     5
 10
99.100000000000023
 20
117.0
 30
0.0
 40
2.2999999999999998
 50
0.0
 51
90.0
  0
LINE
  8
DETAIL
  6
CONTINOUS
 62
     5
 10
101.40000000000001
 20
114.2
 30
0.0
 11
101.40000000000001
 21
117.0
 31
0.0
  0
ARC
  8
DETAIL
  6
CONTINOUS
 62
     5
 10
99.100000000000023
 20
114.2
 30
0.0
 40
2.2999999999999998
 50
270.0
 51
0.0
  0
ARC
  8
DETAIL
  6
CONTINOUS
 62
     5
 10
106.90000000000001
 20
114.2
 30
0.0
 40
2.2999999999999998
 50
180.0
 51
270.0
  0
LINE
  8
DETAIL
  6
CONTINOUS
 62
     5
 10
104.59999999999999
 20
114.2
 30
0.0
 11
104.59999999999999
 21
117.0
 31
0.0
  0
ARC
  8
DETAIL
  6
CONTINOUS
 62
     5
 10
106.90000000000001
 20
117.0
 30
0.0
 40
2.2999999999999998
 50
90.0
 51
180.0
  0
ARC
  8
DETAIL
  6
CONTINOUS
 62
     5
 10
106.90000000000001
 20
104.2
 30
0.0
 40
2.2999999999999998
 50
180.0
 51
270.0
  0
LINE
  8
DETAIL
  6
CONTINOUS
 62
     5
 10
104.59999999999999
 20
104.2
 30
0.0
 11
104.59999999999999
 21
107.0
 31
0.0
  0
ARC
  8
DETAIL
  6
CONTINOUS
 62
     5
 10
106.90000000000001
 20
107.0
 30
0.0
 40
2.2999999999999998
 50
90.0
 51
180.0
  0
ARC
  8
DETAIL
  6
CONTINOUS
 62
     5
 10
106.90000000000001
 20
94.200000000000045
 30
0.0
 40
2.2999999999999998
 50
180.0
 51
270.0
  0
LINE
  8
DETAIL
  6
CONTINOUS
 62
     5
 10
104.59999999999999
 20
94.200000000000045
 30
0.0
 11
104.59999999999999
 21
97.0
 31
0.0
  0
ARC
  8
DETAIL
  6
CONTINOUS
 62
     5
 10
106.90000000000001
 20
97.0
 30
0.0
 40
2.2999999999999998
 50
90.0
 51
180.0
  0
LINE
  8
DETAIL
  6
CONTINOUS
 62
     5
 10
104.59999999999999
 20
84.200000000000045
 30
0.0
 11
104.59999999999999
 21
87.0
 31
0.0
  0
ARC
  8
DETAIL
  6
CONTINOUS
 62
     5
 10
106.90000000000001
 20
87.0
 30
0.0
 40
2.2999999999999998
 50
90.0
 51
180.0
  0
LINE
  8
DETAIL
  6
CONTINOUS
 62
     5
 10
60.200000000000053
 20
84.200000000000045
 30
0.0
 11
60.200000000000053
 21
87.0
 31
0.0
  0
LINE
  8
DETAIL
  6
CONTINOUS
 62
     5
 10
60.200000000000053
 20
94.200000000000045
 30
0.0
 11
60.200000000000053
 21
97.0
 31
0.0
  0
LINE
  8
DETAIL
  6
CONTINOUS
 62
     5
 10
60.200000000000053
 20
104.2
 30
0.0
 11
60.200000000000053
 21
107.0
 31
0.0
  0
LINE
  8
DETAIL
  6
CONTINOUS
 62
     5
 10
60.200000000000053
 20
114.2
 30
0.0
 11
60.200000000000053
 21
117.0
 31
0.0
  0
ARC
  8
DETAIL
  6
CONTINOUS
 62
     5
 10
76.700000000000045
 20
114.2
 30
0.0
 40
2.2999999999999998
 50
270.0
 51
0.0
  0
LINE
  8
DETAIL
  6
CONTINOUS
 62
     5
 10
79.0
 20
114.2
 30
0.0
 11
79.0
 21
117.0
 31
0.0
  0
ARC
  8
DETAIL
  6
CONTINOUS
 62
     5
 10
76.700000000000045
 20
117.0
 30
0.0
 40
2.2999999999999998
 50
0.0
 51
90.0
  0
LINE
  8
DETAIL
  6
CONTINOUS
 62
     5
 10
65.700000000000045
 20
111.90000000000001
 30
0.0
 11
76.700000000000045
 21
111.90000000000001
 31
0.0
  0
ARC
  8
DETAIL
  6
CONTINOUS
 62
     5
 10
65.700000000000045
 20
114.2
 30
0.0
 40
2.2999999999999998
 50
180.0
 51
270.0
  0
LINE
  8
DETAIL
  6
CONTINOUS
 62
     5
 10
63.399999999999977
 20
114.2
 30
0.0
 11
63.399999999999977
 21
117.0
 31
0.0
  0
LINE
  8
DETAIL
  6
CONTINOUS
 62
     5
 10
65.700000000000045
 20
119.3
 30
0.0
 11
76.700000000000045
 21
119.3
 31
0.0
  0
ARC
  8
DETAIL
  6
CONTINOUS
 62
     5
 10
65.700000000000045
 20
117.0
 30
0.0
 40
2.2999999999999998
 50
90.0
 51
180.0
  0
ARC
  8
DETAIL
  6
CONTINOUS
 62
     5
 10
76.700000000000045
 20
104.2
 30
0.0
 40
2.2999999999999998
 50
270.0
 51
0.0
  0
LINE
  8
DETAIL
  6
CONTINOUS
 62
     5
 10
79.0
 20
104.2
 30
0.0
 11
79.0
 21
107.0
 31
0.0
  0
ARC
  8
DETAIL
  6
CONTINOUS
 62
     5
 10
76.700000000000045
 20
107.0
 30
0.0
 40
2.2999999999999998
 50
0.0
 51
90.0
  0
LINE
  8
DETAIL
  6
CONTINOUS
 62
     5
 10
65.700000000000045
 20
101.90000000000001
 30
0.0
 11
76.700000000000045
 21
101.90000000000001
 31
0.0
  0
ARC
  8
DETAIL
  6
CONTINOUS
 62
     5
 10
65.700000000000045
 20
104.2
 30
0.0
 40
2.2999999999999998
 50
180.0
 51
270.0
  0
LINE
  8
DETAIL
  6
CONTINOUS
 62
     5
 10
63.399999999999977
 20
104.2
 30
0.0
 11
63.399999999999977
 21
107.0
 31
0.0
  0
LINE
  8
DETAIL
  6
CONTINOUS
 62
     5
 10
65.700000000000045
 20
109.3
 30
0.0
 11
76.700000000000045
 21
109.3
 31
0.0
  0
ARC
  8
DETAIL
  6
CONTINOUS
 62
     5
 10
65.700000000000045
 20
107.0
 30
0.0
 40
2.2999999999999998
 50
90.0
 51
180.0
  0
ARC
  8
DETAIL
  6
CONTINOUS
 62
     5
 10
76.700000000000045
 20
94.200000000000045
 30
0.0
 40
2.2999999999999998
 50
270.0
 51
0.0
  0
LINE
  8
DETAIL
  6
CONTINOUS
 62
     5
 10
79.0
 20
94.200000000000045
 30
0.0
 11
79.0
 21
97.0
 31
0.0
  0
ARC
  8
DETAIL
  6
CONTINOUS
 62
     5
 10
76.700000000000045
 20
97.0
 30
0.0
 40
2.2999999999999998
 50
0.0
 51
90.0
  0
LINE
  8
DETAIL
  6
CONTINOUS
 62
     5
 10
65.700000000000045
 20
91.899999999999977
 30
0.0
 11
76.700000000000045
 21
91.899999999999977
 31
0.0
  0
ARC
  8
DETAIL
  6
CONTINOUS
 62
     5
 10
65.700000000000045
 20
94.200000000000045
 30
0.0
 40
2.2999999999999998
 50
180.0
 51
270.0
  0
LINE
  8
DETAIL
  6
CONTINOUS
 62
     5
 10
63.399999999999977
 20
94.200000000000045
 30
0.0
 11
63.399999999999977
 21
97.0
 31
0.0
  0
LINE
  8
DETAIL
  6
CONTINOUS
 62
     5
 10
65.700000000000045
 20
99.299999999999955
 30
0.0
 11
76.700000000000045
 21
99.299999999999955
 31
0.0
  0
ARC
  8
DETAIL
  6
CONTINOUS
 62
     5
 10
65.700000000000045
 20
97.0
 30
0.0
 40
2.2999999999999998
 50
90.0
 51
180.0
  0
LINE
  8
DETAIL
  6
CONTINOUS
 62
     5
 10
79.0
 20
84.200000000000045
 30
0.0
 11
79.0
 21
87.0
 31
0.0
  0
ARC
  8
DETAIL
  6
CONTINOUS
 62
     5
 10
76.700000000000045
 20
87.0
 30
0.0
 40
2.2999999999999998
 50
0.0
 51
90.0
  0
LINE
  8
DETAIL
  6
CONTINOUS
 62
     5
 10
63.399999999999977
 20
84.200000000000045
 30
0.0
 11
63.399999999999977
 21
87.0
 31
0.0
  0
LINE
  8
DETAIL
  6
CONTINOUS
 62
     5
 10
65.700000000000045
 20
89.299999999999955
 30
0.0
 11
76.700000000000045
 21
89.299999999999955
 31
0.0
  0
ARC
  8
DETAIL
  6
CONTINOUS
 62
     5
 10
65.700000000000045
 20
87.0
 30
0.0
 40
2.2999999999999998
 50
90.0
 51
180.0
  0
ARC
  8
DETAIL
  6
CONTINOUS
 62
     5
 10
117.90000000000001
 20
84.200000000000045
 30
0.0
 40
2.2999999999999998
 50
270.0
 51
0.0
  0
ARC
  8
DETAIL
  6
CONTINOUS
 62
     5
 10
117.90000000000001
 20
74.200000000000045
 30
0.0
 40
2.2999999999999998
 50
270.0
 51
0.0
  0
LINE
  8
DETAIL
  6
CONTINOUS
 62
     5
 10
120.2
 20
74.200000000000045
 30
0.0
 11
120.2
 21
77.0
 31
0.0
  0
ARC
  8
DETAIL
  6
CONTINOUS
 62
     5
 10
117.90000000000001
 20
77.0
 30
0.0
 40
2.2999999999999998
 50
0.0
 51
90.0
  0
ARC
  8
DETAIL
  6
CONTINOUS
 62
     5
 10
117.90000000000001
 20
64.200000000000045
 30
0.0
 40
2.2999999999999998
 50
270.0
 51
0.0
  0
LINE
  8
DETAIL
  6
CONTINOUS
 62
     5
 10
120.2
 20
64.200000000000045
 30
0.0
 11
120.2
 21
67.0
 31
0.0
  0
ARC
  8
DETAIL
  6
CONTINOUS
 62
     5
 10
117.90000000000001
 20
67.0
 30
0.0
 40
2.2999999999999998
 50
0.0
 51
90.0
  0
ARC
  8
DETAIL
  6
CONTINOUS
 62
     5
 10
117.90000000000001
 20
54.200000000000053
 30
0.0
 40
2.2999999999999998
 50
270.0
 51
0.0
  0
LINE
  8
DETAIL
  6
CONTINOUS
 62
     5
 10
120.2
 20
54.200000000000053
 30
0.0
 11
120.2
 21
57.0
 31
0.0
  0
ARC
  8
DETAIL
  6
CONTINOUS
 62
     5
 10
117.90000000000001
 20
57.0
 30
0.0
 40
2.2999999999999998
 50
0.0
 51
90.0
  0
ARC
  8
DETAIL
  6
CONTINOUS
 62
     5
 10
117.90000000000001
 20
44.200000000000053
 30
0.0
 40
2.2999999999999998
 50
270.0
 51
0.0
  0
LINE
  8
DETAIL
  6
CONTINOUS
 62
     5
 10
120.2
 20
44.200000000000053
 30
0.0
 11
120.2
 21
47.0
 31
0.0
  0
ARC
  8
DETAIL
  6
CONTINOUS
 62
     5
 10
117.90000000000001
 20
47.0
 30
0.0
 40
2.2999999999999998
 50
0.0
 51
90.0
  0
ARC
  8
DETAIL
  6
CONTINOUS
 62
     5
 10
117.90000000000001
 20
34.200000000000053
 30
0.0
 40
2.2999999999999998
 50
270.0
 51
0.0
  0
LINE
  8
DETAIL
  6
CONTINOUS
 62
     5
 10
120.2
 20
34.200000000000053
 30
0.0
 11
120.2
 21
37.0
 31
0.0
  0
ARC
  8
DETAIL
  6
CONTINOUS
 62
     5
 10
117.90000000000001
 20
37.0
 30
0.0
 40
2.2999999999999998
 50
0.0
 51
90.0
  0
ARC
  8
DETAIL
  6
CONTINOUS
 62
     5
 10
117.90000000000001
 20
24.200000000000049
 30
0.0
 40
2.2999999999999998
 50
270.0
 51
0.0
  0
LINE
  8
DETAIL
  6
CONTINOUS
 62
     5
 10
120.2
 20
24.200000000000049
 30
0.0
 11
120.2
 21
27.0
 31
0.0
  0
ARC
  8
DETAIL
  6
CONTINOUS
 62
     5
 10
117.90000000000001
 20
27.0
 30
0.0
 40
2.2999999999999998
 50
0.0
 51
90.0
  0
ARC
  8
DETAIL
  6
CONTINOUS
 62
     5
 10
117.90000000000001
 20
14.200000000000051
 30
0.0
 40
2.2999999999999998
 50
270.0
 51
0.0
  0
LINE
  8
DETAIL
  6
CONTINOUS
 62
     5
 10
120.2
 20
14.200000000000051
 30
0.0
 11
120.2
 21
17.0
 31
0.0
  0
ARC
  8
DETAIL
  6
CONTINOUS
 62
     5
 10
117.90000000000001
 20
17.0
 30
0.0
 40
2.2999999999999998
 50
0.0
 51
90.0
  0
ARC
  8
DETAIL
  6
CONTINOUS
 62
     5
 10
117.90000000000001
 20
7.0
 30
0.0
 40
2.2999999999999998
 50
0.0
 51
90.0
  0
LINE
  8
DETAIL
  6
CONTINOUS
 62
     5
 10
120.2
 20
4.2000000000000446
 30
0.0
 11
120.2
 21
7.0
 31
0.0
  0
ARC
  8
DETAIL
  6
CONTINOUS
 62
     5
 10
117.90000000000001
 20
4.2000000000000446
 30
0.0
 40
2.2999999999999998
 50
270.0
 51
0.0
  0
POINT
  8
DEFPOINTS
  6
CONTINUOUS
 62
    30
 10
167.0
 20
149.0
 30
0.0
  0
ARC
  8
DETAIL
  6
CONTINOUS
 62
     5
 10
117.90000000000001
 20
114.2
 30
0.0
 40
2.2999999999999998
 50
270.0
 51
0.0
  0
LINE
  8
DETAIL
  6
CONTINOUS
 62
     5
 10
120.2
 20
114.2
 30
0.0
 11
120.2
 21
117.0
 31
0.0
  0
ARC
  8
DETAIL
  6
CONTINOUS
 62
     5
 10
117.90000000000001
 20
117.0
 30
0.0
 40
2.2999999999999998
 50
0.0
 51
90.0
  0
ARC
  8
DETAIL
  6
CONTINOUS
 62
     5
 10
117.90000000000001
 20
104.2
 30
0.0
 40
2.2999999999999998
 50
270.0
 51
0.0
  0
LINE
  8
DETAIL
  6
CONTINOUS
 62
     5
 10
120.2
 20
104.2
 30
0.0
 11
120.2
 21
107.0
 31
0.0
  0
ARC
  8
DETAIL
  6
CONTINOUS
 62
     5
 10
117.90000000000001
 20
107.0
 30
0.0
 40
2.2999999999999998
 50
0.0
 51
90.0
  0
ARC
  8
DETAIL
  6
CONTINOUS
 62
     5
 10
117.90000000000001
 20
94.200000000000045
 30
0.0
 40
2.2999999999999998
 50
270.0
 51
0.0
  0
LINE
  8
DETAIL
  6
CONTINOUS
 62
     5
 10
120.2
 20
94.200000000000045
 30
0.0
 11
120.2
 21
97.0
 31
0.0
  0
ARC
  8
DETAIL
  6
CONTINOUS
 62
     5
 10
117.90000000000001
 20
97.0
 30
0.0
 40
2.2999999999999998
 50
0.0
 51
90.0
  0
LINE
  8
DETAIL
  6
CONTINOUS
 62
     5
 10
120.2
 20
84.200000000000045
 30
0.0
 11
120.2
 21
87.0
 31
0.0
  0
ARC
  8
DETAIL
  6
CONTINOUS
 62
     5
 10
117.90000000000001
 20
87.0
 30
0.0
 40
2.2999999999999998
 50
0.0
 51
90.0
  0
LINE
  8
SIZE
  6
CONTINUOUS
 62
    30
 10
167.0
 20
169.0
 30
0.0
 11
167.0
 21
316.19570500000009
 31
0.0
  0
LINE
  8
SIZE
  6
CONTINUOUS
 62
    30
 10
167.0
 20
296.19570500000009
 30
0.0
 11
155.0
 21
296.19570500000009
 31
0.0
  0
CIRCLE
  8
SIZE
  6
CONTINUOUS
 62
    30
 10
167.0
 20
296.19570500000009
 30
0.0
 40
6.0
  0
TEXT
  8
ETC
  6
CONTINUOUS
 62
    61
 10
305.56106529986118
 20
235.36519724366889
 30
0.0
 40
64.0
  1
換気扇
 41
0.9
  0
TEXT
  8
ETC
  6
CONTINUOUS
 62
    61
 10
356.16856829986119
 20
127.5294172436688
 30
0.0
 40
40.0
  1
VD-18Z13
 41
0.9
  0
TEXT
  8
ETC
  6
CONTINUOUS
 62
    61
 10
356.16856829986119
 20
57.529417243668831
 30
0.0
 40
40.0
  1
VD-18ZL13
 41
0.9
  0
TEXT
  8
ETC
  6
CONTINUOUS
 62
    61
 10
305.56106529986118
 20
380.11668424366923
 30
0.0
 40
64.0
  1
VD-18Z13_6
 41
0.9
  0
LINE
  8
SIZE
  6
CONTINUOUS
 62
    30
 10
0.0
 20
-226.09844899999999
 30
0.0
 11
0.0
 21
-493.760446
 31
0.0
  0
LINE
  8
SIZE
  6
CONTINUOUS
 62
    30
 10
-67.0
 20
-319.5
 30
0.0
 11
-67.0
 21
-493.760446
 31
0.0
  0
LINE
  8
SIZE
  6
CONTINUOUS
 62
    30
 10
-79.0
 20
-473.760446
 30
0.0
 11
-91.0
 21
-473.760446
 31
0.0
  0
LINE
  8
SIZE
  6
CONTINUOUS
 62
    30
 10
12.0
 20
-473.760446
 30
0.0
 11
167.25714300000001
 21
-473.760446
 31
0.0
  0
LINE
  8
SIZE
  6
CONTINUOUS
 62
    30
 10
-67.0
 20
-473.760446
 30
0.0
 11
0.0
 21
-473.760446
 31
0.0
  0
CIRCLE
  8
SIZE
  6
CONTINUOUS
 62
    30
 10
-67.0
 20
-473.760446
 30
0.0
 40
6.0
  0
LINE
  8
SIZE
  6
CONTINUOUS
 62
    30
 10
-67.0
 20
-473.760446
 30
0.0
 11
-79.0
 21
-473.760446
 31
0.0
  0
CIRCLE
  8
SIZE
  6
CONTINUOUS
 62
    30
 10
0.0
 20
-473.760446
 30
0.0
 40
6.0
  0
LINE
  8
SIZE
  6
CONTINUOUS
 62
    30
 10
0.0
 20
-473.760446
 30
0.0
 11
12.0
 21
-473.760446
 31
0.0
  0
TEXT
  8
SIZE
  6
CONTINUOUS
 62
    30
 10
48.999999571428553
 20
-448.760446
 30
0.0
 40
64.0
  1
67
 41
0.9
 72
     1
 11
95.628570999999965
 21
-448.760446
 31
0.0
  0
POINT
  8
DEFPOINTS
  6
CONTINUOUS
 62
    30
 10
0.0
 20
-206.09844899999999
 30
0.0
  0
POINT
  8
DEFPOINTS
  6
CONTINUOUS
 62
    30
 10
-67.0
 20
-299.5
 30
0.0
  0
POINT
  8
DEFPOINTS
  6
CONTINUOUS
 62
    30
 10
-67.0
 20
-473.760446
 30
0.0
  0
LINE
  8
OUTLINE
  6
CONTINUOUS
 62
     3
 10
-139.00000000000011
 20
-277.0
 30
0.0
 11
4.9999999999999432
 21
-277.0
 31
0.0
  0
LINE
  8
OUTLINE
  6
CONTINUOUS
 62
     3
 10
-147.00000000000011
 20
-220.0
 30
0.0
 11
12.99999999999994
 21
-220.0
 31
0.0
  0
LINE
  8
OUTLINE
  6
CONTINUOUS
 62
     3
 10
-143.00000000000011
 20
-250.0
 30
0.0
 11
8.9999999999999432
 21
-250.0
 31
0.0
  0
LINE
  8
OUTLINE
  6
CONTINUOUS
 62
     3
 10
-143.00000000000011
 20
-250.0
 30
0.0
 11
-143.00000000000011
 21
-220.0
 31
0.0
  0
LINE
  8
OUTLINE
  6
CONTINUOUS
 62
     3
 10
-139.00000000000011
 20
-277.0
 30
0.0
 11
-139.00000000000011
 21
-250.0
 31
0.0
  0
LINE
  8
OUTLINE
  6
CONTINUOUS
 62
     3
 10
-147.00000000000011
 20
-220.0
 30
0.0
 11
-147.00000000000011
 21
-167.0
 31
0.0
  0
LINE
  8
OUTLINE
  6
CONTINUOUS
 62
     3
 10
8.9999999999999432
 20
-250.0
 30
0.0
 11
8.9999999999999432
 21
-220.0
 31
0.0
  0
LINE
  8
OUTLINE
  6
CONTINUOUS
 62
     3
 10
4.9999999999999432
 20
-277.0
 30
0.0
 11
4.9999999999999432
 21
-250.0
 31
0.0
  0
LINE
  8
OUTLINE
  6
CONTINUOUS
 62
     3
 10
12.99999999999994
 20
-220.0
 30
0.0
 11
12.99999999999994
 21
-167.0
 31
0.0
  0
ENDSEC
  0
EOF
