  0
SECTION
  2
HEADER
  9
$ACADVER
  1
AC1009
  9
$INSBASE
 10
0.0
 20
0.0
 30
0.0
  9
$EXTMIN
 10
-592.76731738677336
 20
-768.08165370961797
 30
-0.0015258207003583
  9
$EXTMAX
 10
1228.587353111461
 20
838.89771338889477
 30
0.0000000349246037
  9
$LIMMIN
 10
-2970.0
 20
-2100.0
  9
$LIMMAX
 10
2970.0
 20
2100.0
  9
$ORTHOMODE
 70
     1
  9
$REGENMODE
 70
     0
  9
$FILLMODE
 70
     1
  9
$QTEXTMODE
 70
     0
  9
$MIRRTEXT
 70
     0
  9
$DRAGMODE
 70
     2
  9
$LTSCALE
 40
20.0
  9
$OSMODE
 70
    32
  9
$ATTMODE
 70
     1
  9
$TEXTSIZE
 40
64.0
  9
$TRACEWID
 40
0.05
  9
$TEXTSTYLE
  7
STANDARD
  9
$CLAYER
  8
ETC
  9
$CELTYPE
  6
CONTINUOUS
  9
$CECOLOR
 62
   256
  9
$DIMSCALE
 40
1.0
  9
$DIMASZ
 40
12.0
  9
$DIMEXO
 40
20.0
  9
$DIMDLI
 40
200.0
  9
$DIMRND
 40
0.0
  9
$DIMDLE
 40
0.0
  9
$DIMEXE
 40
20.0
  9
$DIMTP
 40
0.0
  9
$DIMTM
 40
0.0
  9
$DIMTXT
 40
64.0
  9
$DIMCEN
 40
0.09
  9
$DIMTSZ
 40
0.0
  9
$DIMTOL
 70
     0
  9
$DIMLIM
 70
     0
  9
$DIMTIH
 70
     0
  9
$DIMTOH
 70
     0
  9
$DIMSE1
 70
     0
  9
$DIMSE2
 70
     0
  9
$DIMTAD
 70
     1
  9
$DIMZIN
 70
     8
  9
$DIMBLK
  1
DOT1
  9
$DIMASO
 70
     1
  9
$DIMSHO
 70
     0
  9
$DIMPOST
  1

  9
$DIMAPOST
  1

  9
$DIMALT
 70
     0
  9
$DIMALTD
 70
     2
  9
$DIMALTF
 40
25.399999999999999
  9
$DIMLFAC
 40
1.0
  9
$DIMTOFL
 70
     1
  9
$DIMTVP
 40
0.0
  9
$DIMTIX
 70
     1
  9
$DIMSOXD
 70
     0
  9
$DIMSAH
 70
     1
  9
$DIMBLK1
  1
ORIGIN
  9
$DIMBLK2
  1
ORIGIN
  9
$DIMSTYLE
  2
STANDARD
  9
$DIMCLRD
 70
     0
  9
$DIMCLRE
 70
     0
  9
$DIMCLRT
 70
     0
  9
$DIMTFAC
 40
1.0
  9
$DIMGAP
 40
0.09
  9
$LUNITS
 70
     2
  9
$LUPREC
 70
     4
  9
$SKETCHINC
 40
0.1
  9
$FILLETRAD
 40
4.0
  9
$AUNITS
 70
     1
  9
$AUPREC
 70
     3
  9
$MENU
  1
ACAD
  9
$ELEVATION
 40
0.0
  9
$PELEVATION
 40
0.0
  9
$THICKNESS
 40
50.0
  9
$LIMCHECK
 70
     0
  9
$BLIPMODE
 70
     0
  9
$CHAMFERA
 40
0.0
  9
$CHAMFERB
 40
0.0
  9
$SKPOLY
 70
     0
  9
$TDCREATE
 40
2452321.3961996529
  9
$TDUPDATE
 40
2454728.4269234492
  9
$TDINDWG
 40
0.2573283449
  9
$TDUSRTIMER
 40
0.2573283449
  9
$USRTIMER
 70
     1
  9
$ANGBASE
 50
0.0
  9
$ANGDIR
 70
     0
  9
$PDMODE
 70
     3
  9
$PDSIZE
 40
-2.0
  9
$PLINEWID
 40
0.0
  9
$COORDS
 70
     1
  9
$SPLFRAME
 70
     0
  9
$SPLINETYPE
 70
     6
  9
$SPLINESEGS
 70
     8
  9
$ATTDIA
 70
     0
  9
$ATTREQ
 70
     1
  9
$HANDLING
 70
     1
  9
$HANDSEED
  5
407
  9
$SURFTAB1
 70
     6
  9
$SURFTAB2
 70
     6
  9
$SURFTYPE
 70
     6
  9
$SURFU
 70
     6
  9
$SURFV
 70
     6
  9
$UCSNAME
  2

  9
$UCSORG
 10
0.0
 20
0.0
 30
0.0
  9
$UCSXDIR
 10
1.0
 20
0.0
 30
0.0
  9
$UCSYDIR
 10
0.0
 20
1.0
 30
0.0
  9
$PUCSNAME
  2

  9
$PUCSORG
 10
0.0
 20
0.0
 30
0.0
  9
$PUCSXDIR
 10
1.0
 20
0.0
 30
0.0
  9
$PUCSYDIR
 10
0.0
 20
1.0
 30
0.0
  9
$USERI1
 70
     0
  9
$USERI2
 70
     0
  9
$USERI3
 70
     0
  9
$USERI4
 70
     0
  9
$USERI5
 70
     0
  9
$USERR1
 40
20.0
  9
$USERR2
 40
0.0
  9
$USERR3
 40
0.0
  9
$USERR4
 40
0.0
  9
$USERR5
 40
0.0
  9
$WORLDVIEW
 70
     1
  9
$SHADEDGE
 70
     3
  9
$SHADEDIF
 70
    70
  9
$TILEMODE
 70
     1
  9
$MAXACTVP
 70
    64
  9
$PLIMCHECK
 70
     0
  9
$PEXTMIN
 10
1.0000000000000000E+020
 20
1.0000000000000000E+020
 30
1.0000000000000000E+020
  9
$PEXTMAX
 10
-1.0000000000000000E+020
 20
-1.0000000000000000E+020
 30
-1.0000000000000000E+020
  9
$PLIMMIN
 10
0.0
 20
0.0
  9
$PLIMMAX
 10
12.0
 20
9.0
  9
$UNITMODE
 70
     0
  9
$VISRETAIN
 70
     1
  9
$PLINEGEN
 70
     0
  9
$PSLTSCALE
 70
     1
  0
ENDSEC
  0
SECTION
  2
TABLES
  0
TABLE
  2
VPORT
 70
     1
  0
VPORT
  2
*ACTIVE
 70
     0
 10
0.0
 20
0.0
 11
1.0
 21
1.0
 12
373.60469965910528
 22
31.681185293586172
 13
0.0
 23
0.0
 14
1.0
 24
1.0
 15
0.0
 25
0.0
 16
0.0
 26
0.0
 36
1.0
 17
0.0
 27
0.0
 37
0.0
 40
1815.676385078312
 41
1.7517337031900131
 42
50.0
 43
0.0
 44
0.0
 50
0.0
 51
0.0
 71
     0
 72
   100
 73
     1
 74
     0
 75
     0
 76
     0
 77
     0
 78
     0
  0
ENDTAB
  0
TABLE
  2
LTYPE
 70
     3
  0
LTYPE
  2
CONTINUOUS
 70
     0
  3
実線
 72
    65
 73
     0
 40
0.0
  0
LTYPE
  2
DASHDOT
 70
     0
  3
____ _ ____ _ ____ _ ____ _ ____ _ ____ _ ____
 72
    65
 73
     4
 40
5.5
 49
4.0
 49
-0.6
 49
0.3
 49
-0.6
  0
ENDTAB
  0
TABLE
  2
LAYER
 70
    12
  0
LAYER
  2
0
 70
     0
 62
     7
  6
CONTINUOUS
  0
LAYER
  2
SIZE
 70
     0
 62
    30
  6
CONTINUOUS
  0
LAYER
  2
BASIS
 70
     0
 62
     6
  6
DASHDOT
  0
LAYER
  2
OUTLINE
 70
     0
 62
     3
  6
CONTINUOUS
  0
LAYER
  2
DETAIL
 70
     0
 62
     5
  6
CONTINUOUS
  0
LAYER
  2
ARRANGE
 70
     0
 62
     1
  6
CONTINUOUS
  0
LAYER
  2
DEFPOINTS
 70
     0
 62
     7
  6
CONTINUOUS
  0
LAYER
  2
ETC
 70
     0
 62
    61
  6
CONTINUOUS
  0
LAYER
  2
FIX
 70
     0
 62
    11
  6
CONTINUOUS
  0
LAYER
  2
NOTE
 70
     0
 62
     4
  6
CONTINUOUS
  0
LAYER
  2
SERVICESPACE
 70
     0
 62
     2
  6
DASHDOT
  0
LAYER
  2
SYMBOLLINE
 70
     0
 62
    15
  6
CONTINUOUS
  0
ENDTAB
  0
TABLE
  2
STYLE
 70
     2
  0
STYLE
  2
STANDARD
 70
     0
 40
64.0
 41
0.9
 50
0.0
 71
     0
 42
64.0
  3
SIMPLEX.shx
  4
BIGFONT.shx
  0
STYLE
  2
ANNOTATIVE
 70
     0
 40
0.0
 41
1.0
 50
0.0
 71
     0
 42
0.2
  3
txt
  4

  0
ENDTAB
  0
TABLE
  2
VIEW
 70
     1
  0
VIEW
  2
ALL
 70
     0
 40
4282.6198079999967
 10
0.0
 20
41.309903999999989
 41
5940.0
 11
0.0
 21
0.0
 31
1.0
 12
0.0
 22
0.0
 32
0.0
 42
50.0
 43
0.0
 44
0.0
 50
0.0
 71
     0
  0
ENDTAB
  0
TABLE
  2
UCS
 70
     0
  0
ENDTAB
  0
TABLE
  2
APPID
 70
     4
  0
APPID
  2
ACAD
 70
     0
  0
APPID
  2
ACADANNOTATIVE
 70
     0
  0
APPID
  2
ACAD_MLEADERVER
 70
     0
  0
APPID
  2
ACAD_EXEMPT_FROM_CAD_STANDARDS
 70
     0
  0
ENDTAB
  0
TABLE
  2
DIMSTYLE
 70
     2
  0
DIMSTYLE
  2
STANDARD
 70
     0
  3

  4

  5

  6

  7

 40
1.0
 41
0.18
 42
0.0625
 43
0.38
 44
0.18
 45
0.0
 46
0.0
 47
0.0
 48
0.0
140
0.18
141
0.09
142
0.0
143
25.399999999999999
144
1.0
145
0.0
146
1.0
147
0.09
 71
     0
 72
     0
 73
     1
 74
     1
 75
     0
 76
     0
 77
     0
 78
     0
170
     0
171
     2
172
     0
173
     0
174
     0
175
     0
176
     0
177
     0
178
     0
  0
DIMSTYLE
  2
ANNOTATIVE
 70
     0
  3

  4

  5

  6

  7

 40
1.0
 41
0.18
 42
0.0625
 43
0.38
 44
0.18
 45
0.0
 46
0.0
 47
0.0
 48
0.0
140
0.18
141
0.09
142
0.0
143
25.399999999999999
144
1.0
145
0.0
146
1.0
147
0.09
 71
     0
 72
     0
 73
     1
 74
     1
 75
     0
 76
     0
 77
     0
 78
     0
170
     0
171
     2
172
     0
173
     0
174
     0
175
     0
176
     0
177
     0
178
     0
  0
ENDTAB
  0
ENDSEC
  0
SECTION
  2
BLOCKS
  0
BLOCK
  8
0
  2
$MODEL_SPACE
 70
     0
 10
0.0
 20
0.0
 30
0.0
  3
$MODEL_SPACE
  1

  0
ENDBLK
  5
3B1
  8
0
  0
BLOCK
 67
     1
  8
0
  2
$PAPER_SPACE
 70
     0
 10
0.0
 20
0.0
 30
0.0
  3
$PAPER_SPACE
  1

  0
ENDBLK
  5
3AD
 67
     1
  8
0
  0
BLOCK
  8
0
  2
DOT1
 70
     0
 10
0.0
 20
0.0
 30
0.0
  3
DOT1
  1

  0
CIRCLE
  5
1FA
  8
SIZE
  6
CONTINUOUS
 62
     7
 10
0.0
 20
0.0
 30
0.0
 40
3.0
  0
ENDBLK
  5
1FB
  8
0
  0
BLOCK
  8
0
  2
_ORIGIN
 70
     0
 10
0.0
 20
0.0
 30
0.0
  3
_ORIGIN
  1

  0
CIRCLE
  5
1FE
  8
0
  6
CONTINUOUS
 62
     7
 10
0.0
 20
0.0
 30
0.0
 40
0.5
  0
LINE
  5
1FF
  8
0
  6
CONTINUOUS
 62
     7
 10
0.0
 20
0.0
 30
0.0
 11
-1.0
 21
0.0
 31
0.0
  0
ENDBLK
  5
200
  8
0
  0
ENDSEC
  0
SECTION
  2
ENTITIES
  0
CIRCLE
  5
201
  8
ARRANGE
  6
CONTINUOUS
 62
     1
 10
0.0
 20
0.0
 30
0.0
 40
40.0
  0
LINE
  5
202
  8
BASIS
  6
DASHDOT
 62
     6
 10
0.0
 20
-73.243108999999976
 30
0.0
 11
0.0
 21
291.47948300000002
 31
0.0
  0
LINE
  5
203
  8
BASIS
  6
DASHDOT
 62
     6
 10
-21.0
 20
173.87266099999999
 30
0.0
 11
-21.0
 21
265.88841500000001
 31
0.0
  0
LINE
  5
204
  8
DETAIL
  6
CONTINUOUS
 62
     5
 10
-81.0
 20
208.0
 30
0.0
 11
39.0
 21
208.0
 31
0.0
  0
LINE
  5
205
  8
DETAIL
  6
CONTINUOUS
 62
     5
 10
-135.0
 20
0.0
 30
0.0
 11
-135.0
 21
208.0
 31
0.0
  0
LINE
  5
206
  8
DETAIL
  6
CONTINUOUS
 62
     5
 10
-167.25
 20
208.0
 30
0.0
 11
-167.25
 21
204.49999999999989
 31
0.0
  0
LINE
  5
207
  8
DETAIL
  6
CONTINUOUS
 62
     5
 10
-167.25
 20
208.0
 30
0.0
 11
-135.0
 21
208.0
 31
0.0
  0
LINE
  5
208
  8
DETAIL
  6
CONTINUOUS
 62
     5
 10
-136.7499999999998
 20
208.0
 30
0.0
 11
-136.7499999999998
 21
7.0
 31
0.0
  0
LINE
  5
209
  8
DETAIL
  6
CONTINUOUS
 62
     5
 10
-140.25
 20
7.0
 30
0.0
 11
-135.0
 21
7.0
 31
0.0
  0
LINE
  5
20A
  8
DETAIL
  6
CONTINUOUS
 62
     5
 10
-167.25
 20
204.49999999999989
 30
0.0
 11
-140.25
 21
204.49999999999989
 31
0.0
  0
LINE
  5
20B
  8
DETAIL
  6
CONTINUOUS
 62
     5
 10
-140.25
 20
204.49999999999989
 30
0.0
 11
-140.25
 21
7.0
 31
0.0
  0
LINE
  5
20C
  8
NOTE
  6
CONTINUOUS
 62
     4
 10
-152.0
 20
188.0
 30
0.0
 11
-152.0
 21
228.0
 31
0.0
  0
LINE
  5
20D
  8
NOTE
  6
CONTINUOUS
 62
     4
 10
-132.0
 20
208.0
 30
0.0
 11
-172.0
 21
208.0
 31
0.0
  0
LINE
  5
20E
  8
NOTE
  6
CONTINUOUS
 62
     4
 10
-111.4999999999999
 20
180.0
 30
0.0
 11
-111.4999999999999
 21
220.0
 31
0.0
  0
LINE
  5
20F
  8
NOTE
  6
CONTINUOUS
 62
     4
 10
-91.5
 20
200.0
 30
0.0
 11
-131.4999999999998
 21
200.0
 31
0.0
  0
ARC
  5
210
  8
DETAIL
  6
CONTINUOUS
 62
     5
 10
-56.939999999999991
 20
233.34
 30
0.0
 40
5.060001999999999
 50
90.0
 51
179.999999
  0
LINE
  5
211
  8
DETAIL
  6
CONTINUOUS
 62
     5
 10
-62.0
 20
208.0
 30
0.0
 11
-62.0
 21
233.34
 31
0.0
  0
LINE
  5
212
  8
DETAIL
  6
CONTINUOUS
 62
     5
 10
9.6374700000000004
 20
238.3999859999999
 30
0.0
 11
8.4689619999999977
 21
240.42388799999981
 31
0.0
  0
LINE
  5
213
  8
DETAIL
  6
CONTINUOUS
 62
     5
 10
-21.0
 20
240.42390199999991
 30
0.0
 11
8.4689529999999991
 21
240.42390199999991
 31
0.0
  0
LINE
  5
214
  8
DETAIL
  6
CONTINUOUS
 62
     5
 10
14.939999999999991
 20
238.3999859999999
 30
0.0
 11
-21.0
 21
238.3999859999999
 31
0.0
  0
ARC
  5
215
  8
DETAIL
  6
CONTINUOUS
 62
     5
 10
14.939999999999991
 20
233.34
 30
0.0
 40
5.060001999999999
 50
0.000001
 51
90.0
  0
LINE
  5
216
  8
DETAIL
  6
CONTINUOUS
 62
     5
 10
20.0
 20
208.0
 30
0.0
 11
20.0
 21
233.34421399999991
 31
0.0
  0
LINE
  5
217
  8
DETAIL
  6
CONTINUOUS
 62
     5
 10
1.0800000000000001
 20
238.3999859999999
 30
0.0
 11
-21.0
 21
238.3999859999999
 31
0.0
  0
LINE
  5
218
  8
DETAIL
  6
CONTINUOUS
 62
     5
 10
-21.0
 20
240.42390199999991
 30
0.0
 11
1.0800000000000001
 21
240.42390199999991
 31
0.0
  0
LINE
  5
219
  8
DETAIL
  6
CONTINUOUS
 62
     5
 10
-14.327766
 20
241.42907099999991
 30
0.0
 11
-14.179179
 21
240.42390199999991
 31
0.0
  0
LINE
  5
21A
  8
DETAIL
  6
CONTINUOUS
 62
     5
 10
-16.147988000000002
 20
243.0
 30
0.0
 11
-21.0
 21
243.0
 31
0.0
  0
ARC
  5
21B
  8
DETAIL
  6
CONTINUOUS
 62
     5
 10
-16.147988000000002
 20
241.15998599999989
 30
0.0
 40
1.8400009999999991
 50
8.4091109999999976
 51
90.0
  0
ARC
  5
21C
  8
DETAIL
  6
CONTINUOUS
 62
     5
 10
-25.852011999999998
 20
241.15998599999989
 30
0.0
 40
1.8400009999999991
 50
90.0
 51
171.59088899999981
  0
LINE
  5
21D
  8
DETAIL
  6
CONTINUOUS
 62
     5
 10
-25.852011999999998
 20
243.0
 30
0.0
 11
-21.0
 21
243.0
 31
0.0
  0
LINE
  5
21E
  8
DETAIL
  6
CONTINUOUS
 62
     5
 10
-27.67223400000001
 20
241.42907099999991
 30
0.0
 11
-27.820820999999999
 21
240.42390199999991
 31
0.0
  0
LINE
  5
21F
  8
DETAIL
  6
CONTINUOUS
 62
     5
 10
-21.0
 20
240.42390199999991
 30
0.0
 11
-50.468952999999999
 21
240.42390199999991
 31
0.0
  0
LINE
  5
220
  8
DETAIL
  6
CONTINUOUS
 62
     5
 10
-56.939999999999991
 20
238.3999859999999
 30
0.0
 11
-21.0
 21
238.3999859999999
 31
0.0
  0
LINE
  5
221
  8
DETAIL
  6
CONTINUOUS
 62
     5
 10
-51.63747
 20
238.3999859999999
 30
0.0
 11
-50.468961999999991
 21
240.42388799999981
 31
0.0
  0
CIRCLE
  5
222
  8
FIX
  6
CONTINUOUS
 62
    11
 10
115.0
 20
0.0
 30
0.0
 40
2.5
  0
CIRCLE
  5
223
  8
FIX
  6
CONTINUOUS
 62
    11
 10
-115.0
 20
0.0
 30
0.0
 40
2.5
  0
CIRCLE
  5
224
  8
FIX
  6
CONTINUOUS
 62
    11
 10
156.0
 20
0.0
 30
0.0
 40
2.5
  0
LINE
  5
225
  8
NOTE
  6
CONTINUOUS
 62
     4
 10
156.0
 20
-20.0
 30
0.0
 11
156.0
 21
20.0
 31
0.0
  0
LINE
  5
226
  8
NOTE
  6
CONTINUOUS
 62
     4
 10
176.0
 20
0.0
 30
0.0
 11
136.0
 21
0.0
 31
0.0
  0
LINE
  5
227
  8
NOTE
  6
CONTINUOUS
 62
     4
 10
115.0
 20
-20.0
 30
0.0
 11
115.0
 21
20.0
 31
0.0
  0
LINE
  5
228
  8
NOTE
  6
CONTINUOUS
 62
     4
 10
135.0
 20
0.0
 30
0.0
 11
95.0
 21
0.0
 31
0.0
  0
LINE
  5
229
  8
NOTE
  6
CONTINUOUS
 62
     4
 10
-115.0
 20
-20.0
 30
0.0
 11
-115.0
 21
20.0
 31
0.0
  0
LINE
  5
22A
  8
NOTE
  6
CONTINUOUS
 62
     4
 10
-95.0
 20
0.0
 30
0.0
 11
-135.0
 21
0.0
 31
0.0
  0
CIRCLE
  5
22B
  8
FIX
  6
CONTINUOUS
 62
    11
 10
-156.0
 20
0.0
 30
0.0
 40
2.5
  0
LINE
  5
22C
  8
NOTE
  6
CONTINUOUS
 62
     4
 10
-156.0
 20
-20.0
 30
0.0
 11
-156.0
 21
20.0
 31
0.0
  0
LINE
  5
22D
  8
NOTE
  6
CONTINUOUS
 62
     4
 10
-136.0
 20
0.0
 30
0.0
 11
-176.0
 21
0.0
 31
0.0
  0
CIRCLE
  5
22E
  8
FIX
  6
CONTINUOUS
 62
    11
 10
-152.0
 20
208.0
 30
0.0
 40
7.5
  0
LINE
  5
22F
  8
DETAIL
  6
CONTINUOUS
 62
     5
 10
-135.0
 20
200.0
 30
0.0
 11
135.0
 21
200.0
 31
0.0
  0
LINE
  5
230
  8
NOTE
  6
CONTINUOUS
 62
     4
 10
-288.95693399999982
 20
363.50852900000001
 30
0.0
 11
-592.57092899999975
 21
363.50852900000001
 31
0.0
  0
TEXT
  5
231
  8
NOTE
  6
CONTINUOUS
 62
     4
 10
256.45013799999992
 20
-340.870701
 30
0.0
 40
64.0
  1
8-φ5×8
 41
0.9
  0
LINE
  5
232
  8
NOTE
  6
CONTINUOUS
 62
     4
 10
1228.5550000000001
 20
320.93146100000001
 30
0.0
 11
238.24371300000001
 21
320.93146100000001
 31
0.0
  0
LINE
  5
233
  8
NOTE
  6
CONTINUOUS
 62
     4
 10
152.02246599999981
 20
208.00204600000001
 30
0.0
 11
238.24371300000001
 21
320.93146100000001
 31
0.0
  0
LINE
  5
234
  8
NOTE
  6
CONTINUOUS
 62
     4
 10
184.087422
 20
231.9151939999999
 30
0.0
 11
152.02246599999981
 21
208.00204600000001
 31
0.0
  0
LINE
  5
235
  8
NOTE
  6
CONTINUOUS
 62
     4
 10
152.02246599999981
 20
208.00204600000001
 30
0.0
 11
167.834958
 21
244.7439169999999
 31
0.0
  0
LINE
  5
236
  8
NOTE
  6
CONTINUOUS
 62
     4
 10
244.309618
 20
-373.834971
 30
0.0
 11
643.61105199999975
 21
-373.834971
 31
0.0
  0
LINE
  5
237
  8
NOTE
  6
CONTINUOUS
 62
     4
 10
155.9960659999999
 20
-0.5692620000000001
 30
0.0
 11
244.309618
 21
-373.834971
 31
0.0
  0
LINE
  5
238
  8
NOTE
  6
CONTINUOUS
 62
     4
 10
155.374031
 20
-40.510428999999981
 30
0.0
 11
156.00380699999999
 21
-0.5153870000000002
 31
0.0
  0
LINE
  5
239
  8
NOTE
  6
CONTINUOUS
 62
     4
 10
156.00380699999999
 20
-0.5153870000000002
 30
0.0
 11
175.455927
 21
-35.466996999999999
 31
0.0
  0
TEXT
  5
23A
  8
NOTE
  6
CONTINUOUS
 62
     4
 10
266.49496499999998
 20
356.12332700000002
 30
0.0
 40
64.0
  1
AH 4-φ15×22(4点吊り)
 41
0.9
  0
TEXT
  5
23B
  8
NOTE
  6
CONTINUOUS
 62
     4
 10
-580.3881389999998
 20
396.85917299999988
 30
0.0
 40
64.0
  1
EL φ19
 41
0.9
  0
LINE
  5
23C
  8
NOTE
  6
CONTINUOUS
 62
     4
 10
-111.4999999999999
 20
200.0
 30
0.0
 11
-288.95693399999982
 21
363.50852900000001
 31
0.0
  0
LINE
  5
23D
  8
NOTE
  6
CONTINUOUS
 62
     4
 10
-132.80824999999979
 20
233.8520089999999
 30
0.0
 11
-111.4999999999999
 21
200.0
 31
0.0
  0
LINE
  5
23E
  8
NOTE
  6
CONTINUOUS
 62
     4
 10
-111.4999999999999
 20
200.0
 30
0.0
 11
-146.87948999999981
 21
218.66257400000001
 31
0.0
  0
LINE
  5
23F
  8
DETAIL
  6
CONTINUOUS
 62
     5
 10
-135.0
 20
200.0
 30
0.0
 11
-135.0
 21
208.0
 31
0.0
  0
LINE
  5
240
  8
NOTE
  6
CONTINUOUS
 62
     4
 10
152.0
 20
188.0
 30
0.0
 11
152.0
 21
228.0
 31
0.0
  0
LINE
  5
241
  8
NOTE
  6
CONTINUOUS
 62
     4
 10
132.0
 20
208.0
 30
0.0
 11
172.0
 21
208.0
 31
0.0
  0
CIRCLE
  5
242
  8
FIX
  6
CONTINUOUS
 62
    11
 10
152.0
 20
208.0
 30
0.0
 40
7.5
  0
LINE
  5
243
  8
SIZE
  6
CONTINUOUS
 62
    30
 10
-115.0
 20
-40.0
 30
0.0
 11
-115.0
 21
-374.00584700000002
 31
0.0
  0
LINE
  5
244
  8
SIZE
  6
CONTINUOUS
 62
    30
 10
115.0
 20
-40.0
 30
0.0
 11
115.0
 21
-374.00584700000002
 31
0.0
  0
LINE
  5
245
  8
SIZE
  6
CONTINUOUS
 62
    30
 10
-103.0
 20
-354.00584700000002
 30
0.0
 11
103.0
 21
-354.00584700000002
 31
0.0
  0
TEXT
  5
246
  8
SIZE
  6
CONTINUOUS
 62
    30
 10
-74.057142857142864
 20
-327.20447799999982
 30
0.0
 40
64.0
  1
230
 41
0.9
 72
     1
 11
0.0
 21
-327.20447799999982
 31
0.0
  0
CIRCLE
  5
247
  8
SIZE
  6
CONTINUOUS
 62
    30
 10
-115.0
 20
-354.00584700000002
 30
0.0
 40
6.0
  0
LINE
  5
248
  8
SIZE
  6
CONTINUOUS
 62
    30
 10
-115.0
 20
-354.00584700000002
 30
0.0
 11
-103.0
 21
-354.00584700000002
 31
0.0
  0
CIRCLE
  5
249
  8
SIZE
  6
CONTINUOUS
 62
    30
 10
115.0
 20
-354.00584700000002
 30
0.0
 40
6.0
  0
LINE
  5
24A
  8
SIZE
  6
CONTINUOUS
 62
    30
 10
115.0
 20
-354.00584700000002
 30
0.0
 11
103.0
 21
-354.00584700000002
 31
0.0
  0
LINE
  5
24B
  8
SIZE
  6
CONTINUOUS
 62
    30
 10
-135.0
 20
-20.0
 30
0.0
 11
-135.0
 21
-506.26309699999979
 31
0.0
  0
LINE
  5
24C
  8
SIZE
  6
CONTINUOUS
 62
    30
 10
135.0
 20
-20.0
 30
0.0
 11
135.0
 21
-506.26309699999979
 31
0.0
  0
LINE
  5
24D
  8
SIZE
  6
CONTINUOUS
 62
    30
 10
-123.0
 20
-486.26309699999968
 30
0.0
 11
123.0
 21
-486.26309699999968
 31
0.0
  0
TEXT
  5
24E
  8
SIZE
  6
CONTINUOUS
 62
    30
 10
-110.5371428571428
 20
-463.52329800000001
 30
0.0
 40
64.0
  1
□270
 41
0.9
 72
     1
 11
0.0
 21
-463.52329800000001
 31
0.0
  0
CIRCLE
  5
24F
  8
SIZE
  6
CONTINUOUS
 62
    30
 10
-135.0
 20
-486.26309699999968
 30
0.0
 40
6.0
  0
LINE
  5
250
  8
SIZE
  6
CONTINUOUS
 62
    30
 10
-135.0
 20
-486.26309699999968
 30
0.0
 11
-123.0
 21
-486.26309699999968
 31
0.0
  0
CIRCLE
  5
251
  8
SIZE
  6
CONTINUOUS
 62
    30
 10
135.0
 20
-486.26309699999968
 30
0.0
 40
6.0
  0
LINE
  5
252
  8
SIZE
  6
CONTINUOUS
 62
    30
 10
135.0
 20
-486.26309699999968
 30
0.0
 11
123.0
 21
-486.26309699999968
 31
0.0
  0
LINE
  5
253
  8
SIZE
  6
CONTINUOUS
 62
    30
 10
-156.0
 20
-40.0
 30
0.0
 11
-156.0
 21
-630.38102200000003
 31
0.0
  0
LINE
  5
254
  8
SIZE
  6
CONTINUOUS
 62
    30
 10
156.0
 20
-40.0
 30
0.0
 11
156.0
 21
-630.38102200000003
 31
0.0
  0
LINE
  5
255
  8
SIZE
  6
CONTINUOUS
 62
    30
 10
-144.0
 20
-610.38102200000003
 30
0.0
 11
144.0
 21
-610.38102200000003
 31
0.0
  0
TEXT
  5
256
  8
SIZE
  6
CONTINUOUS
 62
    30
 10
-68.571428571428569
 20
-577.69030799999985
 30
0.0
 40
64.0
  1
312
 41
0.9
 72
     1
 11
0.0
 21
-577.69030799999985
 31
0.0
  0
CIRCLE
  5
257
  8
SIZE
  6
CONTINUOUS
 62
    30
 10
-156.0
 20
-610.38102200000003
 30
0.0
 40
6.0
  0
LINE
  5
258
  8
SIZE
  6
CONTINUOUS
 62
    30
 10
-156.0
 20
-610.38102200000003
 30
0.0
 11
-144.0
 21
-610.38102200000003
 31
0.0
  0
CIRCLE
  5
259
  8
SIZE
  6
CONTINUOUS
 62
    30
 10
156.0
 20
-610.38102200000003
 30
0.0
 40
6.0
  0
LINE
  5
25A
  8
SIZE
  6
CONTINUOUS
 62
    30
 10
156.0
 20
-610.38102200000003
 30
0.0
 11
144.0
 21
-610.38102200000003
 31
0.0
  0
LINE
  5
25B
  8
SIZE
  6
CONTINUOUS
 62
    30
 10
187.02739099999991
 20
0.0
 30
0.0
 11
564.00762299999997
 21
0.0
 31
0.0
  0
LINE
  5
25C
  8
SIZE
  6
CONTINUOUS
 62
    30
 10
-1.0
 20
243.0
 30
0.0
 11
564.00762299999997
 21
243.0
 31
0.0
  0
LINE
  5
25D
  8
SIZE
  6
CONTINUOUS
 62
    30
 10
544.00762299999985
 20
12.0
 30
0.0
 11
544.00762299999985
 21
231.0
 31
0.0
  0
TEXT
  5
25E
  8
SIZE
  6
CONTINUOUS
 62
    30
 10
521.65988600000003
 20
49.73991214285715
 30
0.0
 40
64.0
  1
243
 50
90.0
 41
0.9
 72
     1
 11
521.65988600000003
 21
123.797055
 31
0.0
  0
CIRCLE
  5
25F
  8
SIZE
  6
CONTINUOUS
 62
    30
 10
544.00762299999985
 20
0.0
 30
0.0
 40
6.0
  0
LINE
  5
260
  8
SIZE
  6
CONTINUOUS
 62
    30
 10
544.00762299999985
 20
0.0
 30
0.0
 11
544.00762299999985
 21
12.0
 31
0.0
  0
CIRCLE
  5
261
  8
SIZE
  6
CONTINUOUS
 62
    30
 10
544.00762299999985
 20
243.0
 30
0.0
 40
6.0
  0
LINE
  5
262
  8
SIZE
  6
CONTINUOUS
 62
    30
 10
544.00762299999985
 20
243.0
 30
0.0
 11
544.00762299999985
 21
231.0
 31
0.0
  0
LINE
  5
263
  8
SIZE
  6
CONTINUOUS
 62
    30
 10
-187.5
 20
0.0
 30
0.0
 11
-369.08515099999988
 21
0.0
 31
0.0
  0
LINE
  5
264
  8
SIZE
  6
CONTINUOUS
 62
    30
 10
-155.0
 20
200.0
 30
0.0
 11
-369.08515099999988
 21
200.0
 31
0.0
  0
LINE
  5
265
  8
SIZE
  6
CONTINUOUS
 62
    30
 10
-349.085151
 20
12.0
 30
0.0
 11
-349.085151
 21
188.0
 31
0.0
  0
TEXT
  5
266
  8
SIZE
  6
CONTINUOUS
 62
    30
 10
-375.17658
 20
25.94285714285715
 30
0.0
 40
64.0
  1
200
 50
90.0
 41
0.9
 72
     1
 11
-375.17658
 21
100.0
 31
0.0
  0
CIRCLE
  5
267
  8
SIZE
  6
CONTINUOUS
 62
    30
 10
-349.085151
 20
0.0
 30
0.0
 40
6.0
  0
LINE
  5
268
  8
SIZE
  6
CONTINUOUS
 62
    30
 10
-349.085151
 20
0.0
 30
0.0
 11
-349.085151
 21
12.0
 31
0.0
  0
CIRCLE
  5
269
  8
SIZE
  6
CONTINUOUS
 62
    30
 10
-349.085151
 20
200.0
 30
0.0
 40
6.0
  0
LINE
  5
26A
  8
SIZE
  6
CONTINUOUS
 62
    30
 10
-349.085151
 20
200.0
 30
0.0
 11
-349.085151
 21
188.0
 31
0.0
  0
LINE
  5
26B
  8
DETAIL
  6
CONTINUOUS
 62
     5
 10
-135.0
 20
192.0
 30
0.0
 11
135.0
 21
192.0
 31
0.0
  0
LINE
  5
26C
  8
DETAIL
  6
CONTINUOUS
 62
     5
 10
-81.0
 20
208.0
 30
0.0
 11
-87.394959999999998
 21
200.0
 31
0.0
  0
LINE
  5
26D
  8
SIZE
  6
CONTINUOUS
 62
    30
 10
-155.0
 20
200.0
 30
0.0
 11
-369.08515099999988
 21
200.0
 31
0.0
  0
LINE
  5
26E
  8
SIZE
  6
CONTINUOUS
 62
    30
 10
-101.0
 20
208.0
 30
0.0
 11
-369.08515099999988
 21
208.0
 31
0.0
  0
LINE
  5
26F
  8
SIZE
  6
CONTINUOUS
 62
    30
 10
-349.085151
 20
188.0
 30
0.0
 11
-349.085151
 21
176.0
 31
0.0
  0
LINE
  5
270
  8
SIZE
  6
CONTINUOUS
 62
    30
 10
-349.085151
 20
220.0
 30
0.0
 11
-349.085151
 21
232.0
 31
0.0
  0
LINE
  5
271
  8
SIZE
  6
CONTINUOUS
 62
    30
 10
-349.085151
 20
321.70899500000002
 30
0.0
 11
-349.085151
 21
208.0
 31
0.0
  0
TEXT
  5
272
  8
SIZE
  6
CONTINUOUS
 62
    30
 10
-374.085151
 20
258.3089950000001
 30
0.0
 40
64.0
  1
8
 50
90.0
 41
0.9
 72
     1
 11
-374.085151
 21
277.50899500000003
 31
0.0
  0
LINE
  5
273
  8
SIZE
  6
CONTINUOUS
 62
    30
 10
-349.085151
 20
200.0
 30
0.0
 11
-349.085151
 21
208.0
 31
0.0
  0
LINE
  5
274
  8
SIZE
  6
CONTINUOUS
 62
    30
 10
-349.085151
 20
200.0
 30
0.0
 11
-349.085151
 21
208.0
 31
0.0
  0
CIRCLE
  5
275
  8
SIZE
  6
CONTINUOUS
 62
    30
 10
-349.085151
 20
200.0
 30
0.0
 40
6.0
  0
LINE
  5
276
  8
SIZE
  6
CONTINUOUS
 62
    30
 10
-349.085151
 20
200.0
 30
0.0
 11
-349.085151
 21
188.0
 31
0.0
  0
CIRCLE
  5
277
  8
SIZE
  6
CONTINUOUS
 62
    30
 10
-349.085151
 20
208.0
 30
0.0
 40
6.0
  0
LINE
  5
278
  8
SIZE
  6
CONTINUOUS
 62
    30
 10
-349.085151
 20
208.0
 30
0.0
 11
-349.085151
 21
220.0
 31
0.0
  0
LINE
  5
279
  8
SIZE
  6
CONTINUOUS
 62
    30
 10
0.0
 20
311.47948300000002
 30
0.0
 11
0.0
 21
463.04066899999998
 31
0.0
  0
LINE
  5
27A
  8
SIZE
  6
CONTINUOUS
 62
    30
 10
-21.0
 20
285.88841500000001
 30
0.0
 11
-21.0
 21
463.04066899999998
 31
0.0
  0
LINE
  5
27B
  8
SIZE
  6
CONTINUOUS
 62
    30
 10
12.0
 20
443.04066899999981
 30
0.0
 11
24.0
 21
443.04066899999981
 31
0.0
  0
LINE
  5
27C
  8
SIZE
  6
CONTINUOUS
 62
    30
 10
-33.0
 20
443.04066899999981
 30
0.0
 11
-45.0
 21
443.04066899999981
 31
0.0
  0
LINE
  5
27D
  8
SIZE
  6
CONTINUOUS
 62
    30
 10
-271.15121499999992
 20
443.04066899999981
 30
0.0
 11
-21.0
 21
443.04066899999981
 31
0.0
  0
TEXT
  5
27E
  8
SIZE
  6
CONTINUOUS
 62
    30
 10
-246.15121428571419
 20
468.04066899999981
 30
0.0
 40
64.0
  1
21
 41
0.9
 72
     1
 11
-211.86549999999991
 21
468.04066899999981
 31
0.0
  0
LINE
  5
27F
  8
SIZE
  6
CONTINUOUS
 62
    30
 10
0.0
 20
443.04066899999981
 30
0.0
 11
-21.0
 21
443.04066899999981
 31
0.0
  0
LINE
  5
280
  8
SIZE
  6
CONTINUOUS
 62
    30
 10
0.0
 20
443.04066899999981
 30
0.0
 11
-21.0
 21
443.04066899999981
 31
0.0
  0
CIRCLE
  5
281
  8
SIZE
  6
CONTINUOUS
 62
    30
 10
0.0
 20
443.04066899999981
 30
0.0
 40
6.0
  0
LINE
  5
282
  8
SIZE
  6
CONTINUOUS
 62
    30
 10
0.0
 20
443.04066899999981
 30
0.0
 11
12.0
 21
443.04066899999981
 31
0.0
  0
CIRCLE
  5
283
  8
SIZE
  6
CONTINUOUS
 62
    30
 10
-21.0
 20
443.04066899999981
 30
0.0
 40
6.0
  0
LINE
  5
284
  8
SIZE
  6
CONTINUOUS
 62
    30
 10
-21.0
 20
443.04066899999981
 30
0.0
 11
-33.0
 21
443.04066899999981
 31
0.0
  0
LINE
  5
285
  8
SIZE
  6
CONTINUOUS
 62
    30
 10
-62.0
 20
253.3399999999998
 30
0.0
 11
-62.0
 21
551.49105099999986
 31
0.0
  0
LINE
  5
286
  8
SIZE
  6
CONTINUOUS
 62
    30
 10
20.000001999999999
 20
253.3399999999998
 30
0.0
 11
20.000001999999999
 21
551.49105099999986
 31
0.0
  0
LINE
  5
287
  8
SIZE
  6
CONTINUOUS
 62
    30
 10
-50.0
 20
531.49105099999986
 30
0.0
 11
8.0000020000000003
 21
531.49105099999986
 31
0.0
  0
TEXT
  5
288
  8
SIZE
  6
CONTINUOUS
 62
    30
 10
-105.17687042857141
 20
556.49105099999986
 30
0.0
 40
64.0
  1
φ82
 41
0.9
 72
     1
 11
-18.228299
 21
556.49105099999986
 31
0.0
  0
CIRCLE
  5
289
  8
SIZE
  6
CONTINUOUS
 62
    30
 10
-62.0
 20
531.49105099999986
 30
0.0
 40
6.0
  0
LINE
  5
28A
  8
SIZE
  6
CONTINUOUS
 62
    30
 10
-62.0
 20
531.49105099999986
 30
0.0
 11
-50.0
 21
531.49105099999986
 31
0.0
  0
CIRCLE
  5
28B
  8
SIZE
  6
CONTINUOUS
 62
    30
 10
20.000001999999999
 20
531.49105099999986
 30
0.0
 40
6.0
  0
LINE
  5
28C
  8
SIZE
  6
CONTINUOUS
 62
    30
 10
20.000001999999999
 20
531.49105099999986
 30
0.0
 11
8.0000020000000003
 21
531.49105099999986
 31
0.0
  0
LINE
  5
28D
  8
SIZE
  6
CONTINUOUS
 62
    30
 10
-152.0
 20
248.0
 30
0.0
 11
-152.0
 21
663.85799399999985
 31
0.0
  0
LINE
  5
28E
  8
SIZE
  6
CONTINUOUS
 62
    30
 10
152.0
 20
248.0
 30
0.0
 11
152.0
 21
663.85799399999985
 31
0.0
  0
LINE
  5
28F
  8
SIZE
  6
CONTINUOUS
 62
    30
 10
-140.0
 20
643.85799400000019
 30
0.0
 11
140.0
 21
643.85799400000019
 31
0.0
  0
TEXT
  5
290
  8
SIZE
  6
CONTINUOUS
 62
    30
 10
-75.428571428571416
 20
667.395487
 30
0.0
 40
64.0
  1
304
 41
0.9
 72
     1
 11
0.0
 21
667.395487
 31
0.0
  0
CIRCLE
  5
291
  8
SIZE
  6
CONTINUOUS
 62
    30
 10
-152.0
 20
643.85799400000019
 30
0.0
 40
6.0
  0
LINE
  5
292
  8
SIZE
  6
CONTINUOUS
 62
    30
 10
-152.0
 20
643.85799400000019
 30
0.0
 11
-140.0
 21
643.85799400000019
 31
0.0
  0
CIRCLE
  5
293
  8
SIZE
  6
CONTINUOUS
 62
    30
 10
152.0
 20
643.85799400000019
 30
0.0
 40
6.0
  0
LINE
  5
294
  8
SIZE
  6
CONTINUOUS
 62
    30
 10
152.0
 20
643.85799400000019
 30
0.0
 11
140.0
 21
643.85799400000019
 31
0.0
  0
LINE
  5
295
  8
SIZE
  6
CONTINUOUS
 62
    30
 10
-23.0
 20
443.04066899999981
 30
0.0
 11
-265.36533600000001
 21
443.04066899999981
 31
0.0
  0
LINE
  5
296
  8
SIZE
  6
CONTINUOUS
 62
    30
 10
-349.085151
 20
208.0
 30
0.0
 11
-349.085151
 21
307.06305400000002
 31
0.0
  0
LINE
  5
297
  8
DETAIL
  6
CONTINUOUS
 62
     5
 10
-62.0
 20
213.0
 30
0.0
 11
20.0
 21
213.0
 31
0.0
  0
LINE
  5
298
  8
SIZE
  6
CONTINUOUS
 62
    30
 10
0.0
 20
-93.243108999999961
 30
0.0
 11
0.0
 21
-233.528569
 31
0.0
  0
LINE
  5
299
  8
SIZE
  6
CONTINUOUS
 62
    30
 10
-111.4999999999999
 20
160.0
 30
0.0
 11
-111.4999999999999
 21
-233.528569
 31
0.0
  0
LINE
  5
29A
  8
SIZE
  6
CONTINUOUS
 62
    30
 10
-12.0
 20
-213.52856899999989
 30
0.0
 11
-99.500000000000014
 21
-213.52856899999989
 31
0.0
  0
LINE
  5
29B
  8
SIZE
  6
CONTINUOUS
 62
    30
 10
-414.12522499999989
 20
-213.52856899999989
 30
0.0
 11
-111.4999999999999
 21
-213.52856899999989
 31
0.0
  0
TEXT
  5
29C
  8
SIZE
  6
CONTINUOUS
 62
    30
 10
-389.125225142857
 20
-188.528569
 30
0.0
 40
64.0
  1
111.5
 41
0.9
 72
     1
 11
-290.38236799999981
 21
-188.528569
 31
0.0
  0
CIRCLE
  5
29D
  8
SIZE
  6
CONTINUOUS
 62
    30
 10
0.0
 20
-213.52856899999989
 30
0.0
 40
6.0
  0
LINE
  5
29E
  8
SIZE
  6
CONTINUOUS
 62
    30
 10
0.0
 20
-213.52856899999989
 30
0.0
 11
-12.0
 21
-213.52856899999989
 31
0.0
  0
CIRCLE
  5
29F
  8
SIZE
  6
CONTINUOUS
 62
    30
 10
-111.4999999999999
 20
-213.52856899999989
 30
0.0
 40
6.0
  0
LINE
  5
2A0
  8
SIZE
  6
CONTINUOUS
 62
    30
 10
-111.4999999999999
 20
-213.52856899999989
 30
0.0
 11
-99.500000000000014
 21
-213.52856899999989
 31
0.0
  0
LINE
  5
2A1
  8
SIZE
  6
CONTINUOUS
 62
    30
 10
-111.4999999999999
 20
-213.52856899999989
 30
0.0
 11
-383.07000099999999
 21
-213.52856899999989
 31
0.0
  0
ARC
  5
2A2
  8
DETAIL
  6
CONTINUOUS
 62
     5
 10
140.20935299999991
 20
207.28122999999991
 30
0.0
 40
21.792462
 50
1.8901019999999991
 51
85.286794999999998
  0
LINE
  5
2A3
  8
DETAIL
  6
CONTINUOUS
 62
     5
 10
20.0
 20
229.0
 30
0.0
 11
142.0
 21
229.0
 31
0.0
  0
LINE
  5
2A4
  8
DETAIL
  6
CONTINUOUS
 62
     5
 10
162.0
 20
190.40065100000001
 30
0.0
 11
162.0
 21
204.49999999999989
 31
0.0
  0
LINE
  5
2A5
  8
DETAIL
  6
CONTINUOUS
 62
     5
 10
162.0
 20
79.599349000000004
 30
0.0
 11
162.0
 21
190.40065100000001
 31
0.0
  0
LINE
  5
2A6
  8
SIZE
  6
CONTINUOUS
 62
    30
 10
187.02739099999991
 20
0.0
 30
0.0
 11
564.00762299999997
 21
0.0
 31
0.0
  0
LINE
  5
2A7
  8
SIZE
  6
CONTINUOUS
 62
    30
 10
145.121973
 20
-15.0
 30
0.0
 11
564.00762299999997
 21
-15.0
 31
0.0
  0
LINE
  5
2A8
  8
SIZE
  6
CONTINUOUS
 62
    30
 10
544.00762299999985
 20
12.0
 30
0.0
 11
544.00762299999985
 21
24.0
 31
0.0
  0
LINE
  5
2A9
  8
SIZE
  6
CONTINUOUS
 62
    30
 10
544.00762299999985
 20
-27.0
 30
0.0
 11
544.00762299999985
 21
-39.0
 31
0.0
  0
TEXT
  5
2AA
  8
SIZE
  6
CONTINUOUS
 62
    30
 10
518.49405000000002
 20
-142.49375814285699
 30
0.0
 40
64.0
  1
15
 50
90.0
 41
0.9
 72
     1
 11
518.49405000000002
 21
-101.35090099999979
 31
0.0
  0
LINE
  5
2AB
  8
SIZE
  6
CONTINUOUS
 62
    30
 10
544.00762299999985
 20
0.0
 30
0.0
 11
544.00762299999985
 21
-15.0
 31
0.0
  0
LINE
  5
2AC
  8
SIZE
  6
CONTINUOUS
 62
    30
 10
544.00762299999985
 20
0.0
 30
0.0
 11
544.00762299999985
 21
-15.0
 31
0.0
  0
CIRCLE
  5
2AD
  8
SIZE
  6
CONTINUOUS
 62
    30
 10
544.00762299999985
 20
0.0
 30
0.0
 40
6.0
  0
LINE
  5
2AE
  8
SIZE
  6
CONTINUOUS
 62
    30
 10
544.00762299999985
 20
0.0
 30
0.0
 11
544.00762299999985
 21
12.0
 31
0.0
  0
CIRCLE
  5
2AF
  8
SIZE
  6
CONTINUOUS
 62
    30
 10
544.00762299999985
 20
-15.0
 30
0.0
 40
6.0
  0
LINE
  5
2B0
  8
SIZE
  6
CONTINUOUS
 62
    30
 10
544.00762299999985
 20
-15.0
 30
0.0
 11
544.00762299999985
 21
-27.0
 31
0.0
  0
LINE
  5
2B1
  8
SIZE
  6
CONTINUOUS
 62
    30
 10
544.00762299999985
 20
-20.0
 30
0.0
 11
544.00762299999985
 21
-171.37444300000001
 31
0.0
  0
ARC
  5
2B2
  8
DETAIL
  6
CONTINUOUS
 62
     5
 10
140.20935299999991
 20
67.716104000000001
 30
0.0
 40
21.792462
 50
274.71320499999968
 51
0.7394170000000001
  0
LINE
  5
2B3
  8
DETAIL
  6
CONTINUOUS
 62
     5
 10
162.0
 20
67.997333999999995
 30
0.0
 11
162.0
 21
79.599349000000004
 31
0.0
  0
LINE
  5
2B4
  8
DETAIL
  6
CONTINUOUS
 62
     5
 10
-125.06719200000001
 20
-15.0
 30
0.0
 11
0.027391
 21
-15.0
 31
0.0
  0
LINE
  5
2B5
  8
DETAIL
  6
CONTINUOUS
 62
     5
 10
167.0273909999998
 20
0.0
 30
0.0
 11
-166.97260900000001
 21
0.0
 31
0.0
  0
LINE
  5
2B6
  8
DETAIL
  6
CONTINUOUS
 62
     5
 10
162.23468799999981
 20
-7.5
 30
0.0
 11
-162.1799069999999
 21
-7.5
 31
0.0
  0
LINE
  5
2B7
  8
DETAIL
  6
CONTINUOUS
 62
     5
 10
166.69132500000001
 20
-3.0
 30
0.0
 11
-166.63654399999979
 21
-3.0
 31
0.0
  0
LINE
  5
2B8
  8
DETAIL
  6
CONTINUOUS
 62
     5
 10
0.0
 20
0.0
 30
0.0
 11
-165.0
 21
0.0
 31
0.0
  0
LINE
  5
2B9
  8
DETAIL
  6
CONTINUOUS
 62
     5
 10
0.0
 20
0.0
 30
0.0
 11
-165.0
 21
0.0
 31
0.0
  0
ARC
  5
2BA
  8
DETAIL
  6
CONTINUOUS
 62
     5
 10
44.013420999999987
 20
483.46498399999979
 30
0.0
 40
505.02072999999967
 50
279.24197999999973
 51
283.44935199999992
  0
LINE
  5
2BB
  8
DETAIL
  6
CONTINUOUS
 62
     5
 10
125.121973
 20
-15.0
 30
0.0
 11
0.027391
 21
-15.0
 31
0.0
  0
LINE
  5
2BC
  8
DETAIL
  6
CONTINUOUS
 62
     5
 10
131.027387
 20
0.0
 30
0.0
 11
0.027391
 21
0.0
 31
0.0
  0
ARC
  5
2BD
  8
DETAIL
  6
CONTINUOUS
 62
     5
 10
160.027387
 20
-0.8571229999999998
 30
0.0
 40
7.0
 50
281.92691500000001
 51
0.0
  0
LINE
  5
2BE
  8
DETAIL
  6
CONTINUOUS
 62
     5
 10
167.0273909999998
 20
-0.8571229999999998
 30
0.0
 11
167.0273909999998
 21
0.0
 31
0.0
  0
ARC
  5
2BF
  8
DETAIL
  6
CONTINUOUS
 62
     5
 10
-43.958640000000003
 20
483.46498399999979
 30
0.0
 40
505.02072999999967
 50
256.55064800000002
 51
260.75801999999999
  0
ARC
  5
2C0
  8
DETAIL
  6
CONTINUOUS
 62
     5
 10
-159.97260600000001
 20
-0.8571229999999998
 30
0.0
 40
7.0
 50
180.0
 51
258.07308499999999
  0
LINE
  5
2C1
  8
DETAIL
  6
CONTINUOUS
 62
     5
 10
-166.97260900000001
 20
-0.8571229999999998
 30
0.0
 11
-166.97260900000001
 21
0.0
 31
0.0
  0
LINE
  5
2C2
  8
SIZE
  6
CONTINUOUS
 62
    30
 10
-166.97260900000001
 20
-20.0
 30
0.0
 11
-166.97260900000001
 21
-767.97871499999985
 31
0.0
  0
LINE
  5
2C3
  8
SIZE
  6
CONTINUOUS
 62
    30
 10
167.0273909999998
 20
-20.0
 30
0.0
 11
167.0273909999998
 21
-767.97871499999985
 31
0.0
  0
LINE
  5
2C4
  8
SIZE
  6
CONTINUOUS
 62
    30
 10
-154.97260900000001
 20
-747.97871499999985
 30
0.0
 11
155.02739099999999
 21
-747.97871499999985
 31
0.0
  0
CIRCLE
  5
2C5
  8
SIZE
  6
CONTINUOUS
 62
    30
 10
-166.97260900000001
 20
-747.97871499999985
 30
0.0
 40
6.0
  0
LINE
  5
2C6
  8
SIZE
  6
CONTINUOUS
 62
    30
 10
-166.97260900000001
 20
-747.97871499999985
 30
0.0
 11
-154.97260900000001
 21
-747.97871499999985
 31
0.0
  0
CIRCLE
  5
2C7
  8
SIZE
  6
CONTINUOUS
 62
    30
 10
167.0273909999998
 20
-747.97871499999985
 30
0.0
 40
6.0
  0
LINE
  5
2C8
  8
SIZE
  6
CONTINUOUS
 62
    30
 10
167.0273909999998
 20
-747.97871499999985
 30
0.0
 11
155.02739099999999
 21
-747.97871499999985
 31
0.0
  0
TEXT
  5
2C9
  8
SIZE
  6
CONTINUOUS
 62
    30
 10
-111.8811804285714
 20
-722.97871499999985
 30
0.0
 40
64.0
  1
□334
 41
0.9
 72
     1
 11
0.027391
 21
-722.97871499999985
 31
0.0
  0
LINE
  5
2CA
  8
DETAIL
  6
CONTINUOUS
 62
     5
 10
140.25
 20
204.49999999999989
 30
0.0
 11
140.25
 21
7.0
 31
0.0
  0
LINE
  5
2CB
  8
DETAIL
  6
CONTINUOUS
 62
     5
 10
136.7499999999998
 20
208.0
 30
0.0
 11
136.7499999999998
 21
7.0
 31
0.0
  0
LINE
  5
2CC
  8
DETAIL
  6
CONTINUOUS
 62
     5
 10
140.25
 20
7.0
 30
0.0
 11
135.0
 21
7.0
 31
0.0
  0
LINE
  5
2CD
  8
DETAIL
  6
CONTINUOUS
 62
     5
 10
135.0
 20
0.0
 30
0.0
 11
135.0
 21
208.0
 31
0.0
  0
LINE
  5
2CE
  8
DETAIL
  6
CONTINUOUS
 62
     5
 10
167.25
 20
204.49999999999989
 30
0.0
 11
140.25
 21
204.49999999999989
 31
0.0
  0
LINE
  5
2CF
  8
DETAIL
  6
CONTINUOUS
 62
     5
 10
167.25
 20
208.0
 30
0.0
 11
135.0
 21
208.0
 31
0.0
  0
LINE
  5
2D0
  8
DETAIL
  6
CONTINUOUS
 62
     5
 10
167.25
 20
208.0
 30
0.0
 11
167.25
 21
204.49999999999989
 31
0.0
  0
LINE
  5
2D1
  8
DETAIL
  6
CONTINUOUS
 62
     5
 10
39.0
 20
208.0
 30
0.0
 11
45.394959999999983
 21
200.0
 31
0.0
  0
LINE
  5
2D2
  8
DETAIL
  6
CONTINUOUS
 62
     5
 10
142.0
 20
45.997334000000002
 30
0.0
 11
140.25
 21
45.997334000000002
 31
0.0
  0
LINE
  5
2D3
  8
SIZE
  6
CONTINUOUS
 62
    30
 10
135.0
 20
228.0
 30
0.0
 11
135.0
 21
457.43684299999978
 31
0.0
  0
LINE
  5
2D4
  8
SIZE
  6
CONTINUOUS
 62
    30
 10
162.0
 20
224.5
 30
0.0
 11
162.0
 21
457.43684299999978
 31
0.0
  0
LINE
  5
2D5
  8
SIZE
  6
CONTINUOUS
 62
    30
 10
123.0
 20
437.43684299999973
 30
0.0
 11
111.0
 21
437.43684299999973
 31
0.0
  0
LINE
  5
2D6
  8
SIZE
  6
CONTINUOUS
 62
    30
 10
174.0
 20
437.43684299999973
 30
0.0
 11
186.0
 21
437.43684299999973
 31
0.0
  0
LINE
  5
2D7
  8
SIZE
  6
CONTINUOUS
 62
    30
 10
331.59595000000002
 20
437.43684299999973
 30
0.0
 11
162.0
 21
437.43684299999973
 31
0.0
  0
TEXT
  5
2D8
  8
SIZE
  6
CONTINUOUS
 62
    30
 10
213.33880757142859
 20
462.43684299999973
 30
0.0
 40
64.0
  1
27
 41
0.9
 72
     1
 11
259.96737899999999
 21
462.43684299999973
 31
0.0
  0
LINE
  5
2D9
  8
SIZE
  6
CONTINUOUS
 62
    30
 10
135.0
 20
437.43684299999973
 30
0.0
 11
162.0
 21
437.43684299999973
 31
0.0
  0
LINE
  5
2DA
  8
SIZE
  6
CONTINUOUS
 62
    30
 10
135.0
 20
437.43684299999973
 30
0.0
 11
162.0
 21
437.43684299999973
 31
0.0
  0
CIRCLE
  5
2DB
  8
SIZE
  6
CONTINUOUS
 62
    30
 10
135.0
 20
437.43684299999973
 30
0.0
 40
6.0
  0
LINE
  5
2DC
  8
SIZE
  6
CONTINUOUS
 62
    30
 10
135.0
 20
437.43684299999973
 30
0.0
 11
123.0
 21
437.43684299999973
 31
0.0
  0
CIRCLE
  5
2DD
  8
SIZE
  6
CONTINUOUS
 62
    30
 10
162.0
 20
437.43684299999973
 30
0.0
 40
6.0
  0
LINE
  5
2DE
  8
SIZE
  6
CONTINUOUS
 62
    30
 10
162.0
 20
437.43684299999973
 30
0.0
 11
174.0
 21
437.43684299999973
 31
0.0
  0
LINE
  5
2DF
  8
SIZE
  6
CONTINUOUS
 62
    30
 10
187.02739099999991
 20
0.0
 30
0.0
 11
429.39029299999987
 21
0.0
 31
0.0
  0
LINE
  5
2E0
  8
SIZE
  6
CONTINUOUS
 62
    30
 10
162.0
 20
229.0
 30
0.0
 11
429.39029299999987
 21
229.0
 31
0.0
  0
LINE
  5
2E1
  8
SIZE
  6
CONTINUOUS
 62
    30
 10
409.39029299999987
 20
12.0
 30
0.0
 11
409.39029299999987
 21
217.0
 31
0.0
  0
CIRCLE
  5
2E2
  8
SIZE
  6
CONTINUOUS
 62
    30
 10
409.39029299999987
 20
0.0
 30
0.0
 40
6.0
  0
LINE
  5
2E3
  8
SIZE
  6
CONTINUOUS
 62
    30
 10
409.39029299999987
 20
0.0
 30
0.0
 11
409.39029299999987
 21
12.0
 31
0.0
  0
CIRCLE
  5
2E4
  8
SIZE
  6
CONTINUOUS
 62
    30
 10
409.39029299999987
 20
229.0
 30
0.0
 40
6.0
  0
LINE
  5
2E5
  8
SIZE
  6
CONTINUOUS
 62
    30
 10
409.39029299999987
 20
229.0
 30
0.0
 11
409.39029299999987
 21
217.0
 31
0.0
  0
TEXT
  5
2E6
  8
SIZE
  6
CONTINUOUS
 62
    30
 10
384.39029299999999
 20
41.81428571428571
 30
0.0
 40
64.0
  1
229
 50
90.0
 41
0.9
 72
     1
 11
384.39029299999999
 21
114.5
 31
0.0
  0
TEXT
  5
2E7
  8
ETC
  6
CONTINUOUS
 62
    61
 10
608.55536080866818
 20
774.88073478479839
 30
0.0
 40
64.0
  1
VD-18Z8_3
 41
0.9
  0
TEXT
  5
2E8
  8
ETC
  6
CONTINUOUS
 62
    61
 10
744.3284754371449
 20
570.10675398625472
 30
0.0
 40
50.0
  1
VD-18Z7
 41
0.9
  0
TEXT
  5
2E9
  8
ETC
  6
CONTINUOUS
 62
    61
 10
600.63965380866819
 20
656.23666678479833
 30
0.0
 40
64.0
  1
換気扇
 41
0.9
  0
LINE
  5
2EA
  8
OUTLINE
  6
CONTINUOUS
 62
     3
 10
-134.97260900000001
 20
200.0
 30
0.0
 11
135.02739099999999
 21
200.0
 31
0.0
  0
LINE
  5
2EB
  8
OUTLINE
  6
CONTINUOUS
 62
     3
 10
167.0547819999999
 20
0.0
 30
0.0
 11
-166.94521800000001
 21
0.0
 31
0.0
  0
LINE
  5
2ED
  8
OUTLINE
  6
CONTINUOUS
 62
     3
 10
-134.97260900000001
 20
0.0
 30
0.0
 11
-134.97260900000001
 21
200.0
 31
0.0
  0
LINE
  5
2EE
  8
OUTLINE
  6
CONTINUOUS
 62
     3
 10
0.027391
 20
0.0
 30
0.0
 11
-164.97260900000001
 21
0.0
 31
0.0
  0
LINE
  5
2EF
  8
OUTLINE
  6
CONTINUOUS
 62
     3
 10
0.027391
 20
0.0
 30
0.0
 11
-164.97260900000001
 21
0.0
 31
0.0
  0
LINE
  5
2F3
  8
OUTLINE
  6
CONTINUOUS
 62
     3
 10
135.02739099999999
 20
0.0
 30
0.0
 11
135.02739099999999
 21
200.0
 31
0.0
  0
LINE
  5
2F5
  8
OUTLINE
  6
CONTINUOUS
 62
     3
 10
131.054778
 20
0.0
 30
0.0
 11
0.0547819999999944
 21
0.0
 31
0.0
  0
POINT
  5
2F9
  8
ARRANGE
  6
CONTINUOUS
 62
     1
 10
0.0547819999999944
 20
0.0
 30
0.0
  0
TEXT
  5
3CC
  8
ETC
  6
CONTINUOUS
 62
    61
 10
744.3284754371449
 20
495.45511497104371
 30
0.0
 40
50.0
  1
VD-18Z8
 41
0.9
  0
ENDSEC
  0
EOF
