  0
SECTION
  2
HEADER
  9
$ACADVER
  1
AC1009
  9
$DWGCODEPAGE
  3
dos932
  9
$INSBASE
 10
0.0
 20
0.0
 30
0.0
  9
$EXTMIN
 10
-779.026778
 20
-651.123035
 30
-0.001526
  9
$EXTMAX
 10
1014.683544
 20
1040.130624
 30
50.001526
  9
$LIMMIN
 10
-2970.0
 20
-2100.0
  9
$LIMMAX
 10
2970.0
 20
2100.0
  9
$ORTHOMODE
 70
     1
  9
$REGENMODE
 70
     1
  9
$FILLMODE
 70
     1
  9
$QTEXTMODE
 70
     0
  9
$MIRRTEXT
 70
     0
  9
$DRAGMODE
 70
     2
  9
$LTSCALE
 40
20.0
  9
$OSMODE
 70
    37
  9
$ATTMODE
 70
     1
  9
$TEXTSIZE
 40
64.0
  9
$TRACEWID
 40
0.05
  9
$TEXTSTYLE
  7
STANDARD
  9
$CLAYER
  8
SIZE
  9
$CELTYPE
  6
CONTINUOUS
  9
$CECOLOR
 62
     7
  9
$DIMSCALE
 40
1.0
  9
$DIMASZ
 40
12.0
  9
$DIMEXO
 40
20.0
  9
$DIMDLI
 40
200.0
  9
$DIMRND
 40
0.0
  9
$DIMDLE
 40
0.0
  9
$DIMEXE
 40
20.0
  9
$DIMTP
 40
0.0
  9
$DIMTM
 40
0.0
  9
$DIMTXT
 40
64.0
  9
$DIMCEN
 40
0.09
  9
$DIMTSZ
 40
0.0
  9
$DIMTOL
 70
     0
  9
$DIMLIM
 70
     0
  9
$DIMTIH
 70
     0
  9
$DIMTOH
 70
     0
  9
$DIMSE1
 70
     0
  9
$DIMSE2
 70
     0
  9
$DIMTAD
 70
     1
  9
$DIMZIN
 70
     8
  9
$DIMBLK
  1
DOT1
  9
$DIMASO
 70
     1
  9
$DIMSHO
 70
     0
  9
$DIMPOST
  1

  9
$DIMAPOST
  1

  9
$DIMALT
 70
     0
  9
$DIMALTD
 70
     2
  9
$DIMALTF
 40
25.4
  9
$DIMLFAC
 40
1.0
  9
$DIMTOFL
 70
     1
  9
$DIMTVP
 40
0.0
  9
$DIMTIX
 70
     1
  9
$DIMSOXD
 70
     0
  9
$DIMSAH
 70
     1
  9
$DIMBLK1
  1
ORIGIN
  9
$DIMBLK2
  1
ORIGIN
  9
$DIMSTYLE
  2
STANDARD
  9
$DIMCLRD
 70
     7
  9
$DIMCLRE
 70
     7
  9
$DIMCLRT
 70
     7
  9
$DIMTFAC
 40
1.0
  9
$DIMGAP
 40
25.0
  9
$LUNITS
 70
     2
  9
$LUPREC
 70
     4
  9
$SKETCHINC
 40
0.1
  9
$FILLETRAD
 40
3.0
  9
$AUNITS
 70
     1
  9
$AUPREC
 70
     3
  9
$MENU
  1
ACAD
  9
$ELEVATION
 40
0.0
  9
$PELEVATION
 40
0.0
  9
$THICKNESS
 40
50.0
  9
$LIMCHECK
 70
     0
  9
$CHAMFERA
 40
0.0
  9
$CHAMFERB
 40
0.0
  9
$SKPOLY
 70
     0
  9
$TDCREATE
 40
2453019.623010359
  9
$TDUPDATE
 40
2457485.594750278
  9
$TDINDWG
 40
1.6779859838
  9
$TDUSRTIMER
 40
1.6779859838
  9
$USRTIMER
 70
     1
  9
$ANGBASE
 50
0.0
  9
$ANGDIR
 70
     0
  9
$PDMODE
 70
     3
  9
$PDSIZE
 40
-2.0
  9
$PLINEWID
 40
0.0
  9
$COORDS
 70
     1
  9
$SPLFRAME
 70
     0
  9
$SPLINETYPE
 70
     6
  9
$SPLINESEGS
 70
     8
  9
$ATTDIA
 70
     0
  9
$ATTREQ
 70
     1
  9
$HANDLING
 70
     1
  9
$HANDSEED
  5
EB07
  9
$SURFTAB1
 70
     6
  9
$SURFTAB2
 70
     6
  9
$SURFTYPE
 70
     6
  9
$SURFU
 70
     6
  9
$SURFV
 70
     6
  9
$UCSNAME
  2

  9
$UCSORG
 10
0.0
 20
0.0
 30
0.0
  9
$UCSXDIR
 10
1.0
 20
0.0
 30
0.0
  9
$UCSYDIR
 10
0.0
 20
1.0
 30
0.0
  9
$PUCSNAME
  2

  9
$PUCSORG
 10
0.0
 20
0.0
 30
0.0
  9
$PUCSXDIR
 10
1.0
 20
0.0
 30
0.0
  9
$PUCSYDIR
 10
0.0
 20
1.0
 30
0.0
  9
$USERI1
 70
     0
  9
$USERI2
 70
     0
  9
$USERI3
 70
     0
  9
$USERI4
 70
     0
  9
$USERI5
 70
     0
  9
$USERR1
 40
20.0
  9
$USERR2
 40
0.0
  9
$USERR3
 40
0.0
  9
$USERR4
 40
0.0
  9
$USERR5
 40
0.0
  9
$WORLDVIEW
 70
     1
  9
$SHADEDGE
 70
     3
  9
$SHADEDIF
 70
    70
  9
$TILEMODE
 70
     1
  9
$MAXACTVP
 70
    48
  9
$PLIMCHECK
 70
     0
  9
$PEXTMIN
 10
-1.000000000000000E+20
 20
-1.000000000000000E+20
 30
-1.000000000000000E+20
  9
$PEXTMAX
 10
1.000000000000000E+20
 20
1.000000000000000E+20
 30
1.000000000000000E+20
  9
$PLIMMIN
 10
0.0
 20
0.0
  9
$PLIMMAX
 10
12.0
 20
9.0
  9
$UNITMODE
 70
     0
  9
$VISRETAIN
 70
     0
  9
$PLINEGEN
 70
     0
  9
$PSLTSCALE
 70
     0
  0
ENDSEC
  0
SECTION
  2
TABLES
  0
TABLE
  2
VPORT
 70
     1
  0
VPORT
  2
*ACTIVE
 70
     0
 10
0.0
 20
0.0
 11
1.0
 21
1.0
 12
117.828383
 22
194.503794
 13
0.0
 23
0.0
 14
1.0
 24
1.0
 15
0.0
 25
0.0
 16
0.0
 26
0.0
 36
1.0
 17
0.0
 27
0.0
 37
0.0
 40
1704.801753
 41
1.629679
 42
50.0
 43
0.0
 44
0.0
 50
0.0
 51
0.0
 71
     0
 72
  1000
 73
     1
 74
     0
 75
     0
 76
     0
 77
     0
 78
     0
  0
ENDTAB
  0
TABLE
  2
LTYPE
 70
     2
  0
LTYPE
  2
CONTINUOUS
 70
     0
  3
実線
 72
    65
 73
     0
 40
0.0
  0
LTYPE
  2
DASHDOT
 70
     0
  3
____ _ ____ _ ____ _ ____ _ ____ _ ____ _ ____
 72
    65
 73
     4
 40
5.5
 49
4.0
 49
-0.6
 49
0.3
 49
-0.6
  0
ENDTAB
  0
TABLE
  2
LAYER
 70
    12
  0
LAYER
  2
0
 70
     0
 62
     7
  6
CONTINUOUS
  0
LAYER
  2
DEFPOINTS
 70
     0
 62
     7
  6
CONTINUOUS
  0
LAYER
  2
ETC
 70
     0
 62
    61
  6
CONTINUOUS
  0
LAYER
  2
SIZE
 70
     0
 62
    30
  6
CONTINUOUS
  0
LAYER
  2
BASIS
 70
     0
 62
     6
  6
DASHDOT
  0
LAYER
  2
OUTLINE
 70
     0
 62
     3
  6
CONTINUOUS
  0
LAYER
  2
DETAIL
 70
     0
 62
     5
  6
CONTINUOUS
  0
LAYER
  2
ARRANGE
 70
     0
 62
     1
  6
CONTINUOUS
  0
LAYER
  2
FIX
 70
     0
 62
    11
  6
CONTINUOUS
  0
LAYER
  2
NOTE
 70
     0
 62
     4
  6
CONTINUOUS
  0
LAYER
  2
SERVICESPACE
 70
     0
 62
     2
  6
DASHDOT
  0
LAYER
  2
SYMBOLLINE
 70
     0
 62
    15
  6
CONTINUOUS
  0
ENDTAB
  0
TABLE
  2
STYLE
 70
     1
  0
STYLE
  2
STANDARD
 70
     0
 40
64.0
 41
0.9
 50
0.0
 71
     0
 42
64.0
  3
SIMPLEX.shx
  4
BIGFONT.shx
  0
ENDTAB
  0
TABLE
  2
VIEW
 70
     1
  0
VIEW
  2
ALL
 70
     0
 40
4282.619808
 10
0.0
 20
41.309904
 41
5940.0
 11
0.0
 21
0.0
 31
1.0
 12
0.0
 22
0.0
 32
0.0
 42
50.0
 43
0.0
 44
0.0
 50
0.0
 71
     0
  0
ENDTAB
  0
TABLE
  2
UCS
 70
     0
  0
ENDTAB
  0
TABLE
  2
APPID
 70
    15
  0
APPID
  2
ACAD
 70
     0
  0
APPID
  2
AUTOCAD_POSTSCRIPT_FIGURE
 70
     0
  0
APPID
  2
ACAD_EXEMPT_FROM_CAD_STAND
 70
     0
  0
APPID
  2
ACAD_PSEXT
 70
     0
  0
APPID
  2
ACAUTHENVIRON
 70
     0
  0
APPID
  2
GENIUS_GENOENT_13
 70
     0
  0
APPID
  2
GENIUS_GENCFG_13
 70
     0
  0
APPID
  2
GENIUS_GENCFG0_13
 70
     0
  0
APPID
  2
GENIUS_GENCFG1_13
 70
     0
  0
APPID
  2
GENIUS_GENCFG2_13
 70
     0
  0
APPID
  2
GENIUS_GENCFG3_13
 70
     0
  0
APPID
  2
GENIUS_GENCFG4_13
 70
     0
  0
APPID
  2
GENIUS_GEVCFG0_13
 70
     0
  0
APPID
  2
CONTENTBLOCKICON
 70
     0
  0
APPID
  2
CONTENTBLOCKDESCRIPTION
 70
     0
  0
ENDTAB
  0
TABLE
  2
DIMSTYLE
 70
     1
  0
DIMSTYLE
  2
STANDARD
 70
     0
  3

  4

  5

  6

  7

 40
1.0
 41
0.18
 42
0.0625
 43
0.38
 44
0.18
 45
0.0
 46
0.0
 47
0.0
 48
0.0
140
0.18
141
0.09
142
0.0
143
25.4
144
1.0
145
0.0
146
1.0
147
0.09
 71
     0
 72
     0
 73
     1
 74
     1
 75
     0
 76
     0
 77
     0
 78
     0
170
     0
171
     2
172
     0
173
     0
174
     0
175
     0
176
     7
177
     7
178
     7
  0
ENDTAB
  0
ENDSEC
  0
SECTION
  2
BLOCKS
  0
BLOCK
  8
0
  2
$MODEL_SPACE
 70
     0
 10
0.0
 20
0.0
 30
0.0
  3
$MODEL_SPACE
  1

  0
ENDBLK
  5
EADF
  8
0
  0
BLOCK
 67
     1
  8
0
  2
$PAPER_SPACE
 70
     0
 10
0.0
 20
0.0
 30
0.0
  3
$PAPER_SPACE
  1

  0
ENDBLK
  5
EAE1
 67
     1
  8
0
  0
BLOCK
  8
0
  2
DOT1
 70
     0
 10
0.0
 20
0.0
 30
0.0
  3
DOT1
  1

  0
CIRCLE
  5
E940
  8
SIZE
  6
CONTINUOUS
 62
     7
 10
0.0
 20
0.0
 30
0.0
 40
3.0
  0
ENDBLK
  5
E941
  8
0
  0
BLOCK
  8
0
  2
_ORIGIN
 70
     0
 10
0.0
 20
0.0
 30
0.0
  3
_ORIGIN
  1

  0
CIRCLE
  5
E944
  8
0
  6
CONTINUOUS
 62
     7
 10
0.0
 20
0.0
 30
0.0
 40
0.5
  0
LINE
  5
E945
  8
0
  6
CONTINUOUS
 62
     7
 10
0.0
 20
0.0
 30
0.0
 11
-1.0
 21
0.0
 31
0.0
  0
ENDBLK
  5
E946
  8
0
  0
ENDSEC
  0
SECTION
  2
ENTITIES
  0
POINT
  5
E947
  8
ARRANGE
  6
CONTINUOUS
 62
     1
 10
-0.027391
 20
0.0
 30
0.0
  0
LINE
  5
E948
  8
OUTLINE
  6
CONTINUOUS
 62
     3
 10
130.999997
 20
0.0
 30
0.0
 11
0.0
 21
0.0
 31
0.0
  0
LINE
  5
E949
  8
OUTLINE
  6
CONTINUOUS
 62
     3
 10
-0.027391
 20
0.0
 30
0.0
 11
164.972609
 21
0.0
 31
0.0
  0
LINE
  5
E94A
  8
OUTLINE
  6
CONTINUOUS
 62
     3
 10
167.0
 20
0.0
 30
0.0
 11
-167.0
 21
0.0
 31
0.0
  0
LINE
  5
E94B
  8
OUTLINE
  6
CONTINUOUS
 62
     3
 10
135.0
 20
200.0
 30
0.0
 11
-135.0
 21
200.0
 31
0.0
  0
CIRCLE
  5
E94C
  8
ARRANGE
  6
CONTINUOUS
 62
     1
 10
0.0
 20
0.0
 30
0.0
 40
40.0
  0
TEXT
  5
E94D
  8
SIZE
  6
CONTINUOUS
 62
    30
 10
-108.3428571428571
 20
-606.017098
 30
0.0
 40
64.0
  1
□334
 41
0.9
 72
     1
 11
0.0
 21
-606.017098
 31
0.0
  0
LINE
  5
E94E
  8
SIZE
  6
CONTINUOUS
 62
    30
 10
-155.0
 20
-631.017098
 30
0.0
 11
155.0
 21
-631.017098
 31
0.0
  0
LINE
  5
E94F
  8
DETAIL
  6
CONTINUOUS
 62
     5
 10
125.094582
 20
-15.0
 30
0.0
 11
0.0
 21
-15.0
 31
0.0
  0
LINE
  5
E950
  8
DETAIL
  6
CONTINUOUS
 62
     5
 10
130.999997
 20
0.0
 30
0.0
 11
0.0
 21
0.0
 31
0.0
  0
LINE
  5
E951
  8
DETAIL
  6
CONTINUOUS
 62
     5
 10
-0.027391
 20
0.0
 30
0.0
 11
164.972609
 21
0.0
 31
0.0
  0
LINE
  5
E952
  8
DETAIL
  6
CONTINUOUS
 62
     5
 10
167.0
 20
0.0
 30
0.0
 11
-167.0
 21
0.0
 31
0.0
  0
LINE
  5
E953
  8
DETAIL
  6
CONTINUOUS
 62
     5
 10
162.207297
 20
-7.5
 30
0.0
 11
-162.207297
 21
-7.5
 31
0.0
  0
LINE
  5
E954
  8
DETAIL
  6
CONTINUOUS
 62
     5
 10
166.663935
 20
-3.0
 30
0.0
 11
-166.663935
 21
-3.0
 31
0.0
  0
TEXT
  5
E955
  8
SIZE
  6
CONTINUOUS
 62
    30
 10
-82.28571428571429
 20
605.898733
 30
0.0
 40
64.0
  1
200
 41
0.9
 72
     1
 11
0.0
 21
605.898733
 31
0.0
  0
LINE
  5
E956
  8
SIZE
  6
CONTINUOUS
 62
    30
 10
-88.0
 20
584.546652
 30
0.0
 11
88.0
 21
584.546652
 31
0.0
  0
TEXT
  5
E957
  8
SIZE
  6
CONTINUOUS
 62
    30
 10
-106.9714285714286
 20
729.44216
 30
0.0
 40
64.0
  1
□270
 41
0.9
 72
     1
 11
0.0
 21
729.44216
 31
0.0
  0
LINE
  5
E958
  8
SIZE
  6
CONTINUOUS
 62
    30
 10
-123.0
 20
708.013573
 30
0.0
 11
123.0
 21
708.013573
 31
0.0
  0
TEXT
  5
E959
  8
SIZE
  6
CONTINUOUS
 62
    30
 10
-78.54285714285714
 20
482.355305
 30
0.0
 40
64.0
  1
φ82
 41
0.9
 72
     1
 11
1.0
 21
482.355305
 31
0.0
  0
LINE
  5
E95A
  8
SIZE
  6
CONTINUOUS
 62
    30
 10
-28.0
 20
458.388027
 30
0.0
 11
30.0
 21
458.388027
 31
0.0
  0
LINE
  5
E95B
  8
DETAIL
  6
CONTINUOUS
 62
     5
 10
75.0
 20
192.0
 30
0.0
 11
-75.0
 21
192.0
 31
0.0
  0
LINE
  5
E95C
  8
DETAIL
  6
CONTINUOUS
 62
     5
 10
75.0
 20
200.0
 30
0.0
 11
-75.0
 21
200.0
 31
0.0
  0
LINE
  5
E95D
  8
DETAIL
  6
CONTINUOUS
 62
     5
 10
42.0
 20
214.0
 30
0.0
 11
-40.0
 21
214.0
 31
0.0
  0
TEXT
  5
E95E
  8
SIZE
  6
CONTINUOUS
 62
    30
 10
-82.37002128571429
 20
-348.18651
 30
0.0
 40
64.0
  1
230
 41
0.9
 72
     1
 11
-0.084307
 21
-348.18651
 31
0.0
  0
LINE
  5
E95F
  8
SIZE
  6
CONTINUOUS
 62
    30
 10
103.0
 20
-372.088453
 30
0.0
 11
-103.0
 21
-372.088453
 31
0.0
  0
LINE
  5
E960
  8
DETAIL
  6
CONTINUOUS
 62
     5
 10
-3.852012
 20
243.0
 30
0.0
 11
1.0
 21
243.0
 31
0.0
  0
LINE
  5
E961
  8
DETAIL
  6
CONTINUOUS
 62
     5
 10
1.0
 20
240.423902
 30
0.0
 11
-21.08
 21
240.423902
 31
0.0
  0
LINE
  5
E962
  8
DETAIL
  6
CONTINUOUS
 62
     5
 10
-21.08
 20
238.399986
 30
0.0
 11
1.0
 21
238.399986
 31
0.0
  0
LINE
  5
E963
  8
DETAIL
  6
CONTINUOUS
 62
     5
 10
-34.94
 20
238.399986
 30
0.0
 11
1.0
 21
238.399986
 31
0.0
  0
LINE
  5
E964
  8
DETAIL
  6
CONTINUOUS
 62
     5
 10
1.0
 20
240.423902
 30
0.0
 11
-28.468953
 21
240.423902
 31
0.0
  0
LINE
  5
E965
  8
DETAIL
  6
CONTINUOUS
 62
     5
 10
61.0
 20
208.0
 30
0.0
 11
-59.0
 21
208.0
 31
0.0
  0
LINE
  5
E966
  8
OUTLINE
  6
CONTINUOUS
 62
     3
 10
-135.0
 20
0.0
 30
0.0
 11
-135.0
 21
200.0
 31
0.0
  0
LINE
  5
E967
  8
SIZE
  6
CONTINUOUS
 62
    30
 10
-479.75385
 20
0.0
 30
0.0
 11
-479.75385
 21
12.0
 31
0.0
  0
CIRCLE
  5
E968
  8
SIZE
  6
CONTINUOUS
 62
    30
 10
-479.75385
 20
0.0
 30
0.0
 40
6.0
  0
LINE
  5
E969
  8
DETAIL
  6
CONTINUOUS
 62
     5
 10
-135.0
 20
0.0
 30
0.0
 11
-135.0
 21
229.0
 31
0.0
  0
LINE
  5
E96A
  8
DETAIL
  6
CONTINUOUS
 62
     5
 10
-136.75
 20
229.0
 30
0.0
 11
-136.75
 21
0.0
 31
0.0
  0
LINE
  5
E96B
  8
DETAIL
  6
CONTINUOUS
 62
     5
 10
-140.25
 20
54.0
 30
0.0
 11
-140.25
 21
0.0
 31
0.0
  0
LINE
  5
E96C
  8
NOTE
  6
CONTINUOUS
 62
     4
 10
-115.0
 20
-20.0
 30
0.0
 11
-115.0
 21
20.0
 31
0.0
  0
LINE
  5
E96D
  8
NOTE
  6
CONTINUOUS
 62
     4
 10
-146.0
 20
-20.0
 30
0.0
 11
-146.0
 21
20.0
 31
0.0
  0
CIRCLE
  5
E96E
  8
FIX
  6
CONTINUOUS
 62
    11
 10
-146.0
 20
0.0
 30
0.0
 40
2.5
  0
CIRCLE
  5
E96F
  8
FIX
  6
CONTINUOUS
 62
    11
 10
-115.0
 20
0.0
 30
0.0
 40
2.5
  0
LINE
  5
E970
  8
DETAIL
  6
CONTINUOUS
 62
     5
 10
-135.0
 20
0.0
 30
0.0
 11
-135.0
 21
200.0
 31
0.0
  0
LINE
  5
E971
  8
BASIS
  6
DASHDOT
 62
     6
 10
0.0
 20
-73.243109
 30
0.0
 11
0.0
 21
291.479483
 31
0.0
  0
LINE
  5
E972
  8
SIZE
  6
CONTINUOUS
 62
    30
 10
-187.0
 20
0.0
 30
0.0
 11
-499.75385
 21
0.0
 31
0.0
  0
LINE
  5
E973
  8
SIZE
  6
CONTINUOUS
 62
    30
 10
-479.75385
 20
-5.102312
 30
0.0
 11
-479.75385
 21
-171.742223
 31
0.0
  0
TEXT
  5
E974
  8
SIZE
  6
CONTINUOUS
 62
    30
 10
-500.972635
 20
-185.324703
 30
0.0
 40
64.0
  1
135
 50
90.0
 41
0.9
 72
     1
 11
-500.972635
 21
-98.924703
 31
0.0
  0
LINE
  5
E975
  8
SIZE
  6
CONTINUOUS
 62
    30
 10
-167.0
 20
-20.0
 30
0.0
 11
-167.0
 21
-651.017098
 31
0.0
  0
CIRCLE
  5
E976
  8
SIZE
  6
CONTINUOUS
 62
    30
 10
-167.0
 20
-631.017098
 30
0.0
 40
6.0
  0
LINE
  5
E977
  8
SIZE
  6
CONTINUOUS
 62
    30
 10
-167.0
 20
-631.017098
 30
0.0
 11
-155.0
 21
-631.017098
 31
0.0
  0
LINE
  5
E978
  8
SIZE
  6
CONTINUOUS
 62
    30
 10
-115.0
 20
-40.0
 30
0.0
 11
-115.0
 21
-392.088453
 31
0.0
  0
CIRCLE
  5
E979
  8
SIZE
  6
CONTINUOUS
 62
    30
 10
-115.0
 20
-372.088453
 30
0.0
 40
6.0
  0
LINE
  5
E97A
  8
SIZE
  6
CONTINUOUS
 62
    30
 10
-115.0
 20
-372.088453
 30
0.0
 11
-103.0
 21
-372.088453
 31
0.0
  0
LINE
  5
E97B
  8
OUTLINE
  6
CONTINUOUS
 62
     3
 10
-0.027391
 20
0.0
 30
0.0
 11
-165.027391
 21
0.0
 31
0.0
  0
LINE
  5
E97C
  8
OUTLINE
  6
CONTINUOUS
 62
     3
 10
-0.027391
 20
0.0
 30
0.0
 11
-165.027391
 21
0.0
 31
0.0
  0
LINE
  5
E97D
  8
DETAIL
  6
CONTINUOUS
 62
     5
 10
-125.094582
 20
-15.0
 30
0.0
 11
0.0
 21
-15.0
 31
0.0
  0
LINE
  5
E97E
  8
DETAIL
  6
CONTINUOUS
 62
     5
 10
-0.027391
 20
0.0
 30
0.0
 11
-165.027391
 21
0.0
 31
0.0
  0
LINE
  5
E97F
  8
DETAIL
  6
CONTINUOUS
 62
     5
 10
-0.027391
 20
0.0
 30
0.0
 11
-165.027391
 21
0.0
 31
0.0
  0
LINE
  5
E980
  8
NOTE
  6
CONTINUOUS
 62
     4
 10
-135.0
 20
0.0
 30
0.0
 11
-95.0
 21
0.0
 31
0.0
  0
LINE
  5
E981
  8
NOTE
  6
CONTINUOUS
 62
     4
 10
-166.0
 20
0.0
 30
0.0
 11
-126.0
 21
0.0
 31
0.0
  0
LINE
  5
E982
  8
DETAIL
  6
CONTINUOUS
 62
     5
 10
-167.0
 20
-0.857123
 30
0.0
 11
-167.0
 21
0.0
 31
0.0
  0
ARC
  5
E983
  8
DETAIL
  6
CONTINUOUS
 62
     5
 10
-43.98603
 20
483.464984
 30
0.0
 40
505.02073
 50
256.550648
 51
260.75802
  0
ARC
  5
E984
  8
DETAIL
  6
CONTINUOUS
 62
     5
 10
-159.999997
 20
-0.857123
 30
0.0
 40
7.0
 50
180.0
 51
258.073085
  0
LINE
  5
E985
  8
SIZE
  6
CONTINUOUS
 62
    30
 10
-277.0
 20
227.0
 30
0.0
 11
-277.0
 21
728.013573
 31
0.0
  0
LINE
  5
E986
  8
SIZE
  6
CONTINUOUS
 62
    30
 10
-135.0
 20
247.0
 30
0.0
 11
-135.0
 21
728.013573
 31
0.0
  0
TEXT
  5
E987
  8
SIZE
  6
CONTINUOUS
 62
    30
 10
-433.8748538571429
 20
607.225138
 30
0.0
 40
64.0
  1
57
 41
0.9
 72
     1
 11
-379.017711
 21
607.225138
 31
0.0
  0
LINE
  5
E988
  8
SIZE
  6
CONTINUOUS
 62
    30
 10
-135.0
 20
247.0
 30
0.0
 11
-135.0
 21
728.013573
 31
0.0
  0
LINE
  5
E989
  8
SIZE
  6
CONTINUOUS
 62
    30
 10
-270.0
 20
59.0
 30
0.0
 11
-709.631937
 21
59.0
 31
0.0
  0
LINE
  5
E98A
  8
SIZE
  6
CONTINUOUS
 62
    30
 10
-270.0
 20
211.0
 30
0.0
 11
-709.631937
 21
211.0
 31
0.0
  0
LINE
  5
E98B
  8
SIZE
  6
CONTINUOUS
 62
    30
 10
-297.0
 20
207.0
 30
0.0
 11
-582.365283
 21
207.0
 31
0.0
  0
LINE
  5
E98C
  8
SIZE
  6
CONTINUOUS
 62
    30
 10
-300.0
 20
63.0
 30
0.0
 11
-582.365283
 21
63.0
 31
0.0
  0
LINE
  5
E98D
  8
SIZE
  6
CONTINUOUS
 62
    30
 10
-328.764257
 20
135.0
 30
0.0
 11
-499.75385
 21
135.0
 31
0.0
  0
LINE
  5
E98E
  8
SIZE
  6
CONTINUOUS
 62
    30
 10
-689.631937
 20
211.0
 30
0.0
 11
-689.631937
 21
461.517547
 31
0.0
  0
LINE
  5
E98F
  8
SIZE
  6
CONTINUOUS
 62
    30
 10
-562.365283
 20
207.0
 30
0.0
 11
-562.365283
 21
458.801218
 31
0.0
  0
TEXT
  5
E990
  8
SIZE
  6
CONTINUOUS
 62
    30
 10
-714.631937
 20
239.9022754285714
 30
0.0
 40
64.0
  1
φ152
 50
90.0
 41
0.9
 72
     1
 11
-714.631937
 21
346.873704
 31
0.0
  0
LINE
  5
E991
  8
SIZE
  6
CONTINUOUS
 62
    30
 10
-689.631937
 20
469.245133
 30
0.0
 11
-689.631937
 21
211.0
 31
0.0
  0
TEXT
  5
E992
  8
SIZE
  6
CONTINUOUS
 62
    30
 10
-587.365283
 20
238.5308468571428
 30
0.0
 40
64.0
  1
φ144
 50
90.0
 41
0.9
 72
     1
 11
-587.365283
 21
346.873704
 31
0.0
  0
LINE
  5
E993
  8
SIZE
  6
CONTINUOUS
 62
    30
 10
-562.365283
 20
470.616561
 30
0.0
 11
-562.365283
 21
207.0
 31
0.0
  0
LINE
  5
E994
  8
SIZE
  6
CONTINUOUS
 62
    30
 10
-689.631937
 20
199.0
 30
0.0
 11
-689.631937
 21
71.0
 31
0.0
  0
LINE
  5
E995
  8
SIZE
  6
CONTINUOUS
 62
    30
 10
-562.365283
 20
75.0
 30
0.0
 11
-562.365283
 21
195.0
 31
0.0
  0
LINE
  5
E996
  8
SIZE
  6
CONTINUOUS
 62
    30
 10
-689.631937
 20
59.0
 30
0.0
 11
-689.631937
 21
71.0
 31
0.0
  0
CIRCLE
  5
E997
  8
SIZE
  6
CONTINUOUS
 62
    30
 10
-689.631937
 20
59.0
 30
0.0
 40
6.0
  0
LINE
  5
E998
  8
SIZE
  6
CONTINUOUS
 62
    30
 10
-479.75385
 20
123.0
 30
0.0
 11
-479.75385
 21
12.0
 31
0.0
  0
LINE
  5
E999
  8
SIZE
  6
CONTINUOUS
 62
    30
 10
-562.365283
 20
63.0
 30
0.0
 11
-562.365283
 21
75.0
 31
0.0
  0
CIRCLE
  5
E99A
  8
SIZE
  6
CONTINUOUS
 62
    30
 10
-562.365283
 20
63.0
 30
0.0
 40
6.0
  0
LINE
  5
E99B
  8
SIZE
  6
CONTINUOUS
 62
    30
 10
-479.75385
 20
135.0
 30
0.0
 11
-479.75385
 21
123.0
 31
0.0
  0
CIRCLE
  5
E99C
  8
SIZE
  6
CONTINUOUS
 62
    30
 10
-479.75385
 20
135.0
 30
0.0
 40
6.0
  0
LINE
  5
E99D
  8
SIZE
  6
CONTINUOUS
 62
    30
 10
-689.631937
 20
211.0
 30
0.0
 11
-689.631937
 21
199.0
 31
0.0
  0
CIRCLE
  5
E99E
  8
SIZE
  6
CONTINUOUS
 62
    30
 10
-689.631937
 20
211.0
 30
0.0
 40
6.0
  0
LINE
  5
E99F
  8
SIZE
  6
CONTINUOUS
 62
    30
 10
-562.365283
 20
207.0
 30
0.0
 11
-562.365283
 21
195.0
 31
0.0
  0
CIRCLE
  5
E9A0
  8
SIZE
  6
CONTINUOUS
 62
    30
 10
-562.365283
 20
207.0
 30
0.0
 40
6.0
  0
LINE
  5
E9A1
  8
SIZE
  6
CONTINUOUS
 62
    30
 10
-220.0
 20
235.0
 30
0.0
 11
-220.0
 21
602.225138
 31
0.0
  0
LINE
  5
E9A2
  8
SIZE
  6
CONTINUOUS
 62
    30
 10
-277.0
 20
227.0
 30
0.0
 11
-277.0
 21
602.225138
 31
0.0
  0
LINE
  5
E9A3
  8
SIZE
  6
CONTINUOUS
 62
    30
 10
-250.0
 20
231.0
 30
0.0
 11
-250.0
 21
480.674477
 31
0.0
  0
LINE
  5
E9A4
  8
SIZE
  6
CONTINUOUS
 62
    30
 10
-277.0
 20
227.0
 30
0.0
 11
-277.0
 21
480.674477
 31
0.0
  0
LINE
  5
E9A5
  8
SIZE
  6
CONTINUOUS
 62
    30
 10
-100.0
 20
248.0
 30
0.0
 11
-100.0
 21
604.546652
 31
0.0
  0
LINE
  5
E9A6
  8
SIZE
  6
CONTINUOUS
 62
    30
 10
-40.0
 20
253.344214
 30
0.0
 11
-40.0
 21
478.388027
 31
0.0
  0
LINE
  5
E9A7
  8
DETAIL
  6
CONTINUOUS
 62
     5
 10
-250.0
 20
211.0
 30
0.0
 11
-220.0
 21
211.0
 31
0.0
  0
LINE
  5
E9A8
  8
DETAIL
  6
CONTINUOUS
 62
     5
 10
-250.0
 20
59.0
 30
0.0
 11
-220.0
 21
59.0
 31
0.0
  0
LINE
  5
E9A9
  8
BASIS
  6
DASHDOT
 62
     6
 10
-308.764257
 20
135.0
 30
0.0
 11
-111.716452
 21
135.0
 31
0.0
  0
LINE
  5
E9AA
  8
DETAIL
  6
CONTINUOUS
 62
     5
 10
-277.0
 20
63.0
 30
0.0
 11
-277.0
 21
207.0
 31
0.0
  0
LINE
  5
E9AB
  8
DETAIL
  6
CONTINUOUS
 62
     5
 10
-250.0
 20
59.0
 30
0.0
 11
-250.0
 21
211.0
 31
0.0
  0
TEXT
  5
E9AC
  8
NOTE
  6
CONTINUOUS
 62
     4
 10
-432.723002
 20
93.632476
 30
0.0
 40
64.0
  1
EA
 41
0.9
  0
LINE
  5
E9AD
  8
DETAIL
  6
CONTINUOUS
 62
     5
 10
-277.0
 20
63.0
 30
0.0
 11
-250.0
 21
63.0
 31
0.0
  0
LINE
  5
E9AE
  8
DETAIL
  6
CONTINUOUS
 62
     5
 10
-277.0
 20
207.0
 30
0.0
 11
-250.0
 21
207.0
 31
0.0
  0
LINE
  5
E9AF
  8
DETAIL
  6
CONTINUOUS
 62
     5
 10
-220.0
 20
54.0
 30
0.0
 11
-220.0
 21
216.0
 31
0.0
  0
LINE
  5
E9B0
  8
DETAIL
  6
CONTINUOUS
 62
     5
 10
-125.0
 20
7.0
 30
0.0
 11
-125.0
 21
207.0
 31
0.0
  0
LINE
  5
E9B1
  8
DETAIL
  6
CONTINUOUS
 62
     5
 10
-75.0
 20
7.0
 30
0.0
 11
-75.0
 21
207.0
 31
0.0
  0
LINE
  5
E9B2
  8
DETAIL
  6
CONTINUOUS
 62
     5
 10
-125.0
 20
7.0
 30
0.0
 11
-75.0
 21
7.0
 31
0.0
  0
LINE
  5
E9B3
  8
DETAIL
  6
CONTINUOUS
 62
     5
 10
-220.0
 20
54.0
 30
0.0
 11
-135.0
 21
54.0
 31
0.0
  0
LINE
  5
E9B4
  8
DETAIL
  6
CONTINUOUS
 62
     5
 10
-64.75077999999999
 20
28.0
 30
0.0
 11
-43.75078
 21
28.0
 31
0.0
  0
LINE
  5
E9B5
  8
DETAIL
  6
CONTINUOUS
 62
     5
 10
-64.75077999999999
 20
8.0
 30
0.0
 11
-43.75078
 21
8.0
 31
0.0
  0
LINE
  5
E9B6
  8
DETAIL
  6
CONTINUOUS
 62
     5
 10
-64.75077999999999
 20
25.0
 30
0.0
 11
-43.75078
 21
25.0
 31
0.0
  0
LINE
  5
E9B7
  8
DETAIL
  6
CONTINUOUS
 62
     5
 10
-64.75077999999999
 20
11.0
 30
0.0
 11
-43.75078
 21
11.0
 31
0.0
  0
LINE
  5
E9B8
  8
BASIS
  6
DASHDOT
 62
     6
 10
-79.284601
 20
18.0
 30
0.0
 11
-28.718519
 21
18.0
 31
0.0
  0
LINE
  5
E9B9
  8
DETAIL
  6
CONTINUOUS
 62
     5
 10
-74.75077999999999
 20
18.0
 30
0.0
 11
-74.75077999999999
 21
18.0
 31
0.0
  0
ARC
  5
E9BA
  8
DETAIL
  6
CONTINUOUS
 62
     5
 10
-64.75077999999999
 20
18.0
 30
0.0
 40
10.0
 50
90.0
 51
180.0
  0
ARC
  5
E9BB
  8
DETAIL
  6
CONTINUOUS
 62
     5
 10
-64.75077999999999
 20
18.0
 30
0.0
 40
10.0
 50
180.0
 51
270.0
  0
ARC
  5
E9BC
  8
DETAIL
  6
CONTINUOUS
 62
     5
 10
-64.75077999999999
 20
18.0
 30
0.0
 40
7.0
 50
90.0
 51
180.0
  0
ARC
  5
E9BD
  8
DETAIL
  6
CONTINUOUS
 62
     5
 10
-64.75077999999999
 20
18.0
 30
0.0
 40
7.0
 50
180.0
 51
270.0
  0
ARC
  5
E9BE
  8
DETAIL
  6
CONTINUOUS
 62
     5
 10
-43.75078
 20
18.0
 30
0.0
 40
10.0
 50
0.0
 51
90.0
  0
ARC
  5
E9BF
  8
DETAIL
  6
CONTINUOUS
 62
     5
 10
-43.75078
 20
18.0
 30
0.0
 40
10.0
 50
270.0
 51
0.0
  0
ARC
  5
E9C0
  8
DETAIL
  6
CONTINUOUS
 62
     5
 10
-43.75078
 20
18.0
 30
0.0
 40
7.0
 50
270.0
 51
0.0
  0
ARC
  5
E9C1
  8
DETAIL
  6
CONTINUOUS
 62
     5
 10
-43.75078
 20
18.0
 30
0.0
 40
7.0
 50
0.0
 51
90.0
  0
LINE
  5
E9C2
  8
BASIS
  6
DASHDOT
 62
     6
 10
-54.25078
 20
3.523891
 30
0.0
 11
-54.25078
 21
33.438381
 31
0.0
  0
LINE
  5
E9C3
  8
NOTE
  6
CONTINUOUS
 62
     4
 10
-80.0
 20
207.0
 30
0.0
 11
-120.0
 21
207.0
 31
0.0
  0
LINE
  5
E9C4
  8
DETAIL
  6
CONTINUOUS
 62
     5
 10
-125.0
 20
203.5
 30
0.0
 11
-75.0
 21
203.5
 31
0.0
  0
LINE
  5
E9C5
  8
DETAIL
  6
CONTINUOUS
 62
     5
 10
-125.0
 20
207.0
 30
0.0
 11
-75.0
 21
207.0
 31
0.0
  0
LINE
  5
E9C6
  8
DETAIL
  6
CONTINUOUS
 62
     5
 10
-125.0
 20
207.0
 30
0.0
 11
-75.0
 21
207.0
 31
0.0
  0
LINE
  5
E9C7
  8
DETAIL
  6
CONTINUOUS
 62
     5
 10
-220.0
 20
216.0
 30
0.0
 11
-136.75
 21
216.0
 31
0.0
  0
LINE
  5
E9C8
  8
DETAIL
  6
CONTINUOUS
 62
     5
 10
-140.25
 20
229.0
 30
0.0
 11
-135.0
 21
229.0
 31
0.0
  0
LINE
  5
E9C9
  8
DETAIL
  6
CONTINUOUS
 62
     5
 10
-140.25
 20
229.0
 30
0.0
 11
-140.25
 21
216.0
 31
0.0
  0
LINE
  5
E9CA
  8
DETAIL
  6
CONTINUOUS
 62
     5
 10
-125.0
 20
200.0
 30
0.0
 11
-135.0
 21
200.0
 31
0.0
  0
LINE
  5
E9CB
  8
DETAIL
  6
CONTINUOUS
 62
     5
 10
-125.0
 20
192.0
 30
0.0
 11
-135.0
 21
192.0
 31
0.0
  0
LINE
  5
E9CC
  8
NOTE
  6
CONTINUOUS
 62
     4
 10
-100.0
 20
188.0
 30
0.0
 11
-100.0
 21
228.0
 31
0.0
  0
CIRCLE
  5
E9CD
  8
FIX
  6
CONTINUOUS
 62
    11
 10
-100.0
 20
207.0
 30
0.0
 40
7.5
  0
LINE
  5
E9CE
  8
DETAIL
  6
CONTINUOUS
 62
     5
 10
-59.0
 20
208.0
 30
0.0
 11
-65.39496
 21
200.0
 31
0.0
  0
ARC
  5
E9CF
  8
DETAIL
  6
CONTINUOUS
 62
     5
 10
-3.852012
 20
241.159986
 30
0.0
 40
1.840001
 50
90.0
 51
171.5908889999997
  0
LINE
  5
E9D0
  8
DETAIL
  6
CONTINUOUS
 62
     5
 10
-5.672234
 20
241.429071
 30
0.0
 11
-5.820821
 21
240.423902
 31
0.0
  0
LINE
  5
E9D1
  8
DETAIL
  6
CONTINUOUS
 62
     5
 10
-40.0
 20
208.0
 30
0.0
 11
-40.0
 21
233.344214
 31
0.0
  0
ARC
  5
E9D2
  8
DETAIL
  6
CONTINUOUS
 62
     5
 10
-34.94
 20
233.34
 30
0.0
 40
5.060002
 50
90.0
 51
179.9999987925817
  0
LINE
  5
E9D3
  8
DETAIL
  6
CONTINUOUS
 62
     5
 10
-29.63747
 20
238.399986
 30
0.0
 11
-28.468962
 21
240.423888
 31
0.0
  0
LINE
  5
E9D4
  8
SIZE
  6
CONTINUOUS
 62
    30
 10
-277.0
 20
582.225138
 30
0.0
 11
-220.0
 21
582.225138
 31
0.0
  0
LINE
  5
E9D5
  8
SIZE
  6
CONTINUOUS
 62
    30
 10
-277.0
 20
582.225138
 30
0.0
 11
-220.0
 21
582.225138
 31
0.0
  0
LINE
  5
E9D6
  8
SIZE
  6
CONTINUOUS
 62
    30
 10
-238.0
 20
460.674477
 30
0.0
 11
-226.0
 21
460.674477
 31
0.0
  0
TEXT
  5
E9D7
  8
SIZE
  6
CONTINUOUS
 62
    30
 10
-429.5070798571429
 20
485.674477
 30
0.0
 40
64.0
  1
27
 41
0.9
 72
     1
 11
-374.649937
 21
485.674477
 31
0.0
  0
LINE
  5
E9D8
  8
SIZE
  6
CONTINUOUS
 62
    30
 10
-446.278508
 20
460.674477
 30
0.0
 11
-277.0
 21
460.674477
 31
0.0
  0
LINE
  5
E9D9
  8
SIZE
  6
CONTINUOUS
 62
    30
 10
-289.0
 20
460.674477
 30
0.0
 11
-301.0
 21
460.674477
 31
0.0
  0
LINE
  5
E9DA
  8
SIZE
  6
CONTINUOUS
 62
    30
 10
-250.0
 20
460.674477
 30
0.0
 11
-238.0
 21
460.674477
 31
0.0
  0
CIRCLE
  5
E9DB
  8
SIZE
  6
CONTINUOUS
 62
    30
 10
-250.0
 20
460.674477
 30
0.0
 40
6.0
  0
LINE
  5
E9DC
  8
SIZE
  6
CONTINUOUS
 62
    30
 10
-277.0
 20
460.674477
 30
0.0
 11
-289.0
 21
460.674477
 31
0.0
  0
CIRCLE
  5
E9DD
  8
SIZE
  6
CONTINUOUS
 62
    30
 10
-277.0
 20
460.674477
 30
0.0
 40
6.0
  0
LINE
  5
E9DE
  8
SIZE
  6
CONTINUOUS
 62
    30
 10
-277.0
 20
460.674477
 30
0.0
 11
-250.0
 21
460.674477
 31
0.0
  0
LINE
  5
E9DF
  8
SIZE
  6
CONTINUOUS
 62
    30
 10
-277.0
 20
460.674477
 30
0.0
 11
-250.0
 21
460.674477
 31
0.0
  0
LINE
  5
E9E0
  8
SIZE
  6
CONTINUOUS
 62
    30
 10
-450.646282
 20
582.225138
 30
0.0
 11
-277.0
 21
582.225138
 31
0.0
  0
LINE
  5
E9E1
  8
SIZE
  6
CONTINUOUS
 62
    30
 10
-289.0
 20
582.225138
 30
0.0
 11
-301.0
 21
582.225138
 31
0.0
  0
LINE
  5
E9E2
  8
SIZE
  6
CONTINUOUS
 62
    30
 10
-277.0
 20
582.225138
 30
0.0
 11
-289.0
 21
582.225138
 31
0.0
  0
CIRCLE
  5
E9E3
  8
SIZE
  6
CONTINUOUS
 62
    30
 10
-277.0
 20
582.225138
 30
0.0
 40
6.0
  0
LINE
  5
E9E4
  8
SIZE
  6
CONTINUOUS
 62
    30
 10
-40.0
 20
458.388027
 30
0.0
 11
-28.0
 21
458.388027
 31
0.0
  0
CIRCLE
  5
E9E5
  8
SIZE
  6
CONTINUOUS
 62
    30
 10
-40.0
 20
458.388027
 30
0.0
 40
6.0
  0
CIRCLE
  5
E9E6
  8
SIZE
  6
CONTINUOUS
 62
    30
 10
-220.0
 20
582.225138
 30
0.0
 40
6.0
  0
LINE
  5
E9E7
  8
SIZE
  6
CONTINUOUS
 62
    30
 10
-100.0
 20
584.546652
 30
0.0
 11
-88.0
 21
584.546652
 31
0.0
  0
CIRCLE
  5
E9E8
  8
SIZE
  6
CONTINUOUS
 62
    30
 10
-100.0
 20
584.546652
 30
0.0
 40
6.0
  0
LINE
  5
E9E9
  8
SIZE
  6
CONTINUOUS
 62
    30
 10
-480.098569
 20
708.013573
 30
0.0
 11
-277.0
 21
708.013573
 31
0.0
  0
LINE
  5
E9EA
  8
SIZE
  6
CONTINUOUS
 62
    30
 10
-147.0
 20
708.013573
 30
0.0
 11
-265.0
 21
708.013573
 31
0.0
  0
TEXT
  5
E9EB
  8
SIZE
  6
CONTINUOUS
 62
    30
 10
-472.92714
 20
733.013573
 30
0.0
 40
64.0
  1
142
 41
0.9
 72
     1
 11
-386.52714
 21
733.013573
 31
0.0
  0
LINE
  5
E9EC
  8
SIZE
  6
CONTINUOUS
 62
    30
 10
-277.0
 20
708.013573
 30
0.0
 11
-265.0
 21
708.013573
 31
0.0
  0
CIRCLE
  5
E9ED
  8
SIZE
  6
CONTINUOUS
 62
    30
 10
-277.0
 20
708.013573
 30
0.0
 40
6.0
  0
LINE
  5
E9EE
  8
SIZE
  6
CONTINUOUS
 62
    30
 10
-135.0
 20
708.013573
 30
0.0
 11
-147.0
 21
708.013573
 31
0.0
  0
CIRCLE
  5
E9EF
  8
SIZE
  6
CONTINUOUS
 62
    30
 10
-135.0
 20
708.013573
 30
0.0
 40
6.0
  0
LINE
  5
E9F0
  8
SIZE
  6
CONTINUOUS
 62
    30
 10
-135.0
 20
708.013573
 30
0.0
 11
-123.0
 21
708.013573
 31
0.0
  0
CIRCLE
  5
E9F1
  8
SIZE
  6
CONTINUOUS
 62
    30
 10
-135.0
 20
708.013573
 30
0.0
 40
6.0
  0
LINE
  5
E9F2
  8
OUTLINE
  6
CONTINUOUS
 62
     3
 10
135.0
 20
0.0
 30
0.0
 11
135.0
 21
200.0
 31
0.0
  0
LINE
  5
E9F3
  8
SIZE
  6
CONTINUOUS
 62
    30
 10
713.003111
 20
0.0
 30
0.0
 11
713.003111
 21
12.0
 31
0.0
  0
CIRCLE
  5
E9F4
  8
SIZE
  6
CONTINUOUS
 62
    30
 10
713.003111
 20
0.0
 30
0.0
 40
6.0
  0
LINE
  5
E9F5
  8
SIZE
  6
CONTINUOUS
 62
    30
 10
713.003111
 20
0.0
 30
0.0
 11
713.003111
 21
12.0
 31
0.0
  0
CIRCLE
  5
E9F6
  8
SIZE
  6
CONTINUOUS
 62
    30
 10
713.003111
 20
0.0
 30
0.0
 40
6.0
  0
LINE
  5
E9F7
  8
NOTE
  6
CONTINUOUS
 62
     4
 10
146.0
 20
-20.0
 30
0.0
 11
146.0
 21
20.0
 31
0.0
  0
CIRCLE
  5
E9F8
  8
FIX
  6
CONTINUOUS
 62
    11
 10
146.0
 20
0.0
 30
0.0
 40
2.5
  0
LINE
  5
E9F9
  8
NOTE
  6
CONTINUOUS
 62
     4
 10
115.0
 20
-20.0
 30
0.0
 11
115.0
 21
20.0
 31
0.0
  0
CIRCLE
  5
E9FA
  8
FIX
  6
CONTINUOUS
 62
    11
 10
115.0
 20
0.0
 30
0.0
 40
2.5
  0
LINE
  5
E9FB
  8
DETAIL
  6
CONTINUOUS
 62
     5
 10
135.0
 20
0.0
 30
0.0
 11
135.0
 21
200.0
 31
0.0
  0
LINE
  5
E9FC
  8
SIZE
  6
CONTINUOUS
 62
    30
 10
145.094582
 20
-15.0
 30
0.0
 11
733.003111
 21
-15.0
 31
0.0
  0
LINE
  5
E9FD
  8
SIZE
  6
CONTINUOUS
 62
    30
 10
181.5
 20
0.0
 30
0.0
 11
733.003111
 21
0.0
 31
0.0
  0
LINE
  5
E9FE
  8
SIZE
  6
CONTINUOUS
 62
    30
 10
187.0
 20
0.0
 30
0.0
 11
733.003111
 21
0.0
 31
0.0
  0
LINE
  5
E9FF
  8
SIZE
  6
CONTINUOUS
 62
    30
 10
187.0
 20
0.0
 30
0.0
 11
608.789274
 21
0.0
 31
0.0
  0
LINE
  5
EA00
  8
NOTE
  6
CONTINUOUS
 62
     4
 10
215.600006
 20
-297.289486
 30
0.0
 11
636.4717400000001
 21
-297.289486
 31
0.0
  0
TEXT
  5
EA01
  8
NOTE
  6
CONTINUOUS
 62
     4
 10
249.310826
 20
-264.325216
 30
0.0
 40
64.0
  1
8-φ5×8
 41
0.9
  0
LINE
  5
EA02
  8
SIZE
  6
CONTINUOUS
 62
    30
 10
167.0
 20
-20.0
 30
0.0
 11
167.0
 21
-651.017098
 31
0.0
  0
CIRCLE
  5
EA03
  8
SIZE
  6
CONTINUOUS
 62
    30
 10
167.0
 20
-631.017098
 30
0.0
 40
6.0
  0
LINE
  5
EA04
  8
SIZE
  6
CONTINUOUS
 62
    30
 10
167.0
 20
-631.017098
 30
0.0
 11
155.0
 21
-631.017098
 31
0.0
  0
LINE
  5
EA05
  8
SIZE
  6
CONTINUOUS
 62
    30
 10
115.0
 20
-40.0
 30
0.0
 11
115.0
 21
-392.088453
 31
0.0
  0
LINE
  5
EA06
  8
NOTE
  6
CONTINUOUS
 62
     4
 10
145.864425
 20
-0.557675
 30
0.0
 11
215.600006
 21
-297.289486
 31
0.0
  0
CIRCLE
  5
EA07
  8
SIZE
  6
CONTINUOUS
 62
    30
 10
115.0
 20
-372.088453
 30
0.0
 40
6.0
  0
LINE
  5
EA08
  8
SIZE
  6
CONTINUOUS
 62
    30
 10
115.0
 20
-372.088453
 30
0.0
 11
103.0
 21
-372.088453
 31
0.0
  0
LINE
  5
EA09
  8
NOTE
  6
CONTINUOUS
 62
     4
 10
95.0
 20
0.0
 30
0.0
 11
135.0
 21
0.0
 31
0.0
  0
LINE
  5
EA0A
  8
NOTE
  6
CONTINUOUS
 62
     4
 10
145.872246
 20
-0.503812
 30
0.0
 11
165.271868
 21
-35.484588
 31
0.0
  0
LINE
  5
EA0B
  8
NOTE
  6
CONTINUOUS
 62
     4
 10
126.0
 20
0.0
 30
0.0
 11
166.0
 21
0.0
 31
0.0
  0
LINE
  5
EA0C
  8
DETAIL
  6
CONTINUOUS
 62
     5
 10
167.0
 20
-0.857123
 30
0.0
 11
167.0
 21
0.0
 31
0.0
  0
ARC
  5
EA0D
  8
DETAIL
  6
CONTINUOUS
 62
     5
 10
43.98603
 20
483.464984
 30
0.0
 40
505.02073
 50
279.24198
 51
283.449352
  0
ARC
  5
EA0E
  8
DETAIL
  6
CONTINUOUS
 62
     5
 10
159.999997
 20
-0.857123
 30
0.0
 40
7.0
 50
281.926915
 51
0.0
  0
LINE
  5
EA0F
  8
NOTE
  6
CONTINUOUS
 62
     4
 10
145.182423
 20
-40.497863
 30
0.0
 11
145.872246
 21
-0.503812
 31
0.0
  0
LINE
  5
EA10
  8
SIZE
  6
CONTINUOUS
 62
    30
 10
713.003111
 20
-18.0
 30
0.0
 11
713.003111
 21
-149.848884
 31
0.0
  0
TEXT
  5
EA11
  8
SIZE
  6
CONTINUOUS
 62
    30
 10
688.8016620000001
 20
-153.1081315714286
 30
0.0
 40
64.0
  1
15
 50
90.0
 41
0.9
 72
     1
 11
688.8016620000001
 21
-94.136703
 31
0.0
  0
LINE
  5
EA12
  8
SIZE
  6
CONTINUOUS
 62
    30
 10
713.003111
 20
-15.0
 30
0.0
 11
713.003111
 21
-27.0
 31
0.0
  0
CIRCLE
  5
EA13
  8
SIZE
  6
CONTINUOUS
 62
    30
 10
713.003111
 20
-15.0
 30
0.0
 40
6.0
  0
LINE
  5
EA14
  8
SIZE
  6
CONTINUOUS
 62
    30
 10
713.003111
 20
0.0
 30
0.0
 11
713.003111
 21
-15.0
 31
0.0
  0
LINE
  5
EA15
  8
SIZE
  6
CONTINUOUS
 62
    30
 10
713.003111
 20
0.0
 30
0.0
 11
713.003111
 21
-15.0
 31
0.0
  0
LINE
  5
EA16
  8
SIZE
  6
CONTINUOUS
 62
    30
 10
713.003111
 20
-27.0
 30
0.0
 11
713.003111
 21
-39.0
 31
0.0
  0
TEXT
  5
EA17
  8
NOTE
  6
CONTINUOUS
 62
     4
 10
365.690572
 20
447.910563
 30
0.0
 40
64.0
  1
AH 4-φ15×22
 41
0.9
  0
LINE
  5
EA18
  8
NOTE
  6
CONTINUOUS
 62
     4
 10
359.359036
 20
404.681692
 30
0.0
 11
1014.602214
 21
404.681692
 31
0.0
  0
LINE
  5
EA19
  8
SIZE
  6
CONTINUOUS
 62
    30
 10
135.0
 20
220.0
 30
0.0
 11
135.0
 21
728.013573
 31
0.0
  0
LINE
  5
EA1A
  8
SIZE
  6
CONTINUOUS
 62
    30
 10
21.0
 20
243.0
 30
0.0
 11
733.003111
 21
243.0
 31
0.0
  0
LINE
  5
EA1B
  8
NOTE
  6
CONTINUOUS
 62
     4
 10
100.0
 20
207.0
 30
0.0
 11
359.359036
 21
404.681692
 31
0.0
  0
LINE
  5
EA1C
  8
SIZE
  6
CONTINUOUS
 62
    30
 10
100.0
 20
248.0
 30
0.0
 11
100.0
 21
604.546652
 31
0.0
  0
LINE
  5
EA1D
  8
SIZE
  6
CONTINUOUS
 62
    30
 10
42.0
 20
253.34
 30
0.0
 11
42.0
 21
478.388027
 31
0.0
  0
LINE
  5
EA1E
  8
DETAIL
  6
CONTINUOUS
 62
     5
 10
75.0
 20
7.0
 30
0.0
 11
75.0
 21
207.0
 31
0.0
  0
LINE
  5
EA1F
  8
DETAIL
  6
CONTINUOUS
 62
     5
 10
125.0
 20
7.0
 30
0.0
 11
125.0
 21
207.0
 31
0.0
  0
LINE
  5
EA20
  8
DETAIL
  6
CONTINUOUS
 62
     5
 10
125.0
 20
7.0
 30
0.0
 11
75.0
 21
7.0
 31
0.0
  0
LINE
  5
EA21
  8
DETAIL
  6
CONTINUOUS
 62
     5
 10
65.24922000000001
 20
11.0
 30
0.0
 11
44.24922
 21
11.0
 31
0.0
  0
LINE
  5
EA22
  8
DETAIL
  6
CONTINUOUS
 62
     5
 10
65.24922000000001
 20
25.0
 30
0.0
 11
44.24922
 21
25.0
 31
0.0
  0
LINE
  5
EA23
  8
DETAIL
  6
CONTINUOUS
 62
     5
 10
65.24922000000001
 20
8.0
 30
0.0
 11
44.24922
 21
8.0
 31
0.0
  0
LINE
  5
EA24
  8
DETAIL
  6
CONTINUOUS
 62
     5
 10
65.24922000000001
 20
28.0
 30
0.0
 11
44.24922
 21
28.0
 31
0.0
  0
LINE
  5
EA25
  8
BASIS
  6
DASHDOT
 62
     6
 10
79.78304100000001
 20
18.0
 30
0.0
 11
29.216959
 21
18.0
 31
0.0
  0
ARC
  5
EA26
  8
DETAIL
  6
CONTINUOUS
 62
     5
 10
44.24922
 20
18.0
 30
0.0
 40
7.0
 50
90.0
 51
180.0
  0
ARC
  5
EA27
  8
DETAIL
  6
CONTINUOUS
 62
     5
 10
44.24922
 20
18.0
 30
0.0
 40
7.0
 50
180.0
 51
270.0
  0
ARC
  5
EA28
  8
DETAIL
  6
CONTINUOUS
 62
     5
 10
44.24922
 20
18.0
 30
0.0
 40
10.0
 50
180.0
 51
270.0
  0
ARC
  5
EA29
  8
DETAIL
  6
CONTINUOUS
 62
     5
 10
44.24922
 20
18.0
 30
0.0
 40
10.0
 50
90.0
 51
180.0
  0
LINE
  5
EA2A
  8
BASIS
  6
DASHDOT
 62
     6
 10
54.74922
 20
3.523891
 30
0.0
 11
54.74922
 21
33.438381
 31
0.0
  0
ARC
  5
EA2B
  8
DETAIL
  6
CONTINUOUS
 62
     5
 10
65.24922000000001
 20
18.0
 30
0.0
 40
7.0
 50
270.0
 51
0.0
  0
ARC
  5
EA2C
  8
DETAIL
  6
CONTINUOUS
 62
     5
 10
65.24922000000001
 20
18.0
 30
0.0
 40
7.0
 50
0.0
 51
90.0
  0
ARC
  5
EA2D
  8
DETAIL
  6
CONTINUOUS
 62
     5
 10
65.24922000000001
 20
18.0
 30
0.0
 40
10.0
 50
270.0
 51
0.0
  0
ARC
  5
EA2E
  8
DETAIL
  6
CONTINUOUS
 62
     5
 10
65.24922000000001
 20
18.0
 30
0.0
 40
10.0
 50
0.0
 51
90.0
  0
LINE
  5
EA2F
  8
DETAIL
  6
CONTINUOUS
 62
     5
 10
75.24922000000001
 20
18.0
 30
0.0
 11
75.24922000000001
 21
18.0
 31
0.0
  0
LINE
  5
EA30
  8
NOTE
  6
CONTINUOUS
 62
     4
 10
100.0
 20
207.0
 30
0.0
 11
124.98533
 21
239.236729
 31
0.0
  0
LINE
  5
EA31
  8
NOTE
  6
CONTINUOUS
 62
     4
 10
137.256296
 20
222.559136
 30
0.0
 11
100.0
 21
207.0
 31
0.0
  0
LINE
  5
EA32
  8
NOTE
  6
CONTINUOUS
 62
     4
 10
80.0
 20
207.0
 30
0.0
 11
120.0
 21
207.0
 31
0.0
  0
LINE
  5
EA33
  8
DETAIL
  6
CONTINUOUS
 62
     5
 10
125.0
 20
207.0
 30
0.0
 11
75.0
 21
207.0
 31
0.0
  0
LINE
  5
EA34
  8
DETAIL
  6
CONTINUOUS
 62
     5
 10
125.0
 20
207.0
 30
0.0
 11
75.0
 21
207.0
 31
0.0
  0
LINE
  5
EA35
  8
DETAIL
  6
CONTINUOUS
 62
     5
 10
125.0
 20
203.5
 30
0.0
 11
75.0
 21
203.5
 31
0.0
  0
LINE
  5
EA36
  8
DETAIL
  6
CONTINUOUS
 62
     5
 10
31.63747
 20
238.399986
 30
0.0
 11
30.468962
 21
240.423888
 31
0.0
  0
LINE
  5
EA37
  8
DETAIL
  6
CONTINUOUS
 62
     5
 10
36.94
 20
238.399986
 30
0.0
 11
1.0
 21
238.399986
 31
0.0
  0
LINE
  5
EA38
  8
DETAIL
  6
CONTINUOUS
 62
     5
 10
1.0
 20
240.423902
 30
0.0
 11
30.468953
 21
240.423902
 31
0.0
  0
LINE
  5
EA39
  8
DETAIL
  6
CONTINUOUS
 62
     5
 10
7.672234
 20
241.429071
 30
0.0
 11
7.820821
 21
240.423902
 31
0.0
  0
LINE
  5
EA3A
  8
DETAIL
  6
CONTINUOUS
 62
     5
 10
5.852012
 20
243.0
 30
0.0
 11
1.0
 21
243.0
 31
0.0
  0
ARC
  5
EA3B
  8
DETAIL
  6
CONTINUOUS
 62
     5
 10
5.852012
 20
241.159986
 30
0.0
 40
1.840001
 50
8.409111000000266
 51
90.0
  0
LINE
  5
EA3C
  8
DETAIL
  6
CONTINUOUS
 62
     5
 10
42.0
 20
208.0
 30
0.0
 11
42.0
 21
233.34
 31
0.0
  0
ARC
  5
EA3D
  8
DETAIL
  6
CONTINUOUS
 62
     5
 10
36.94
 20
233.34
 30
0.0
 40
5.060002
 50
0.0000012074182697
 51
90.0
  0
LINE
  5
EA3E
  8
NOTE
  6
CONTINUOUS
 62
     4
 10
100.0
 20
188.0
 30
0.0
 11
100.0
 21
228.0
 31
0.0
  0
CIRCLE
  5
EA3F
  8
FIX
  6
CONTINUOUS
 62
    11
 10
100.0
 20
207.0
 30
0.0
 40
7.5
  0
LINE
  5
EA40
  8
DETAIL
  6
CONTINUOUS
 62
     5
 10
61.0
 20
208.0
 30
0.0
 11
67.39496000000001
 21
200.0
 31
0.0
  0
LINE
  5
EA41
  8
DETAIL
  6
CONTINUOUS
 62
     5
 10
135.0
 20
192.0
 30
0.0
 11
125.0
 21
192.0
 31
0.0
  0
LINE
  5
EA42
  8
DETAIL
  6
CONTINUOUS
 62
     5
 10
135.0
 20
200.0
 30
0.0
 11
125.0
 21
200.0
 31
0.0
  0
LINE
  5
EA43
  8
SIZE
  6
CONTINUOUS
 62
    30
 10
42.0
 20
458.388027
 30
0.0
 11
30.0
 21
458.388027
 31
0.0
  0
CIRCLE
  5
EA44
  8
SIZE
  6
CONTINUOUS
 62
    30
 10
42.0
 20
458.388027
 30
0.0
 40
6.0
  0
LINE
  5
EA45
  8
SIZE
  6
CONTINUOUS
 62
    30
 10
100.0
 20
584.546652
 30
0.0
 11
88.0
 21
584.546652
 31
0.0
  0
CIRCLE
  5
EA46
  8
SIZE
  6
CONTINUOUS
 62
    30
 10
100.0
 20
584.546652
 30
0.0
 40
6.0
  0
TEXT
  5
EA47
  8
SIZE
  6
CONTINUOUS
 62
    30
 10
687.624004
 20
39.21428571428571
 30
0.0
 40
64.0
  1
243
 50
90.0
 41
0.9
 72
     1
 11
687.624004
 21
121.5
 31
0.0
  0
LINE
  5
EA48
  8
SIZE
  6
CONTINUOUS
 62
    30
 10
713.003111
 20
12.0
 30
0.0
 11
713.003111
 21
231.0
 31
0.0
  0
LINE
  5
EA49
  8
SIZE
  6
CONTINUOUS
 62
    30
 10
713.003111
 20
12.0
 30
0.0
 11
713.003111
 21
24.0
 31
0.0
  0
CIRCLE
  5
EA4A
  8
SIZE
  6
CONTINUOUS
 62
    30
 10
713.003111
 20
243.0
 30
0.0
 40
6.0
  0
LINE
  5
EA4B
  8
SIZE
  6
CONTINUOUS
 62
    30
 10
713.003111
 20
243.0
 30
0.0
 11
713.003111
 21
231.0
 31
0.0
  0
LINE
  5
EA4C
  8
SIZE
  6
CONTINUOUS
 62
    30
 10
135.0
 20
708.013573
 30
0.0
 11
123.0
 21
708.013573
 31
0.0
  0
CIRCLE
  5
EA4D
  8
SIZE
  6
CONTINUOUS
 62
    30
 10
135.0
 20
708.013573
 30
0.0
 40
6.0
  0
TEXT
  5
EA4E
  8
ETC
  6
CONTINUOUS
 62
    61
 10
389.370009
 20
831.294248
 30
0.0
 40
64.0
  1
換気扇
 41
0.9
  0
TEXT
  5
EA4F
  8
ETC
  6
CONTINUOUS
 62
    61
 10
439.977512
 20
723.458467
 30
0.0
 40
40.0
  1
VD-18Z9
 41
0.9
  0
TEXT
  5
EA50
  8
ETC
  6
CONTINUOUS
 62
    61
 10
439.977512
 20
653.458467
 30
0.0
 40
40.0
  1
VD-18ZL9
 41
0.9
  0
TEXT
  5
EA51
  8
ETC
  6
CONTINUOUS
 62
    61
 10
439.977512
 20
583.458467
 30
0.0
 40
40.0
  1
VD-18ZV2
 41
0.9
  0
LINE
  5
EA52
  8
NOTE
  6
CONTINUOUS
 62
     4
 10
-99.0
 20
181.0
 30
0.0
 11
-99.0
 21
221.0
 31
0.0
  0
LINE
  5
EA53
  8
NOTE
  6
CONTINUOUS
 62
     4
 39
50.0
 10
-99.0
 20
200.0
 30
0.0
 11
-350.583181
 21
343.437421
 31
0.0
  0
LINE
  5
EA54
  8
NOTE
  6
CONTINUOUS
 62
     4
 39
50.0
 10
-350.583181
 20
343.437421
 30
0.0
 11
-485.825616
 21
343.437421
 31
0.0
  0
TEXT
  5
EA55
  8
NOTE
  6
CONTINUOUS
 62
     4
 10
-476.957256
 20
367.813227
 30
0.0
 40
64.0
  1
EL
 41
0.9
  0
LINE
  5
EA56
  8
NOTE
  6
CONTINUOUS
 62
     4
 39
50.0
 10
-120.276129
 20
225.071285
 30
0.0
 11
-99.0
 21
200.0
 31
0.0
  0
LINE
  5
EA57
  8
NOTE
  6
CONTINUOUS
 62
     4
 39
50.0
 10
-99.0
 20
200.0
 30
0.0
 11
-99.0
 21
200.0
 31
0.0
  0
LINE
  5
EA58
  8
NOTE
  6
CONTINUOUS
 62
     4
 39
50.0
 10
-99.0
 20
200.0
 30
0.0
 11
-132.440886
 21
210.082007
 31
0.0
  0
LINE
  5
EA59
  8
SIZE
  6
CONTINUOUS
 62
    30
 10
187.0
 20
0.0
 30
0.0
 11
599.190652
 21
0.0
 31
0.0
  0
LINE
  5
EA5A
  8
SIZE
  6
CONTINUOUS
 62
    30
 10
140.0
 20
207.0
 30
0.0
 11
599.190652
 21
207.0
 31
0.0
  0
LINE
  5
EA5B
  8
SIZE
  6
CONTINUOUS
 62
    30
 10
579.190652
 20
12.0
 30
0.0
 11
579.190652
 21
195.0
 31
0.0
  0
CIRCLE
  5
EA5C
  8
SIZE
  6
CONTINUOUS
 62
    30
 10
579.190652
 20
0.0
 30
0.0
 40
6.0
  0
LINE
  5
EA5D
  8
SIZE
  6
CONTINUOUS
 62
    30
 10
579.190652
 20
0.0
 30
0.0
 11
579.190652
 21
12.0
 31
0.0
  0
CIRCLE
  5
EA5E
  8
SIZE
  6
CONTINUOUS
 62
    30
 10
579.190652
 20
207.0
 30
0.0
 40
6.0
  0
LINE
  5
EA5F
  8
SIZE
  6
CONTINUOUS
 62
    30
 10
579.190652
 20
207.0
 30
0.0
 11
579.190652
 21
195.0
 31
0.0
  0
TEXT
  5
EA60
  8
SIZE
  6
CONTINUOUS
 62
    30
 10
554.190652
 20
21.21428571428571
 30
0.0
 40
64.0
  1
207
 50
90.0
 41
0.9
 72
     1
 11
554.190652
 21
103.5
 31
0.0
  0
POINT
  5
EA61
  8
DEFPOINTS
  6
CONTINUOUS
 62
    30
 10
167.0
 20
0.0
 30
0.0
  0
POINT
  5
EA62
  8
DEFPOINTS
  6
CONTINUOUS
 62
    30
 10
120.0
 20
207.0
 30
0.0
  0
POINT
  5
EA63
  8
DEFPOINTS
  6
CONTINUOUS
 62
    30
 10
579.190652
 20
207.0
 30
0.0
  0
LINE
  5
EA64
  8
SIZE
  6
CONTINUOUS
 62
    30
 10
54.74922
 20
-12.0
 30
0.0
 11
54.74922
 21
-247.111155
 31
0.0
  0
LINE
  5
EA65
  8
SIZE
  6
CONTINUOUS
 62
    30
 10
-54.25078
 20
-16.476109
 30
0.0
 11
-54.25078
 21
-247.111155
 31
0.0
  0
LINE
  5
EA66
  8
SIZE
  6
CONTINUOUS
 62
    30
 10
42.74922
 20
-227.111155
 30
0.0
 11
-42.25078
 21
-227.111155
 31
0.0
  0
LINE
  5
EA67
  8
SIZE
  6
CONTINUOUS
 62
    30
 10
-54.25078
 20
-227.111155
 30
0.0
 11
-373.421004
 21
-227.111155
 31
0.0
  0
CIRCLE
  5
EA68
  8
SIZE
  6
CONTINUOUS
 62
    30
 10
54.74922
 20
-227.111155
 30
0.0
 40
6.0
  0
LINE
  5
EA69
  8
SIZE
  6
CONTINUOUS
 62
    30
 10
54.74922
 20
-227.111155
 30
0.0
 11
42.74922
 21
-227.111155
 31
0.0
  0
CIRCLE
  5
EA6A
  8
SIZE
  6
CONTINUOUS
 62
    30
 10
-54.25078
 20
-227.111155
 30
0.0
 40
6.0
  0
LINE
  5
EA6B
  8
SIZE
  6
CONTINUOUS
 62
    30
 10
-54.25078
 20
-227.111155
 30
0.0
 11
-42.25078
 21
-227.111155
 31
0.0
  0
TEXT
  5
EA6C
  8
SIZE
  6
CONTINUOUS
 62
    30
 10
-366.2495754285715
 20
-202.111155
 30
0.0
 40
64.0
  1
109
 41
0.9
 72
     1
 11
-281.2210040000001
 21
-202.111155
 31
0.0
  0
POINT
  5
EA6D
  8
DEFPOINTS
  6
CONTINUOUS
 62
    30
 10
54.74922
 20
8.0
 30
0.0
  0
POINT
  5
EA6E
  8
DEFPOINTS
  6
CONTINUOUS
 62
    30
 10
-54.25078
 20
3.523891
 30
0.0
  0
POINT
  5
EA6F
  8
DEFPOINTS
  6
CONTINUOUS
 62
    30
 10
-54.25078
 20
-227.111155
 30
0.0
  0
LINE
  5
EA70
  8
SIZE
  6
CONTINUOUS
 62
    30
 10
75.0
 20
-4.218623
 30
0.0
 11
75.0
 21
-147.118585
 31
0.0
  0
LINE
  5
EA71
  8
SIZE
  6
CONTINUOUS
 62
    30
 10
34.49844
 20
-4.218623
 30
0.0
 11
34.49844
 21
-147.118585
 31
0.0
  0
LINE
  5
EA72
  8
SIZE
  6
CONTINUOUS
 62
    30
 10
22.49844
 20
-127.118585
 30
0.0
 11
10.49844
 21
-127.118585
 31
0.0
  0
LINE
  5
EA73
  8
SIZE
  6
CONTINUOUS
 62
    30
 10
87.0
 20
-127.118585
 30
0.0
 11
297.297055
 21
-127.118585
 31
0.0
  0
LINE
  5
EA74
  8
SIZE
  6
CONTINUOUS
 62
    30
 10
34.49844
 20
-127.118585
 30
0.0
 11
75.0
 21
-127.118585
 31
0.0
  0
CIRCLE
  5
EA75
  8
SIZE
  6
CONTINUOUS
 62
    30
 10
34.49844
 20
-127.118585
 30
0.0
 40
6.0
  0
LINE
  5
EA76
  8
SIZE
  6
CONTINUOUS
 62
    30
 10
34.49844
 20
-127.118585
 30
0.0
 11
22.49844
 21
-127.118585
 31
0.0
  0
CIRCLE
  5
EA77
  8
SIZE
  6
CONTINUOUS
 62
    30
 10
75.0
 20
-127.118585
 30
0.0
 40
6.0
  0
LINE
  5
EA78
  8
SIZE
  6
CONTINUOUS
 62
    30
 10
75.0
 20
-127.118585
 30
0.0
 11
87.0
 21
-127.118585
 31
0.0
  0
TEXT
  5
EA79
  8
SIZE
  6
CONTINUOUS
 62
    30
 10
191.3827695714286
 20
-102.118585
 30
0.0
 40
64.0
  1
41
 41
0.9
 72
     1
 11
238.011341
 21
-102.118585
 31
0.0
  0
POINT
  5
EA7A
  8
DEFPOINTS
  6
CONTINUOUS
 62
    30
 10
75.0
 20
15.781377
 30
0.0
  0
POINT
  5
EA7B
  8
DEFPOINTS
  6
CONTINUOUS
 62
    30
 10
34.49844
 20
15.781377
 30
0.0
  0
POINT
  5
EA7C
  8
DEFPOINTS
  6
CONTINUOUS
 62
    30
 10
34.49844
 20
-127.118585
 30
0.0
  0
LINE
  5
EA7D
  8
SIZE
  6
CONTINUOUS
 62
    30
 10
187.0
 20
0.0
 30
0.0
 11
358.267576
 21
0.0
 31
0.0
  0
LINE
  5
EA7E
  8
SIZE
  6
CONTINUOUS
 62
    30
 10
99.78304100000001
 20
18.0
 30
0.0
 11
358.267576
 21
18.0
 31
0.0
  0
LINE
  5
EA7F
  8
SIZE
  6
CONTINUOUS
 62
    30
 10
338.267576
 20
-12.0
 30
0.0
 11
338.267576
 21
-24.0
 31
0.0
  0
LINE
  5
EA80
  8
SIZE
  6
CONTINUOUS
 62
    30
 10
338.267576
 20
30.0
 30
0.0
 11
338.267576
 21
174.285714
 31
0.0
  0
LINE
  5
EA81
  8
SIZE
  6
CONTINUOUS
 62
    30
 10
338.267576
 20
0.0
 30
0.0
 11
338.267576
 21
18.0
 31
0.0
  0
CIRCLE
  5
EA82
  8
SIZE
  6
CONTINUOUS
 62
    30
 10
338.267576
 20
0.0
 30
0.0
 40
6.0
  0
LINE
  5
EA83
  8
SIZE
  6
CONTINUOUS
 62
    30
 10
338.267576
 20
0.0
 30
0.0
 11
338.267576
 21
-12.0
 31
0.0
  0
CIRCLE
  5
EA84
  8
SIZE
  6
CONTINUOUS
 62
    30
 10
338.267576
 20
18.0
 30
0.0
 40
6.0
  0
LINE
  5
EA85
  8
SIZE
  6
CONTINUOUS
 62
    30
 10
338.267576
 20
18.0
 30
0.0
 11
338.267576
 21
30.0
 31
0.0
  0
TEXT
  5
EA86
  8
SIZE
  6
CONTINUOUS
 62
    30
 10
313.267576
 20
49.17142842857143
 30
0.0
 40
64.0
  1
18
 50
90.0
 41
0.9
 72
     1
 11
313.267576
 21
108.142857
 31
0.0
  0
POINT
  5
EA87
  8
DEFPOINTS
  6
CONTINUOUS
 62
    30
 10
167.0
 20
0.0
 30
0.0
  0
POINT
  5
EA88
  8
DEFPOINTS
  6
CONTINUOUS
 62
    30
 10
79.78304100000001
 20
18.0
 30
0.0
  0
POINT
  5
EA89
  8
DEFPOINTS
  6
CONTINUOUS
 62
    30
 10
338.267576
 20
18.0
 30
0.0
  0
LINE
  5
EA8A
  8
SIZE
  6
CONTINUOUS
 62
    30
 10
85.24922000000001
 20
8.0
 30
0.0
 11
472.759791
 21
8.0
 31
0.0
  0
LINE
  5
EA8B
  8
SIZE
  6
CONTINUOUS
 62
    30
 10
74.74922000000001
 20
28.0
 30
0.0
 11
472.759791
 21
28.0
 31
0.0
  0
LINE
  5
EA8C
  8
SIZE
  6
CONTINUOUS
 62
    30
 10
452.759791
 20
-4.0
 30
0.0
 11
452.759791
 21
-16.0
 31
0.0
  0
LINE
  5
EA8D
  8
SIZE
  6
CONTINUOUS
 62
    30
 10
452.759791
 20
40.0
 30
0.0
 11
452.759791
 21
195.257143
 31
0.0
  0
LINE
  5
EA8E
  8
SIZE
  6
CONTINUOUS
 62
    30
 10
452.759791
 20
8.0
 30
0.0
 11
452.759791
 21
28.0
 31
0.0
  0
CIRCLE
  5
EA8F
  8
SIZE
  6
CONTINUOUS
 62
    30
 10
452.759791
 20
8.0
 30
0.0
 40
6.0
  0
LINE
  5
EA90
  8
SIZE
  6
CONTINUOUS
 62
    30
 10
452.759791
 20
8.0
 30
0.0
 11
452.759791
 21
-4.0
 31
0.0
  0
CIRCLE
  5
EA91
  8
SIZE
  6
CONTINUOUS
 62
    30
 10
452.759791
 20
28.0
 30
0.0
 40
6.0
  0
LINE
  5
EA92
  8
SIZE
  6
CONTINUOUS
 62
    30
 10
452.759791
 20
28.0
 30
0.0
 11
452.759791
 21
40.0
 31
0.0
  0
TEXT
  5
EA93
  8
SIZE
  6
CONTINUOUS
 62
    30
 10
427.759791
 20
68.77142814285713
 30
0.0
 40
64.0
  1
20
 50
90.0
 41
0.9
 72
     1
 11
427.759791
 21
123.628571
 31
0.0
  0
POINT
  5
EA94
  8
DEFPOINTS
  6
CONTINUOUS
 62
    30
 10
65.24922000000001
 20
8.0
 30
0.0
  0
POINT
  5
EA95
  8
DEFPOINTS
  6
CONTINUOUS
 62
    30
 10
54.74922
 20
28.0
 30
0.0
  0
POINT
  5
EA96
  8
DEFPOINTS
  6
CONTINUOUS
 62
    30
 10
452.759791
 20
28.0
 30
0.0
  0
LINE
  5
EA97
  8
SIZE
  6
CONTINUOUS
 62
    30
 10
-187.0
 20
0.0
 30
0.0
 11
-390.608512
 21
0.0
 31
0.0
  0
LINE
  5
EA98
  8
SIZE
  6
CONTINUOUS
 62
    30
 10
-240.0
 20
54.0
 30
0.0
 11
-390.608512
 21
54.0
 31
0.0
  0
LINE
  5
EA99
  8
SIZE
  6
CONTINUOUS
 62
    30
 10
-370.608512
 20
66.0
 30
0.0
 11
-370.608512
 21
78.0
 31
0.0
  0
LINE
  5
EA9A
  8
SIZE
  6
CONTINUOUS
 62
    30
 10
-370.608512
 20
-12.0
 30
0.0
 11
-370.608512
 21
-170.0
 31
0.0
  0
LINE
  5
EA9B
  8
SIZE
  6
CONTINUOUS
 62
    30
 10
-370.608512
 20
54.0
 30
0.0
 11
-370.608512
 21
0.0
 31
0.0
  0
CIRCLE
  5
EA9C
  8
SIZE
  6
CONTINUOUS
 62
    30
 10
-370.608512
 20
54.0
 30
0.0
 40
6.0
  0
LINE
  5
EA9D
  8
SIZE
  6
CONTINUOUS
 62
    30
 10
-370.608512
 20
54.0
 30
0.0
 11
-370.608512
 21
66.0
 31
0.0
  0
CIRCLE
  5
EA9E
  8
SIZE
  6
CONTINUOUS
 62
    30
 10
-370.608512
 20
0.0
 30
0.0
 40
6.0
  0
LINE
  5
EA9F
  8
SIZE
  6
CONTINUOUS
 62
    30
 10
-370.608512
 20
0.0
 30
0.0
 11
-370.608512
 21
-12.0
 31
0.0
  0
TEXT
  5
EAA0
  8
SIZE
  6
CONTINUOUS
 62
    30
 10
-395.608512
 20
-153.2285714285714
 30
0.0
 40
64.0
  1
54
 50
90.0
 41
0.9
 72
     1
 11
-395.608512
 21
-97.0
 31
0.0
  0
POINT
  5
EAA1
  8
DEFPOINTS
  6
CONTINUOUS
 62
    30
 10
-167.0
 20
0.0
 30
0.0
  0
POINT
  5
EAA2
  8
DEFPOINTS
  6
CONTINUOUS
 62
    30
 10
-220.0
 20
54.0
 30
0.0
  0
POINT
  5
EAA3
  8
DEFPOINTS
  6
CONTINUOUS
 62
    30
 10
-370.608512
 20
54.0
 30
0.0
  0
TEXT
  5
EAA4
  8
ETC
  6
CONTINUOUS
 62
    61
 10
389.370009
 20
976.045735
 30
0.0
 40
64.0
  1
VD-18Z9_4
 41
0.9
  0
LINE
  5
EAA5
  8
SIZE
  6
CONTINUOUS
 62
    30
 10
0.0
 20
311.479483
 30
0.0
 11
0.0
 21
367.458495
 31
0.0
  0
LINE
  5
EAA6
  8
SIZE
  6
CONTINUOUS
 62
    30
 10
-99.0
 20
241.0
 30
0.0
 11
-99.0
 21
367.458495
 31
0.0
  0
LINE
  5
EAA7
  8
SIZE
  6
CONTINUOUS
 62
    30
 10
-87.0
 20
347.458495
 30
0.0
 11
-12.0
 21
347.458495
 31
0.0
  0
LINE
  5
EAA8
  8
SIZE
  6
CONTINUOUS
 62
    30
 10
0.0
 20
347.458495
 30
0.0
 11
277.097117
 21
347.458495
 31
0.0
  0
CIRCLE
  5
EAA9
  8
SIZE
  6
CONTINUOUS
 62
    30
 10
-99.0
 20
347.458495
 30
0.0
 40
6.0
  0
LINE
  5
EAAA
  8
SIZE
  6
CONTINUOUS
 62
    30
 10
-99.0
 20
347.458495
 30
0.0
 11
-87.0
 21
347.458495
 31
0.0
  0
CIRCLE
  5
EAAB
  8
SIZE
  6
CONTINUOUS
 62
    30
 10
0.0
 20
347.458495
 30
0.0
 40
6.0
  0
LINE
  5
EAAC
  8
SIZE
  6
CONTINUOUS
 62
    30
 10
0.0
 20
347.458495
 30
0.0
 11
-12.0
 21
347.458495
 31
0.0
  0
TEXT
  5
EAAD
  8
SIZE
  6
CONTINUOUS
 62
    30
 10
153.3542597142857
 20
372.458495
 30
0.0
 40
64.0
  1
99
 41
0.9
 72
     1
 11
206.839974
 21
372.458495
 31
0.0
  0
POINT
  5
EAAE
  8
DEFPOINTS
  6
CONTINUOUS
 62
    30
 10
0.0
 20
291.479483
 30
0.0
  0
POINT
  5
EAAF
  8
DEFPOINTS
  6
CONTINUOUS
 62
    30
 10
-99.0
 20
221.0
 30
0.0
  0
POINT
  5
EAB0
  8
DEFPOINTS
  6
CONTINUOUS
 62
    30
 10
-99.0
 20
347.458495
 30
0.0
  0
LINE
  5
EAB1
  8
SIZE
  6
CONTINUOUS
 62
    30
 10
-146.0
 20
-40.0
 30
0.0
 11
-146.0
 21
-528.178473
 31
0.0
  0
LINE
  5
EAB2
  8
SIZE
  6
CONTINUOUS
 62
    30
 10
146.0
 20
-40.0
 30
0.0
 11
146.0
 21
-528.178473
 31
0.0
  0
LINE
  5
EAB3
  8
SIZE
  6
CONTINUOUS
 62
    30
 10
-134.0
 20
-508.178473
 30
0.0
 11
134.0
 21
-508.178473
 31
0.0
  0
CIRCLE
  5
EAB4
  8
SIZE
  6
CONTINUOUS
 62
    30
 10
-146.0
 20
-508.178473
 30
0.0
 40
6.0
  0
LINE
  5
EAB5
  8
SIZE
  6
CONTINUOUS
 62
    30
 10
-146.0
 20
-508.178473
 30
0.0
 11
-134.0
 21
-508.178473
 31
0.0
  0
CIRCLE
  5
EAB6
  8
SIZE
  6
CONTINUOUS
 62
    30
 10
146.0
 20
-508.178473
 30
0.0
 40
6.0
  0
LINE
  5
EAB7
  8
SIZE
  6
CONTINUOUS
 62
    30
 10
146.0
 20
-508.178473
 30
0.0
 11
134.0
 21
-508.178473
 31
0.0
  0
TEXT
  5
EAB8
  8
SIZE
  6
CONTINUOUS
 62
    30
 10
-82.28571428571429
 20
-483.178473
 30
0.0
 40
64.0
  1
292
 41
0.9
 72
     1
 11
-0.0000000000000056
 21
-483.178473
 31
0.0
  0
POINT
  5
EAB9
  8
DEFPOINTS
  6
CONTINUOUS
 62
    30
 10
-146.0
 20
-20.0
 30
0.0
  0
POINT
  5
EABA
  8
DEFPOINTS
  6
CONTINUOUS
 62
    30
 10
146.0
 20
-20.0
 30
0.0
  0
POINT
  5
EABB
  8
DEFPOINTS
  6
CONTINUOUS
 62
    30
 10
146.0
 20
-508.178473
 30
0.0
  0
ENDSEC
  0
EOF
