  0
SECTION
  2
HEADER
  9
$ACADVER
  1
AC1009
  9
$DWGCODEPAGE
  3
dos932
  9
$INSBASE
 10
0.0
 20
0.0
 30
0.0
  9
$EXTMIN
 10
-1014.683517
 20
-770.64513
 30
-0.001526
  9
$EXTMAX
 10
992.930615
 20
1040.130624
 30
50.001526
  9
$LIMMIN
 10
-2970.0
 20
-2100.0
  9
$LIMMAX
 10
2970.0
 20
2100.0
  9
$ORTHOMODE
 70
     1
  9
$REGENMODE
 70
     1
  9
$FILLMODE
 70
     1
  9
$QTEXTMODE
 70
     0
  9
$MIRRTEXT
 70
     0
  9
$DRAGMODE
 70
     2
  9
$LTSCALE
 40
20.0
  9
$OSMODE
 70
    37
  9
$ATTMODE
 70
     1
  9
$TEXTSIZE
 40
64.0
  9
$TRACEWID
 40
0.05
  9
$TEXTSTYLE
  7
STANDARD
  9
$CLAYER
  8
SIZE
  9
$CELTYPE
  6
CONTINUOUS
  9
$CECOLOR
 62
     7
  9
$DIMSCALE
 40
1.0
  9
$DIMASZ
 40
12.0
  9
$DIMEXO
 40
20.0
  9
$DIMDLI
 40
200.0
  9
$DIMRND
 40
0.0
  9
$DIMDLE
 40
0.0
  9
$DIMEXE
 40
20.0
  9
$DIMTP
 40
0.0
  9
$DIMTM
 40
0.0
  9
$DIMTXT
 40
64.0
  9
$DIMCEN
 40
0.09
  9
$DIMTSZ
 40
0.0
  9
$DIMTOL
 70
     0
  9
$DIMLIM
 70
     0
  9
$DIMTIH
 70
     0
  9
$DIMTOH
 70
     0
  9
$DIMSE1
 70
     0
  9
$DIMSE2
 70
     0
  9
$DIMTAD
 70
     1
  9
$DIMZIN
 70
     8
  9
$DIMBLK
  1
DOT1
  9
$DIMASO
 70
     1
  9
$DIMSHO
 70
     0
  9
$DIMPOST
  1

  9
$DIMAPOST
  1

  9
$DIMALT
 70
     0
  9
$DIMALTD
 70
     2
  9
$DIMALTF
 40
25.4
  9
$DIMLFAC
 40
1.0
  9
$DIMTOFL
 70
     1
  9
$DIMTVP
 40
0.0
  9
$DIMTIX
 70
     1
  9
$DIMSOXD
 70
     0
  9
$DIMSAH
 70
     1
  9
$DIMBLK1
  1
ORIGIN
  9
$DIMBLK2
  1
ORIGIN
  9
$DIMSTYLE
  2
STANDARD
  9
$DIMCLRD
 70
     7
  9
$DIMCLRE
 70
     7
  9
$DIMCLRT
 70
     7
  9
$DIMTFAC
 40
1.0
  9
$DIMGAP
 40
25.0
  9
$LUNITS
 70
     2
  9
$LUPREC
 70
     4
  9
$SKETCHINC
 40
0.1
  9
$FILLETRAD
 40
3.0
  9
$AUNITS
 70
     1
  9
$AUPREC
 70
     3
  9
$MENU
  1
ACAD
  9
$ELEVATION
 40
0.0
  9
$PELEVATION
 40
0.0
  9
$THICKNESS
 40
50.0
  9
$LIMCHECK
 70
     0
  9
$CHAMFERA
 40
0.0
  9
$CHAMFERB
 40
0.0
  9
$SKPOLY
 70
     0
  9
$TDCREATE
 40
2453019.623010359
  9
$TDUPDATE
 40
2457485.594751713
  9
$TDINDWG
 40
1.682207338
  9
$TDUSRTIMER
 40
1.682207338
  9
$USRTIMER
 70
     1
  9
$ANGBASE
 50
0.0
  9
$ANGDIR
 70
     0
  9
$PDMODE
 70
     3
  9
$PDSIZE
 40
-2.0
  9
$PLINEWID
 40
0.0
  9
$COORDS
 70
     1
  9
$SPLFRAME
 70
     0
  9
$SPLINETYPE
 70
     6
  9
$SPLINESEGS
 70
     8
  9
$ATTDIA
 70
     0
  9
$ATTREQ
 70
     1
  9
$HANDLING
 70
     1
  9
$HANDSEED
  5
ED33
  9
$SURFTAB1
 70
     6
  9
$SURFTAB2
 70
     6
  9
$SURFTYPE
 70
     6
  9
$SURFU
 70
     6
  9
$SURFV
 70
     6
  9
$UCSNAME
  2

  9
$UCSORG
 10
0.0
 20
0.0
 30
0.0
  9
$UCSXDIR
 10
1.0
 20
0.0
 30
0.0
  9
$UCSYDIR
 10
0.0
 20
1.0
 30
0.0
  9
$PUCSNAME
  2

  9
$PUCSORG
 10
0.0
 20
0.0
 30
0.0
  9
$PUCSXDIR
 10
1.0
 20
0.0
 30
0.0
  9
$PUCSYDIR
 10
0.0
 20
1.0
 30
0.0
  9
$USERI1
 70
     0
  9
$USERI2
 70
     0
  9
$USERI3
 70
     0
  9
$USERI4
 70
     0
  9
$USERI5
 70
     0
  9
$USERR1
 40
20.0
  9
$USERR2
 40
0.0
  9
$USERR3
 40
0.0
  9
$USERR4
 40
0.0
  9
$USERR5
 40
0.0
  9
$WORLDVIEW
 70
     1
  9
$SHADEDGE
 70
     3
  9
$SHADEDIF
 70
    70
  9
$TILEMODE
 70
     1
  9
$MAXACTVP
 70
    48
  9
$PLIMCHECK
 70
     0
  9
$PEXTMIN
 10
-1.000000000000000E+20
 20
-1.000000000000000E+20
 30
-1.000000000000000E+20
  9
$PEXTMAX
 10
1.000000000000000E+20
 20
1.000000000000000E+20
 30
1.000000000000000E+20
  9
$PLIMMIN
 10
0.0
 20
0.0
  9
$PLIMMAX
 10
12.0
 20
9.0
  9
$UNITMODE
 70
     0
  9
$VISRETAIN
 70
     0
  9
$PLINEGEN
 70
     0
  9
$PSLTSCALE
 70
     0
  0
ENDSEC
  0
SECTION
  2
TABLES
  0
TABLE
  2
VPORT
 70
     1
  0
VPORT
  2
*ACTIVE
 70
     0
 10
0.0
 20
0.0
 11
1.0
 21
1.0
 12
-10.876451
 22
134.742747
 13
0.0
 23
0.0
 14
1.0
 24
1.0
 15
0.0
 25
0.0
 16
0.0
 26
0.0
 36
1.0
 17
0.0
 27
0.0
 37
0.0
 40
1825.281301
 41
1.629679
 42
50.0
 43
0.0
 44
0.0
 50
0.0
 51
0.0
 71
     0
 72
  1000
 73
     1
 74
     0
 75
     0
 76
     0
 77
     0
 78
     0
  0
ENDTAB
  0
TABLE
  2
LTYPE
 70
     2
  0
LTYPE
  2
CONTINUOUS
 70
     0
  3
実線
 72
    65
 73
     0
 40
0.0
  0
LTYPE
  2
DASHDOT
 70
     0
  3
____ _ ____ _ ____ _ ____ _ ____ _ ____ _ ____
 72
    65
 73
     4
 40
5.5
 49
4.0
 49
-0.6
 49
0.3
 49
-0.6
  0
ENDTAB
  0
TABLE
  2
LAYER
 70
    12
  0
LAYER
  2
0
 70
     0
 62
     7
  6
CONTINUOUS
  0
LAYER
  2
DEFPOINTS
 70
     0
 62
     7
  6
CONTINUOUS
  0
LAYER
  2
ETC
 70
     0
 62
    61
  6
CONTINUOUS
  0
LAYER
  2
SIZE
 70
     0
 62
    30
  6
CONTINUOUS
  0
LAYER
  2
BASIS
 70
     0
 62
     6
  6
DASHDOT
  0
LAYER
  2
OUTLINE
 70
     0
 62
     3
  6
CONTINUOUS
  0
LAYER
  2
DETAIL
 70
     0
 62
     5
  6
CONTINUOUS
  0
LAYER
  2
ARRANGE
 70
     0
 62
     1
  6
CONTINUOUS
  0
LAYER
  2
FIX
 70
     0
 62
    11
  6
CONTINUOUS
  0
LAYER
  2
NOTE
 70
     0
 62
     4
  6
CONTINUOUS
  0
LAYER
  2
SERVICESPACE
 70
     0
 62
     2
  6
DASHDOT
  0
LAYER
  2
SYMBOLLINE
 70
     0
 62
    15
  6
CONTINUOUS
  0
ENDTAB
  0
TABLE
  2
STYLE
 70
     1
  0
STYLE
  2
STANDARD
 70
     0
 40
64.0
 41
0.9
 50
0.0
 71
     0
 42
64.0
  3
SIMPLEX.shx
  4
BIGFONT.shx
  0
ENDTAB
  0
TABLE
  2
VIEW
 70
     1
  0
VIEW
  2
ALL
 70
     0
 40
4282.619808
 10
0.0
 20
41.309904
 41
5940.0
 11
0.0
 21
0.0
 31
1.0
 12
0.0
 22
0.0
 32
0.0
 42
50.0
 43
0.0
 44
0.0
 50
0.0
 71
     0
  0
ENDTAB
  0
TABLE
  2
UCS
 70
     0
  0
ENDTAB
  0
TABLE
  2
APPID
 70
    15
  0
APPID
  2
ACAD
 70
     0
  0
APPID
  2
AUTOCAD_POSTSCRIPT_FIGURE
 70
     0
  0
APPID
  2
ACAD_EXEMPT_FROM_CAD_STAND
 70
     0
  0
APPID
  2
ACAD_PSEXT
 70
     0
  0
APPID
  2
ACAUTHENVIRON
 70
     0
  0
APPID
  2
GENIUS_GENOENT_13
 70
     0
  0
APPID
  2
GENIUS_GENCFG_13
 70
     0
  0
APPID
  2
GENIUS_GENCFG0_13
 70
     0
  0
APPID
  2
GENIUS_GENCFG1_13
 70
     0
  0
APPID
  2
GENIUS_GENCFG2_13
 70
     0
  0
APPID
  2
GENIUS_GENCFG3_13
 70
     0
  0
APPID
  2
GENIUS_GENCFG4_13
 70
     0
  0
APPID
  2
GENIUS_GEVCFG0_13
 70
     0
  0
APPID
  2
CONTENTBLOCKICON
 70
     0
  0
APPID
  2
CONTENTBLOCKDESCRIPTION
 70
     0
  0
ENDTAB
  0
TABLE
  2
DIMSTYLE
 70
     1
  0
DIMSTYLE
  2
STANDARD
 70
     0
  3

  4

  5

  6

  7

 40
1.0
 41
0.18
 42
0.0625
 43
0.38
 44
0.18
 45
0.0
 46
0.0
 47
0.0
 48
0.0
140
0.18
141
0.09
142
0.0
143
25.4
144
1.0
145
0.0
146
1.0
147
0.09
 71
     0
 72
     0
 73
     1
 74
     1
 75
     0
 76
     0
 77
     0
 78
     0
170
     0
171
     2
172
     0
173
     0
174
     0
175
     0
176
     7
177
     7
178
     7
  0
ENDTAB
  0
ENDSEC
  0
SECTION
  2
BLOCKS
  0
BLOCK
  8
0
  2
$MODEL_SPACE
 70
     0
 10
0.0
 20
0.0
 30
0.0
  3
$MODEL_SPACE
  1

  0
ENDBLK
  5
ED0B
  8
0
  0
BLOCK
 67
     1
  8
0
  2
$PAPER_SPACE
 70
     0
 10
0.0
 20
0.0
 30
0.0
  3
$PAPER_SPACE
  1

  0
ENDBLK
  5
ED0D
 67
     1
  8
0
  0
BLOCK
  8
0
  2
DOT1
 70
     0
 10
0.0
 20
0.0
 30
0.0
  3
DOT1
  1

  0
CIRCLE
  5
EB6C
  8
SIZE
  6
CONTINUOUS
 62
     7
 10
0.0
 20
0.0
 30
0.0
 40
3.0
  0
ENDBLK
  5
EB6D
  8
0
  0
BLOCK
  8
0
  2
_ORIGIN
 70
     0
 10
0.0
 20
0.0
 30
0.0
  3
_ORIGIN
  1

  0
CIRCLE
  5
EB70
  8
0
  6
CONTINUOUS
 62
     7
 10
0.0
 20
0.0
 30
0.0
 40
0.5
  0
LINE
  5
EB71
  8
0
  6
CONTINUOUS
 62
     7
 10
0.0
 20
0.0
 30
0.0
 11
-1.0
 21
0.0
 31
0.0
  0
ENDBLK
  5
EB72
  8
0
  0
ENDSEC
  0
SECTION
  2
ENTITIES
  0
POINT
  5
EB73
  8
ARRANGE
  6
CONTINUOUS
 62
     1
 10
0.027391
 20
0.0
 30
0.0
 50
180.0
  0
LINE
  5
EB74
  8
OUTLINE
  6
CONTINUOUS
 62
     3
 10
-130.999997
 20
0.0
 30
0.0
 11
0.0
 21
0.0
 31
0.0
  0
LINE
  5
EB75
  8
OUTLINE
  6
CONTINUOUS
 62
     3
 10
0.027391
 20
0.0
 30
0.0
 11
-164.972609
 21
0.0
 31
0.0
  0
LINE
  5
EB76
  8
OUTLINE
  6
CONTINUOUS
 62
     3
 10
-167.0
 20
0.0
 30
0.0
 11
167.0
 21
0.0
 31
0.0
  0
LINE
  5
EB77
  8
OUTLINE
  6
CONTINUOUS
 62
     3
 10
-135.0
 20
200.0
 30
0.0
 11
135.0
 21
200.0
 31
0.0
  0
CIRCLE
  5
EB78
  8
ARRANGE
  6
CONTINUOUS
 62
     1
 10
0.0
 20
0.0
 30
0.0
 40
40.0
  0
TEXT
  5
EB79
  8
SIZE
  6
CONTINUOUS
 62
    30
 10
-108.3428571428571
 20
-725.507501
 30
0.0
 40
64.0
  1
□334
 41
0.9
 72
     1
 11
0.0
 21
-725.507501
 31
0.0
  0
LINE
  5
EB7A
  8
SIZE
  6
CONTINUOUS
 62
    30
 10
155.0
 20
-750.507501
 30
0.0
 11
-155.0
 21
-750.507501
 31
0.0
  0
LINE
  5
EB7B
  8
DETAIL
  6
CONTINUOUS
 62
     5
 10
-125.094582
 20
-15.0
 30
0.0
 11
0.0
 21
-15.0
 31
0.0
  0
LINE
  5
EB7C
  8
DETAIL
  6
CONTINUOUS
 62
     5
 10
-130.999997
 20
0.0
 30
0.0
 11
0.0
 21
0.0
 31
0.0
  0
LINE
  5
EB7D
  8
DETAIL
  6
CONTINUOUS
 62
     5
 10
0.027391
 20
0.0
 30
0.0
 11
-164.972609
 21
0.0
 31
0.0
  0
LINE
  5
EB7E
  8
DETAIL
  6
CONTINUOUS
 62
     5
 10
-167.0
 20
0.0
 30
0.0
 11
167.0
 21
0.0
 31
0.0
  0
LINE
  5
EB7F
  8
DETAIL
  6
CONTINUOUS
 62
     5
 10
-162.207297
 20
-7.5
 30
0.0
 11
162.207297
 21
-7.5
 31
0.0
  0
LINE
  5
EB80
  8
DETAIL
  6
CONTINUOUS
 62
     5
 10
-166.663935
 20
-3.0
 30
0.0
 11
166.663935
 21
-3.0
 31
0.0
  0
TEXT
  5
EB81
  8
SIZE
  6
CONTINUOUS
 62
    30
 10
-82.28571428571429
 20
605.898733
 30
0.0
 40
64.0
  1
200
 41
0.9
 72
     1
 11
0.0
 21
605.898733
 31
0.0
  0
LINE
  5
EB82
  8
SIZE
  6
CONTINUOUS
 62
    30
 10
88.0
 20
584.546652
 30
0.0
 11
-88.0
 21
584.546652
 31
0.0
  0
TEXT
  5
EB83
  8
SIZE
  6
CONTINUOUS
 62
    30
 10
-106.9714285714286
 20
729.44216
 30
0.0
 40
64.0
  1
□270
 41
0.9
 72
     1
 11
0.0
 21
729.44216
 31
0.0
  0
LINE
  5
EB84
  8
SIZE
  6
CONTINUOUS
 62
    30
 10
123.0
 20
708.013573
 30
0.0
 11
-123.0
 21
708.013573
 31
0.0
  0
TEXT
  5
EB85
  8
SIZE
  6
CONTINUOUS
 62
    30
 10
-60.24571414285715
 20
482.355305
 30
0.0
 40
64.0
  1
φ82
 41
0.9
 72
     1
 11
19.297143
 21
482.355305
 31
0.0
  0
LINE
  5
EB86
  8
SIZE
  6
CONTINUOUS
 62
    30
 10
28.0
 20
458.388027
 30
0.0
 11
-30.0
 21
458.388027
 31
0.0
  0
LINE
  5
EB87
  8
DETAIL
  6
CONTINUOUS
 62
     5
 10
-75.0
 20
192.0
 30
0.0
 11
75.0
 21
192.0
 31
0.0
  0
LINE
  5
EB88
  8
DETAIL
  6
CONTINUOUS
 62
     5
 10
-75.0
 20
200.0
 30
0.0
 11
75.0
 21
200.0
 31
0.0
  0
LINE
  5
EB89
  8
DETAIL
  6
CONTINUOUS
 62
     5
 10
-42.0
 20
214.0
 30
0.0
 11
40.0
 21
214.0
 31
0.0
  0
TEXT
  5
EB8A
  8
SIZE
  6
CONTINUOUS
 62
    30
 10
-82.2014072857143
 20
-467.676913
 30
0.0
 40
64.0
  1
230
 41
0.9
 72
     1
 11
0.084307
 21
-467.676913
 31
0.0
  0
LINE
  5
EB8B
  8
SIZE
  6
CONTINUOUS
 62
    30
 10
-103.0
 20
-491.578856
 30
0.0
 11
103.0
 21
-491.578856
 31
0.0
  0
LINE
  5
EB8C
  8
DETAIL
  6
CONTINUOUS
 62
     5
 10
3.852012
 20
243.0
 30
0.0
 11
-1.0
 21
243.0
 31
0.0
  0
LINE
  5
EB8D
  8
DETAIL
  6
CONTINUOUS
 62
     5
 10
-1.0
 20
240.423902
 30
0.0
 11
21.08
 21
240.423902
 31
0.0
  0
LINE
  5
EB8E
  8
DETAIL
  6
CONTINUOUS
 62
     5
 10
21.08
 20
238.399986
 30
0.0
 11
-1.0
 21
238.399986
 31
0.0
  0
LINE
  5
EB8F
  8
DETAIL
  6
CONTINUOUS
 62
     5
 10
34.94
 20
238.399986
 30
0.0
 11
-1.0
 21
238.399986
 31
0.0
  0
LINE
  5
EB90
  8
DETAIL
  6
CONTINUOUS
 62
     5
 10
-1.0
 20
240.423902
 30
0.0
 11
28.468953
 21
240.423902
 31
0.0
  0
LINE
  5
EB91
  8
DETAIL
  6
CONTINUOUS
 62
     5
 10
-61.0
 20
208.0
 30
0.0
 11
59.0
 21
208.0
 31
0.0
  0
LINE
  5
EB92
  8
OUTLINE
  6
CONTINUOUS
 62
     3
 10
135.0
 20
0.0
 30
0.0
 11
135.0
 21
200.0
 31
0.0
  0
LINE
  5
EB93
  8
SIZE
  6
CONTINUOUS
 62
    30
 10
479.75385
 20
0.0
 30
0.0
 11
479.75385
 21
12.0
 31
0.0
  0
CIRCLE
  5
EB94
  8
SIZE
  6
CONTINUOUS
 62
    30
 10
479.75385
 20
0.0
 30
0.0
 40
6.0
  0
LINE
  5
EB95
  8
DETAIL
  6
CONTINUOUS
 62
     5
 10
135.0
 20
0.0
 30
0.0
 11
135.0
 21
229.0
 31
0.0
  0
LINE
  5
EB96
  8
DETAIL
  6
CONTINUOUS
 62
     5
 10
136.75
 20
229.0
 30
0.0
 11
136.75
 21
0.0
 31
0.0
  0
LINE
  5
EB97
  8
DETAIL
  6
CONTINUOUS
 62
     5
 10
140.25
 20
54.0
 30
0.0
 11
140.25
 21
0.0
 31
0.0
  0
LINE
  5
EB98
  8
NOTE
  6
CONTINUOUS
 62
     4
 10
115.0
 20
-20.0
 30
0.0
 11
115.0
 21
20.0
 31
0.0
  0
LINE
  5
EB99
  8
NOTE
  6
CONTINUOUS
 62
     4
 10
146.0
 20
-20.0
 30
0.0
 11
146.0
 21
20.0
 31
0.0
  0
CIRCLE
  5
EB9A
  8
FIX
  6
CONTINUOUS
 62
    11
 10
146.0
 20
0.0
 30
0.0
 40
2.5
  0
CIRCLE
  5
EB9B
  8
FIX
  6
CONTINUOUS
 62
    11
 10
115.0
 20
0.0
 30
0.0
 40
2.5
  0
LINE
  5
EB9C
  8
DETAIL
  6
CONTINUOUS
 62
     5
 10
135.0
 20
0.0
 30
0.0
 11
135.0
 21
200.0
 31
0.0
  0
LINE
  5
EB9D
  8
BASIS
  6
DASHDOT
 62
     6
 10
0.0
 20
-73.243109
 30
0.0
 11
0.0
 21
291.479483
 31
0.0
  0
LINE
  5
EB9E
  8
SIZE
  6
CONTINUOUS
 62
    30
 10
187.0
 20
0.0
 30
0.0
 11
499.75385
 21
0.0
 31
0.0
  0
LINE
  5
EB9F
  8
SIZE
  6
CONTINUOUS
 62
    30
 10
479.75385
 20
-5.102312
 30
0.0
 11
479.75385
 21
-171.742223
 31
0.0
  0
TEXT
  5
EBA0
  8
SIZE
  6
CONTINUOUS
 62
    30
 10
453.392553
 20
-185.324703
 30
0.0
 40
64.0
  1
135
 50
90.0
 41
0.9
 72
     1
 11
453.392553
 21
-98.924703
 31
0.0
  0
LINE
  5
EBA1
  8
SIZE
  6
CONTINUOUS
 62
    30
 10
167.0
 20
-20.0
 30
0.0
 11
167.0
 21
-770.507501
 31
0.0
  0
CIRCLE
  5
EBA2
  8
SIZE
  6
CONTINUOUS
 62
    30
 10
167.0
 20
-750.507501
 30
0.0
 40
6.0
  0
LINE
  5
EBA3
  8
SIZE
  6
CONTINUOUS
 62
    30
 10
167.0
 20
-750.507501
 30
0.0
 11
155.0
 21
-750.507501
 31
0.0
  0
LINE
  5
EBA4
  8
SIZE
  6
CONTINUOUS
 62
    30
 10
115.0
 20
-40.0
 30
0.0
 11
115.0
 21
-511.578856
 31
0.0
  0
CIRCLE
  5
EBA5
  8
SIZE
  6
CONTINUOUS
 62
    30
 10
115.0
 20
-491.578856
 30
0.0
 40
6.0
  0
LINE
  5
EBA6
  8
SIZE
  6
CONTINUOUS
 62
    30
 10
115.0
 20
-491.578856
 30
0.0
 11
103.0
 21
-491.578856
 31
0.0
  0
LINE
  5
EBA7
  8
OUTLINE
  6
CONTINUOUS
 62
     3
 10
0.027391
 20
0.0
 30
0.0
 11
165.027391
 21
0.0
 31
0.0
  0
LINE
  5
EBA8
  8
OUTLINE
  6
CONTINUOUS
 62
     3
 10
0.027391
 20
0.0
 30
0.0
 11
165.027391
 21
0.0
 31
0.0
  0
LINE
  5
EBA9
  8
DETAIL
  6
CONTINUOUS
 62
     5
 10
125.094582
 20
-15.0
 30
0.0
 11
0.0
 21
-15.0
 31
0.0
  0
LINE
  5
EBAA
  8
DETAIL
  6
CONTINUOUS
 62
     5
 10
0.027391
 20
0.0
 30
0.0
 11
165.027391
 21
0.0
 31
0.0
  0
LINE
  5
EBAB
  8
DETAIL
  6
CONTINUOUS
 62
     5
 10
0.027391
 20
0.0
 30
0.0
 11
165.027391
 21
0.0
 31
0.0
  0
LINE
  5
EBAC
  8
NOTE
  6
CONTINUOUS
 62
     4
 10
135.0
 20
0.0
 30
0.0
 11
95.0
 21
0.0
 31
0.0
  0
LINE
  5
EBAD
  8
NOTE
  6
CONTINUOUS
 62
     4
 10
166.0
 20
0.0
 30
0.0
 11
126.0
 21
0.0
 31
0.0
  0
LINE
  5
EBAE
  8
DETAIL
  6
CONTINUOUS
 62
     5
 10
167.0
 20
-0.857123
 30
0.0
 11
167.0
 21
0.0
 31
0.0
  0
ARC
  5
EBAF
  8
DETAIL
  6
CONTINUOUS
 62
     5
 10
43.98603
 20
483.464984
 30
0.0
 40
505.02073
 50
279.24198
 51
283.449352
  0
ARC
  5
EBB0
  8
DETAIL
  6
CONTINUOUS
 62
     5
 10
159.999997
 20
-0.857123
 30
0.0
 40
7.0
 50
281.926915
 51
0.0
  0
LINE
  5
EBB1
  8
SIZE
  6
CONTINUOUS
 62
    30
 10
277.0
 20
227.0
 30
0.0
 11
277.0
 21
728.013573
 31
0.0
  0
LINE
  5
EBB2
  8
SIZE
  6
CONTINUOUS
 62
    30
 10
135.0
 20
247.0
 30
0.0
 11
135.0
 21
728.013573
 31
0.0
  0
TEXT
  5
EBB3
  8
SIZE
  6
CONTINUOUS
 62
    30
 10
324.1605681428571
 20
607.225138
 30
0.0
 40
64.0
  1
57
 41
0.9
 72
     1
 11
379.017711
 21
607.225138
 31
0.0
  0
LINE
  5
EBB4
  8
SIZE
  6
CONTINUOUS
 62
    30
 10
135.0
 20
247.0
 30
0.0
 11
135.0
 21
728.013573
 31
0.0
  0
LINE
  5
EBB5
  8
SIZE
  6
CONTINUOUS
 62
    30
 10
270.0
 20
59.0
 30
0.0
 11
743.504465
 21
59.0
 31
0.0
  0
LINE
  5
EBB6
  8
SIZE
  6
CONTINUOUS
 62
    30
 10
270.0
 20
211.0
 30
0.0
 11
743.504465
 21
211.0
 31
0.0
  0
LINE
  5
EBB7
  8
SIZE
  6
CONTINUOUS
 62
    30
 10
297.0
 20
207.0
 30
0.0
 11
616.2378110000001
 21
207.0
 31
0.0
  0
LINE
  5
EBB8
  8
SIZE
  6
CONTINUOUS
 62
    30
 10
300.0
 20
63.0
 30
0.0
 11
616.2378110000001
 21
63.0
 31
0.0
  0
LINE
  5
EBB9
  8
SIZE
  6
CONTINUOUS
 62
    30
 10
328.764257
 20
135.0
 30
0.0
 11
499.75385
 21
135.0
 31
0.0
  0
LINE
  5
EBBA
  8
SIZE
  6
CONTINUOUS
 62
    30
 10
723.504465
 20
211.0
 30
0.0
 11
723.504465
 21
461.517547
 31
0.0
  0
LINE
  5
EBBB
  8
SIZE
  6
CONTINUOUS
 62
    30
 10
596.2378110000001
 20
207.0
 30
0.0
 11
596.2378110000001
 21
458.801218
 31
0.0
  0
TEXT
  5
EBBC
  8
SIZE
  6
CONTINUOUS
 62
    30
 10
679.59105
 20
239.9022754285714
 30
0.0
 40
64.0
  1
φ152
 50
90.0
 41
0.9
 72
     1
 11
679.59105
 21
346.873704
 31
0.0
  0
LINE
  5
EBBD
  8
SIZE
  6
CONTINUOUS
 62
    30
 10
723.504465
 20
469.245133
 30
0.0
 11
723.504465
 21
211.0
 31
0.0
  0
TEXT
  5
EBBE
  8
SIZE
  6
CONTINUOUS
 62
    30
 10
552.324396
 20
238.5308468571428
 30
0.0
 40
64.0
  1
φ144
 50
90.0
 41
0.9
 72
     1
 11
552.324396
 21
346.873704
 31
0.0
  0
LINE
  5
EBBF
  8
SIZE
  6
CONTINUOUS
 62
    30
 10
596.2378110000001
 20
470.616561
 30
0.0
 11
596.2378110000001
 21
207.0
 31
0.0
  0
LINE
  5
EBC0
  8
SIZE
  6
CONTINUOUS
 62
    30
 10
723.504465
 20
199.0
 30
0.0
 11
723.504465
 21
71.0
 31
0.0
  0
LINE
  5
EBC1
  8
SIZE
  6
CONTINUOUS
 62
    30
 10
596.2378110000001
 20
75.0
 30
0.0
 11
596.2378110000001
 21
195.0
 31
0.0
  0
LINE
  5
EBC2
  8
SIZE
  6
CONTINUOUS
 62
    30
 10
723.504465
 20
59.0
 30
0.0
 11
723.504465
 21
71.0
 31
0.0
  0
CIRCLE
  5
EBC3
  8
SIZE
  6
CONTINUOUS
 62
    30
 10
723.504465
 20
59.0
 30
0.0
 40
6.0
  0
LINE
  5
EBC4
  8
SIZE
  6
CONTINUOUS
 62
    30
 10
479.75385
 20
123.0
 30
0.0
 11
479.75385
 21
12.0
 31
0.0
  0
LINE
  5
EBC5
  8
SIZE
  6
CONTINUOUS
 62
    30
 10
596.2378110000001
 20
63.0
 30
0.0
 11
596.2378110000001
 21
75.0
 31
0.0
  0
CIRCLE
  5
EBC6
  8
SIZE
  6
CONTINUOUS
 62
    30
 10
596.2378110000001
 20
63.0
 30
0.0
 40
6.0
  0
LINE
  5
EBC7
  8
SIZE
  6
CONTINUOUS
 62
    30
 10
479.75385
 20
135.0
 30
0.0
 11
479.75385
 21
123.0
 31
0.0
  0
CIRCLE
  5
EBC8
  8
SIZE
  6
CONTINUOUS
 62
    30
 10
479.75385
 20
135.0
 30
0.0
 40
6.0
  0
LINE
  5
EBC9
  8
SIZE
  6
CONTINUOUS
 62
    30
 10
723.504465
 20
211.0
 30
0.0
 11
723.504465
 21
199.0
 31
0.0
  0
CIRCLE
  5
EBCA
  8
SIZE
  6
CONTINUOUS
 62
    30
 10
723.504465
 20
211.0
 30
0.0
 40
6.0
  0
LINE
  5
EBCB
  8
SIZE
  6
CONTINUOUS
 62
    30
 10
596.2378110000001
 20
207.0
 30
0.0
 11
596.2378110000001
 21
195.0
 31
0.0
  0
CIRCLE
  5
EBCC
  8
SIZE
  6
CONTINUOUS
 62
    30
 10
596.2378110000001
 20
207.0
 30
0.0
 40
6.0
  0
LINE
  5
EBCD
  8
SIZE
  6
CONTINUOUS
 62
    30
 10
220.0
 20
235.0
 30
0.0
 11
220.0
 21
602.225138
 31
0.0
  0
LINE
  5
EBCE
  8
SIZE
  6
CONTINUOUS
 62
    30
 10
277.0
 20
227.0
 30
0.0
 11
277.0
 21
602.225138
 31
0.0
  0
LINE
  5
EBCF
  8
SIZE
  6
CONTINUOUS
 62
    30
 10
250.0
 20
231.0
 30
0.0
 11
250.0
 21
480.674477
 31
0.0
  0
LINE
  5
EBD0
  8
SIZE
  6
CONTINUOUS
 62
    30
 10
277.0
 20
227.0
 30
0.0
 11
277.0
 21
480.674477
 31
0.0
  0
LINE
  5
EBD1
  8
SIZE
  6
CONTINUOUS
 62
    30
 10
100.0
 20
248.0
 30
0.0
 11
100.0
 21
604.546652
 31
0.0
  0
LINE
  5
EBD2
  8
SIZE
  6
CONTINUOUS
 62
    30
 10
40.0
 20
253.344214
 30
0.0
 11
40.0
 21
478.388027
 31
0.0
  0
LINE
  5
EBD3
  8
DETAIL
  6
CONTINUOUS
 62
     5
 10
250.0
 20
211.0
 30
0.0
 11
220.0
 21
211.0
 31
0.0
  0
LINE
  5
EBD4
  8
DETAIL
  6
CONTINUOUS
 62
     5
 10
250.0
 20
59.0
 30
0.0
 11
220.0
 21
59.0
 31
0.0
  0
LINE
  5
EBD5
  8
BASIS
  6
DASHDOT
 62
     6
 10
308.764257
 20
135.0
 30
0.0
 11
111.716452
 21
135.0
 31
0.0
  0
LINE
  5
EBD6
  8
DETAIL
  6
CONTINUOUS
 62
     5
 10
277.0
 20
63.0
 30
0.0
 11
277.0
 21
207.0
 31
0.0
  0
LINE
  5
EBD7
  8
DETAIL
  6
CONTINUOUS
 62
     5
 10
250.0
 20
59.0
 30
0.0
 11
250.0
 21
211.0
 31
0.0
  0
TEXT
  5
EBD8
  8
NOTE
  6
CONTINUOUS
 62
     4
 10
336.723002
 20
93.632476
 30
0.0
 40
64.0
  1
EA
 41
0.9
  0
LINE
  5
EBD9
  8
DETAIL
  6
CONTINUOUS
 62
     5
 10
277.0
 20
63.0
 30
0.0
 11
250.0
 21
63.0
 31
0.0
  0
LINE
  5
EBDA
  8
DETAIL
  6
CONTINUOUS
 62
     5
 10
277.0
 20
207.0
 30
0.0
 11
250.0
 21
207.0
 31
0.0
  0
LINE
  5
EBDB
  8
DETAIL
  6
CONTINUOUS
 62
     5
 10
220.0
 20
54.0
 30
0.0
 11
220.0
 21
216.0
 31
0.0
  0
LINE
  5
EBDC
  8
DETAIL
  6
CONTINUOUS
 62
     5
 10
125.0
 20
7.0
 30
0.0
 11
125.0
 21
207.0
 31
0.0
  0
LINE
  5
EBDD
  8
DETAIL
  6
CONTINUOUS
 62
     5
 10
75.0
 20
7.0
 30
0.0
 11
75.0
 21
207.0
 31
0.0
  0
LINE
  5
EBDE
  8
DETAIL
  6
CONTINUOUS
 62
     5
 10
125.0
 20
7.0
 30
0.0
 11
75.0
 21
7.0
 31
0.0
  0
LINE
  5
EBDF
  8
DETAIL
  6
CONTINUOUS
 62
     5
 10
220.0
 20
54.0
 30
0.0
 11
135.0
 21
54.0
 31
0.0
  0
LINE
  5
EBE0
  8
DETAIL
  6
CONTINUOUS
 62
     5
 10
64.75078
 20
28.0
 30
0.0
 11
43.75078
 21
28.0
 31
0.0
  0
LINE
  5
EBE1
  8
DETAIL
  6
CONTINUOUS
 62
     5
 10
64.75078
 20
8.0
 30
0.0
 11
43.75078
 21
8.0
 31
0.0
  0
LINE
  5
EBE2
  8
DETAIL
  6
CONTINUOUS
 62
     5
 10
64.75078
 20
25.0
 30
0.0
 11
43.75078
 21
25.0
 31
0.0
  0
LINE
  5
EBE3
  8
DETAIL
  6
CONTINUOUS
 62
     5
 10
64.75078
 20
11.0
 30
0.0
 11
43.75078
 21
11.0
 31
0.0
  0
LINE
  5
EBE4
  8
BASIS
  6
DASHDOT
 62
     6
 10
79.28460100000001
 20
18.0
 30
0.0
 11
28.718519
 21
18.0
 31
0.0
  0
LINE
  5
EBE5
  8
DETAIL
  6
CONTINUOUS
 62
     5
 10
74.75078
 20
18.0
 30
0.0
 11
74.75078
 21
18.0
 31
0.0
  0
ARC
  5
EBE6
  8
DETAIL
  6
CONTINUOUS
 62
     5
 10
64.75078
 20
18.0
 30
0.0
 40
10.0
 50
0.0
 51
90.0
  0
ARC
  5
EBE7
  8
DETAIL
  6
CONTINUOUS
 62
     5
 10
64.75078
 20
18.0
 30
0.0
 40
10.0
 50
270.0
 51
0.0
  0
ARC
  5
EBE8
  8
DETAIL
  6
CONTINUOUS
 62
     5
 10
64.75078
 20
18.0
 30
0.0
 40
7.0
 50
0.0
 51
90.0
  0
ARC
  5
EBE9
  8
DETAIL
  6
CONTINUOUS
 62
     5
 10
64.75078
 20
18.0
 30
0.0
 40
7.0
 50
270.0
 51
0.0
  0
ARC
  5
EBEA
  8
DETAIL
  6
CONTINUOUS
 62
     5
 10
43.75078
 20
18.0
 30
0.0
 40
10.0
 50
90.0
 51
180.0
  0
ARC
  5
EBEB
  8
DETAIL
  6
CONTINUOUS
 62
     5
 10
43.75078
 20
18.0
 30
0.0
 40
10.0
 50
180.0
 51
270.0
  0
ARC
  5
EBEC
  8
DETAIL
  6
CONTINUOUS
 62
     5
 10
43.75078
 20
18.0
 30
0.0
 40
7.0
 50
180.0
 51
270.0
  0
ARC
  5
EBED
  8
DETAIL
  6
CONTINUOUS
 62
     5
 10
43.75078
 20
18.0
 30
0.0
 40
7.0
 50
90.0
 51
180.0
  0
LINE
  5
EBEE
  8
BASIS
  6
DASHDOT
 62
     6
 10
54.25078
 20
3.523891
 30
0.0
 11
54.25078
 21
33.438381
 31
0.0
  0
LINE
  5
EBEF
  8
NOTE
  6
CONTINUOUS
 62
     4
 10
80.0
 20
207.0
 30
0.0
 11
120.0
 21
207.0
 31
0.0
  0
LINE
  5
EBF0
  8
DETAIL
  6
CONTINUOUS
 62
     5
 10
125.0
 20
203.5
 30
0.0
 11
75.0
 21
203.5
 31
0.0
  0
LINE
  5
EBF1
  8
DETAIL
  6
CONTINUOUS
 62
     5
 10
125.0
 20
207.0
 30
0.0
 11
75.0
 21
207.0
 31
0.0
  0
LINE
  5
EBF2
  8
DETAIL
  6
CONTINUOUS
 62
     5
 10
125.0
 20
207.0
 30
0.0
 11
75.0
 21
207.0
 31
0.0
  0
LINE
  5
EBF3
  8
DETAIL
  6
CONTINUOUS
 62
     5
 10
220.0
 20
216.0
 30
0.0
 11
136.75
 21
216.0
 31
0.0
  0
LINE
  5
EBF4
  8
DETAIL
  6
CONTINUOUS
 62
     5
 10
140.25
 20
229.0
 30
0.0
 11
135.0
 21
229.0
 31
0.0
  0
LINE
  5
EBF5
  8
DETAIL
  6
CONTINUOUS
 62
     5
 10
140.25
 20
229.0
 30
0.0
 11
140.25
 21
216.0
 31
0.0
  0
LINE
  5
EBF6
  8
DETAIL
  6
CONTINUOUS
 62
     5
 10
125.0
 20
200.0
 30
0.0
 11
135.0
 21
200.0
 31
0.0
  0
LINE
  5
EBF7
  8
DETAIL
  6
CONTINUOUS
 62
     5
 10
125.0
 20
192.0
 30
0.0
 11
135.0
 21
192.0
 31
0.0
  0
LINE
  5
EBF8
  8
NOTE
  6
CONTINUOUS
 62
     4
 10
100.0
 20
188.0
 30
0.0
 11
100.0
 21
228.0
 31
0.0
  0
CIRCLE
  5
EBF9
  8
FIX
  6
CONTINUOUS
 62
    11
 10
100.0
 20
207.0
 30
0.0
 40
7.5
  0
LINE
  5
EBFA
  8
DETAIL
  6
CONTINUOUS
 62
     5
 10
59.0
 20
208.0
 30
0.0
 11
65.39496000000001
 21
200.0
 31
0.0
  0
ARC
  5
EBFB
  8
DETAIL
  6
CONTINUOUS
 62
     5
 10
3.852012
 20
241.159986
 30
0.0
 40
1.840001
 50
8.409111000000266
 51
90.0
  0
LINE
  5
EBFC
  8
DETAIL
  6
CONTINUOUS
 62
     5
 10
5.672234
 20
241.429071
 30
0.0
 11
5.820821
 21
240.423902
 31
0.0
  0
LINE
  5
EBFD
  8
DETAIL
  6
CONTINUOUS
 62
     5
 10
40.0
 20
208.0
 30
0.0
 11
40.0
 21
233.344214
 31
0.0
  0
ARC
  5
EBFE
  8
DETAIL
  6
CONTINUOUS
 62
     5
 10
34.94
 20
233.34
 30
0.0
 40
5.060002
 50
0.0000012074182697
 51
90.0
  0
LINE
  5
EBFF
  8
DETAIL
  6
CONTINUOUS
 62
     5
 10
29.63747
 20
238.399986
 30
0.0
 11
28.468962
 21
240.423888
 31
0.0
  0
LINE
  5
EC00
  8
SIZE
  6
CONTINUOUS
 62
    30
 10
277.0
 20
582.225138
 30
0.0
 11
220.0
 21
582.225138
 31
0.0
  0
LINE
  5
EC01
  8
SIZE
  6
CONTINUOUS
 62
    30
 10
277.0
 20
582.225138
 30
0.0
 11
220.0
 21
582.225138
 31
0.0
  0
LINE
  5
EC02
  8
SIZE
  6
CONTINUOUS
 62
    30
 10
238.0
 20
460.674477
 30
0.0
 11
226.0
 21
460.674477
 31
0.0
  0
TEXT
  5
EC03
  8
SIZE
  6
CONTINUOUS
 62
    30
 10
319.7927941428571
 20
485.674477
 30
0.0
 40
64.0
  1
27
 41
0.9
 72
     1
 11
374.649937
 21
485.674477
 31
0.0
  0
LINE
  5
EC04
  8
SIZE
  6
CONTINUOUS
 62
    30
 10
446.278508
 20
460.674477
 30
0.0
 11
277.0
 21
460.674477
 31
0.0
  0
LINE
  5
EC05
  8
SIZE
  6
CONTINUOUS
 62
    30
 10
289.0
 20
460.674477
 30
0.0
 11
301.0
 21
460.674477
 31
0.0
  0
LINE
  5
EC06
  8
SIZE
  6
CONTINUOUS
 62
    30
 10
250.0
 20
460.674477
 30
0.0
 11
238.0
 21
460.674477
 31
0.0
  0
CIRCLE
  5
EC07
  8
SIZE
  6
CONTINUOUS
 62
    30
 10
250.0
 20
460.674477
 30
0.0
 40
6.0
  0
LINE
  5
EC08
  8
SIZE
  6
CONTINUOUS
 62
    30
 10
277.0
 20
460.674477
 30
0.0
 11
289.0
 21
460.674477
 31
0.0
  0
CIRCLE
  5
EC09
  8
SIZE
  6
CONTINUOUS
 62
    30
 10
277.0
 20
460.674477
 30
0.0
 40
6.0
  0
LINE
  5
EC0A
  8
SIZE
  6
CONTINUOUS
 62
    30
 10
277.0
 20
460.674477
 30
0.0
 11
250.0
 21
460.674477
 31
0.0
  0
LINE
  5
EC0B
  8
SIZE
  6
CONTINUOUS
 62
    30
 10
277.0
 20
460.674477
 30
0.0
 11
250.0
 21
460.674477
 31
0.0
  0
LINE
  5
EC0C
  8
SIZE
  6
CONTINUOUS
 62
    30
 10
450.646282
 20
582.225138
 30
0.0
 11
277.0
 21
582.225138
 31
0.0
  0
LINE
  5
EC0D
  8
SIZE
  6
CONTINUOUS
 62
    30
 10
289.0
 20
582.225138
 30
0.0
 11
301.0
 21
582.225138
 31
0.0
  0
LINE
  5
EC0E
  8
SIZE
  6
CONTINUOUS
 62
    30
 10
277.0
 20
582.225138
 30
0.0
 11
289.0
 21
582.225138
 31
0.0
  0
CIRCLE
  5
EC0F
  8
SIZE
  6
CONTINUOUS
 62
    30
 10
277.0
 20
582.225138
 30
0.0
 40
6.0
  0
LINE
  5
EC10
  8
SIZE
  6
CONTINUOUS
 62
    30
 10
40.0
 20
458.388027
 30
0.0
 11
28.0
 21
458.388027
 31
0.0
  0
CIRCLE
  5
EC11
  8
SIZE
  6
CONTINUOUS
 62
    30
 10
40.0
 20
458.388027
 30
0.0
 40
6.0
  0
CIRCLE
  5
EC12
  8
SIZE
  6
CONTINUOUS
 62
    30
 10
220.0
 20
582.225138
 30
0.0
 40
6.0
  0
LINE
  5
EC13
  8
SIZE
  6
CONTINUOUS
 62
    30
 10
100.0
 20
584.546652
 30
0.0
 11
88.0
 21
584.546652
 31
0.0
  0
CIRCLE
  5
EC14
  8
SIZE
  6
CONTINUOUS
 62
    30
 10
100.0
 20
584.546652
 30
0.0
 40
6.0
  0
LINE
  5
EC15
  8
SIZE
  6
CONTINUOUS
 62
    30
 10
480.098569
 20
708.013573
 30
0.0
 11
277.0
 21
708.013573
 31
0.0
  0
LINE
  5
EC16
  8
SIZE
  6
CONTINUOUS
 62
    30
 10
147.0
 20
708.013573
 30
0.0
 11
265.0
 21
708.013573
 31
0.0
  0
TEXT
  5
EC17
  8
SIZE
  6
CONTINUOUS
 62
    30
 10
300.1271399999999
 20
733.013573
 30
0.0
 40
64.0
  1
142
 41
0.9
 72
     1
 11
386.52714
 21
733.013573
 31
0.0
  0
LINE
  5
EC18
  8
SIZE
  6
CONTINUOUS
 62
    30
 10
277.0
 20
708.013573
 30
0.0
 11
265.0
 21
708.013573
 31
0.0
  0
CIRCLE
  5
EC19
  8
SIZE
  6
CONTINUOUS
 62
    30
 10
277.0
 20
708.013573
 30
0.0
 40
6.0
  0
LINE
  5
EC1A
  8
SIZE
  6
CONTINUOUS
 62
    30
 10
135.0
 20
708.013573
 30
0.0
 11
147.0
 21
708.013573
 31
0.0
  0
CIRCLE
  5
EC1B
  8
SIZE
  6
CONTINUOUS
 62
    30
 10
135.0
 20
708.013573
 30
0.0
 40
6.0
  0
LINE
  5
EC1C
  8
SIZE
  6
CONTINUOUS
 62
    30
 10
135.0
 20
708.013573
 30
0.0
 11
123.0
 21
708.013573
 31
0.0
  0
CIRCLE
  5
EC1D
  8
SIZE
  6
CONTINUOUS
 62
    30
 10
135.0
 20
708.013573
 30
0.0
 40
6.0
  0
LINE
  5
EC1E
  8
OUTLINE
  6
CONTINUOUS
 62
     3
 10
-135.0
 20
0.0
 30
0.0
 11
-135.0
 21
200.0
 31
0.0
  0
LINE
  5
EC1F
  8
SIZE
  6
CONTINUOUS
 62
    30
 10
-713.003111
 20
0.0
 30
0.0
 11
-713.003111
 21
12.0
 31
0.0
  0
CIRCLE
  5
EC20
  8
SIZE
  6
CONTINUOUS
 62
    30
 10
-713.003111
 20
0.0
 30
0.0
 40
6.0
  0
LINE
  5
EC21
  8
SIZE
  6
CONTINUOUS
 62
    30
 10
-713.003111
 20
0.0
 30
0.0
 11
-713.003111
 21
12.0
 31
0.0
  0
CIRCLE
  5
EC22
  8
SIZE
  6
CONTINUOUS
 62
    30
 10
-713.003111
 20
0.0
 30
0.0
 40
6.0
  0
LINE
  5
EC23
  8
NOTE
  6
CONTINUOUS
 62
     4
 10
-146.0
 20
-20.0
 30
0.0
 11
-146.0
 21
20.0
 31
0.0
  0
CIRCLE
  5
EC24
  8
FIX
  6
CONTINUOUS
 62
    11
 10
-146.0
 20
0.0
 30
0.0
 40
2.5
  0
LINE
  5
EC25
  8
NOTE
  6
CONTINUOUS
 62
     4
 10
-115.0
 20
-20.0
 30
0.0
 11
-115.0
 21
20.0
 31
0.0
  0
CIRCLE
  5
EC26
  8
FIX
  6
CONTINUOUS
 62
    11
 10
-115.0
 20
0.0
 30
0.0
 40
2.5
  0
LINE
  5
EC27
  8
DETAIL
  6
CONTINUOUS
 62
     5
 10
-135.0
 20
0.0
 30
0.0
 11
-135.0
 21
200.0
 31
0.0
  0
LINE
  5
EC28
  8
SIZE
  6
CONTINUOUS
 62
    30
 10
-145.094582
 20
-15.0
 30
0.0
 11
-733.003111
 21
-15.0
 31
0.0
  0
LINE
  5
EC29
  8
SIZE
  6
CONTINUOUS
 62
    30
 10
-181.5
 20
0.0
 30
0.0
 11
-733.003111
 21
0.0
 31
0.0
  0
LINE
  5
EC2A
  8
SIZE
  6
CONTINUOUS
 62
    30
 10
-187.0
 20
0.0
 30
0.0
 11
-733.003111
 21
0.0
 31
0.0
  0
LINE
  5
EC2B
  8
SIZE
  6
CONTINUOUS
 62
    30
 10
-187.0
 20
0.0
 30
0.0
 11
-608.789274
 21
0.0
 31
0.0
  0
LINE
  5
EC2C
  8
NOTE
  6
CONTINUOUS
 62
     4
 10
-215.600006
 20
-297.289486
 30
0.0
 11
-636.47174
 21
-297.289486
 31
0.0
  0
TEXT
  5
EC2D
  8
NOTE
  6
CONTINUOUS
 62
     4
 10
-598.2022549999999
 20
-264.325216
 30
0.0
 40
64.0
  1
8-φ5×8
 41
0.9
  0
LINE
  5
EC2E
  8
SIZE
  6
CONTINUOUS
 62
    30
 10
-167.0
 20
-20.0
 30
0.0
 11
-167.0
 21
-770.507501
 31
0.0
  0
CIRCLE
  5
EC2F
  8
SIZE
  6
CONTINUOUS
 62
    30
 10
-167.0
 20
-750.507501
 30
0.0
 40
6.0
  0
LINE
  5
EC30
  8
SIZE
  6
CONTINUOUS
 62
    30
 10
-167.0
 20
-750.507501
 30
0.0
 11
-155.0
 21
-750.507501
 31
0.0
  0
LINE
  5
EC31
  8
SIZE
  6
CONTINUOUS
 62
    30
 10
-115.0
 20
-40.0
 30
0.0
 11
-115.0
 21
-511.578856
 31
0.0
  0
LINE
  5
EC32
  8
NOTE
  6
CONTINUOUS
 62
     4
 10
-145.864425
 20
-0.557675
 30
0.0
 11
-215.600006
 21
-297.289486
 31
0.0
  0
CIRCLE
  5
EC33
  8
SIZE
  6
CONTINUOUS
 62
    30
 10
-115.0
 20
-491.578856
 30
0.0
 40
6.0
  0
LINE
  5
EC34
  8
SIZE
  6
CONTINUOUS
 62
    30
 10
-115.0
 20
-491.578856
 30
0.0
 11
-103.0
 21
-491.578856
 31
0.0
  0
LINE
  5
EC35
  8
NOTE
  6
CONTINUOUS
 62
     4
 10
-95.0
 20
0.0
 30
0.0
 11
-135.0
 21
0.0
 31
0.0
  0
LINE
  5
EC36
  8
NOTE
  6
CONTINUOUS
 62
     4
 10
-145.872246
 20
-0.503812
 30
0.0
 11
-165.271868
 21
-35.484588
 31
0.0
  0
LINE
  5
EC37
  8
NOTE
  6
CONTINUOUS
 62
     4
 10
-126.0
 20
0.0
 30
0.0
 11
-166.0
 21
0.0
 31
0.0
  0
LINE
  5
EC38
  8
DETAIL
  6
CONTINUOUS
 62
     5
 10
-167.0
 20
-0.857123
 30
0.0
 11
-167.0
 21
0.0
 31
0.0
  0
ARC
  5
EC39
  8
DETAIL
  6
CONTINUOUS
 62
     5
 10
-43.98603
 20
483.464984
 30
0.0
 40
505.02073
 50
256.550648
 51
260.75802
  0
ARC
  5
EC3A
  8
DETAIL
  6
CONTINUOUS
 62
     5
 10
-159.999997
 20
-0.857123
 30
0.0
 40
7.0
 50
180.0
 51
258.073085
  0
LINE
  5
EC3B
  8
NOTE
  6
CONTINUOUS
 62
     4
 10
-145.182423
 20
-40.497863
 30
0.0
 11
-145.872246
 21
-0.503812
 31
0.0
  0
LINE
  5
EC3C
  8
SIZE
  6
CONTINUOUS
 62
    30
 10
-713.003111
 20
-18.0
 30
0.0
 11
-713.003111
 21
-149.848884
 31
0.0
  0
TEXT
  5
EC3D
  8
SIZE
  6
CONTINUOUS
 62
    30
 10
-736.3817439999999
 20
-153.1081315714286
 30
0.0
 40
64.0
  1
15
 50
90.0
 41
0.9
 72
     1
 11
-736.3817439999999
 21
-94.136703
 31
0.0
  0
LINE
  5
EC3E
  8
SIZE
  6
CONTINUOUS
 62
    30
 10
-713.003111
 20
-15.0
 30
0.0
 11
-713.003111
 21
-27.0
 31
0.0
  0
CIRCLE
  5
EC3F
  8
SIZE
  6
CONTINUOUS
 62
    30
 10
-713.003111
 20
-15.0
 30
0.0
 40
6.0
  0
LINE
  5
EC40
  8
SIZE
  6
CONTINUOUS
 62
    30
 10
-713.003111
 20
0.0
 30
0.0
 11
-713.003111
 21
-15.0
 31
0.0
  0
LINE
  5
EC41
  8
SIZE
  6
CONTINUOUS
 62
    30
 10
-713.003111
 20
0.0
 30
0.0
 11
-713.003111
 21
-15.0
 31
0.0
  0
LINE
  5
EC42
  8
SIZE
  6
CONTINUOUS
 62
    30
 10
-713.003111
 20
-27.0
 30
0.0
 11
-713.003111
 21
-39.0
 31
0.0
  0
TEXT
  5
EC43
  8
NOTE
  6
CONTINUOUS
 62
     4
 10
-968.570572
 20
447.910563
 30
0.0
 40
64.0
  1
AH 4-φ15×22
 41
0.9
  0
LINE
  5
EC44
  8
NOTE
  6
CONTINUOUS
 62
     4
 10
-359.359036
 20
404.681692
 30
0.0
 11
-1014.602214
 21
404.681692
 31
0.0
  0
LINE
  5
EC45
  8
SIZE
  6
CONTINUOUS
 62
    30
 10
-135.0
 20
220.0
 30
0.0
 11
-135.0
 21
728.013573
 31
0.0
  0
LINE
  5
EC46
  8
SIZE
  6
CONTINUOUS
 62
    30
 10
-21.0
 20
243.0
 30
0.0
 11
-733.003111
 21
243.0
 31
0.0
  0
LINE
  5
EC47
  8
NOTE
  6
CONTINUOUS
 62
     4
 10
-100.0
 20
207.0
 30
0.0
 11
-359.359036
 21
404.681692
 31
0.0
  0
LINE
  5
EC48
  8
SIZE
  6
CONTINUOUS
 62
    30
 10
-100.0
 20
248.0
 30
0.0
 11
-100.0
 21
604.546652
 31
0.0
  0
LINE
  5
EC49
  8
SIZE
  6
CONTINUOUS
 62
    30
 10
-42.0
 20
253.34
 30
0.0
 11
-42.0
 21
478.388027
 31
0.0
  0
LINE
  5
EC4A
  8
DETAIL
  6
CONTINUOUS
 62
     5
 10
-75.0
 20
7.0
 30
0.0
 11
-75.0
 21
207.0
 31
0.0
  0
LINE
  5
EC4B
  8
DETAIL
  6
CONTINUOUS
 62
     5
 10
-125.0
 20
7.0
 30
0.0
 11
-125.0
 21
207.0
 31
0.0
  0
LINE
  5
EC4C
  8
DETAIL
  6
CONTINUOUS
 62
     5
 10
-125.0
 20
7.0
 30
0.0
 11
-75.0
 21
7.0
 31
0.0
  0
LINE
  5
EC4D
  8
DETAIL
  6
CONTINUOUS
 62
     5
 10
-65.24922
 20
11.0
 30
0.0
 11
-44.24922
 21
11.0
 31
0.0
  0
LINE
  5
EC4E
  8
DETAIL
  6
CONTINUOUS
 62
     5
 10
-65.24922
 20
25.0
 30
0.0
 11
-44.24922
 21
25.0
 31
0.0
  0
LINE
  5
EC4F
  8
DETAIL
  6
CONTINUOUS
 62
     5
 10
-65.24922
 20
8.0
 30
0.0
 11
-44.24922
 21
8.0
 31
0.0
  0
LINE
  5
EC50
  8
DETAIL
  6
CONTINUOUS
 62
     5
 10
-65.24922
 20
28.0
 30
0.0
 11
-44.24922
 21
28.0
 31
0.0
  0
LINE
  5
EC51
  8
BASIS
  6
DASHDOT
 62
     6
 10
-79.783041
 20
18.0
 30
0.0
 11
-29.216959
 21
18.0
 31
0.0
  0
ARC
  5
EC52
  8
DETAIL
  6
CONTINUOUS
 62
     5
 10
-44.24922
 20
18.0
 30
0.0
 40
7.0
 50
0.0
 51
90.0
  0
ARC
  5
EC53
  8
DETAIL
  6
CONTINUOUS
 62
     5
 10
-44.24922
 20
18.0
 30
0.0
 40
7.0
 50
270.0
 51
0.0
  0
ARC
  5
EC54
  8
DETAIL
  6
CONTINUOUS
 62
     5
 10
-44.24922
 20
18.0
 30
0.0
 40
10.0
 50
270.0
 51
0.0
  0
ARC
  5
EC55
  8
DETAIL
  6
CONTINUOUS
 62
     5
 10
-44.24922
 20
18.0
 30
0.0
 40
10.0
 50
0.0
 51
90.0
  0
LINE
  5
EC56
  8
BASIS
  6
DASHDOT
 62
     6
 10
-54.74922
 20
3.523891
 30
0.0
 11
-54.74922
 21
33.438381
 31
0.0
  0
ARC
  5
EC57
  8
DETAIL
  6
CONTINUOUS
 62
     5
 10
-65.24922
 20
18.0
 30
0.0
 40
7.0
 50
180.0
 51
270.0
  0
ARC
  5
EC58
  8
DETAIL
  6
CONTINUOUS
 62
     5
 10
-65.24922
 20
18.0
 30
0.0
 40
7.0
 50
90.0
 51
180.0
  0
ARC
  5
EC59
  8
DETAIL
  6
CONTINUOUS
 62
     5
 10
-65.24922
 20
18.0
 30
0.0
 40
10.0
 50
180.0
 51
270.0
  0
ARC
  5
EC5A
  8
DETAIL
  6
CONTINUOUS
 62
     5
 10
-65.24922
 20
18.0
 30
0.0
 40
10.0
 50
90.0
 51
180.0
  0
LINE
  5
EC5B
  8
DETAIL
  6
CONTINUOUS
 62
     5
 10
-75.24922
 20
18.0
 30
0.0
 11
-75.24922
 21
18.0
 31
0.0
  0
LINE
  5
EC5C
  8
NOTE
  6
CONTINUOUS
 62
     4
 10
-100.0
 20
207.0
 30
0.0
 11
-124.98533
 21
239.236729
 31
0.0
  0
LINE
  5
EC5D
  8
NOTE
  6
CONTINUOUS
 62
     4
 10
-137.256296
 20
222.559136
 30
0.0
 11
-100.0
 21
207.0
 31
0.0
  0
LINE
  5
EC5E
  8
NOTE
  6
CONTINUOUS
 62
     4
 10
-80.0
 20
207.0
 30
0.0
 11
-120.0
 21
207.0
 31
0.0
  0
LINE
  5
EC5F
  8
DETAIL
  6
CONTINUOUS
 62
     5
 10
-125.0
 20
207.0
 30
0.0
 11
-75.0
 21
207.0
 31
0.0
  0
LINE
  5
EC60
  8
DETAIL
  6
CONTINUOUS
 62
     5
 10
-125.0
 20
207.0
 30
0.0
 11
-75.0
 21
207.0
 31
0.0
  0
LINE
  5
EC61
  8
DETAIL
  6
CONTINUOUS
 62
     5
 10
-125.0
 20
203.5
 30
0.0
 11
-75.0
 21
203.5
 31
0.0
  0
LINE
  5
EC62
  8
DETAIL
  6
CONTINUOUS
 62
     5
 10
-31.63747
 20
238.399986
 30
0.0
 11
-30.468962
 21
240.423888
 31
0.0
  0
LINE
  5
EC63
  8
DETAIL
  6
CONTINUOUS
 62
     5
 10
-36.94
 20
238.399986
 30
0.0
 11
-1.0
 21
238.399986
 31
0.0
  0
LINE
  5
EC64
  8
DETAIL
  6
CONTINUOUS
 62
     5
 10
-1.0
 20
240.423902
 30
0.0
 11
-30.468953
 21
240.423902
 31
0.0
  0
LINE
  5
EC65
  8
DETAIL
  6
CONTINUOUS
 62
     5
 10
-7.672234
 20
241.429071
 30
0.0
 11
-7.820821
 21
240.423902
 31
0.0
  0
LINE
  5
EC66
  8
DETAIL
  6
CONTINUOUS
 62
     5
 10
-5.852011999999999
 20
243.0
 30
0.0
 11
-1.0
 21
243.0
 31
0.0
  0
ARC
  5
EC67
  8
DETAIL
  6
CONTINUOUS
 62
     5
 10
-5.852011999999999
 20
241.159986
 30
0.0
 40
1.840001
 50
90.0
 51
171.5908889999997
  0
LINE
  5
EC68
  8
DETAIL
  6
CONTINUOUS
 62
     5
 10
-42.0
 20
208.0
 30
0.0
 11
-42.0
 21
233.34
 31
0.0
  0
ARC
  5
EC69
  8
DETAIL
  6
CONTINUOUS
 62
     5
 10
-36.94
 20
233.34
 30
0.0
 40
5.060002
 50
90.0
 51
179.9999987925817
  0
LINE
  5
EC6A
  8
NOTE
  6
CONTINUOUS
 62
     4
 10
-100.0
 20
188.0
 30
0.0
 11
-100.0
 21
228.0
 31
0.0
  0
CIRCLE
  5
EC6B
  8
FIX
  6
CONTINUOUS
 62
    11
 10
-100.0
 20
207.0
 30
0.0
 40
7.5
  0
LINE
  5
EC6C
  8
DETAIL
  6
CONTINUOUS
 62
     5
 10
-61.0
 20
208.0
 30
0.0
 11
-67.39496
 21
200.0
 31
0.0
  0
LINE
  5
EC6D
  8
DETAIL
  6
CONTINUOUS
 62
     5
 10
-135.0
 20
192.0
 30
0.0
 11
-125.0
 21
192.0
 31
0.0
  0
LINE
  5
EC6E
  8
DETAIL
  6
CONTINUOUS
 62
     5
 10
-135.0
 20
200.0
 30
0.0
 11
-125.0
 21
200.0
 31
0.0
  0
LINE
  5
EC6F
  8
SIZE
  6
CONTINUOUS
 62
    30
 10
-42.0
 20
458.388027
 30
0.0
 11
-30.0
 21
458.388027
 31
0.0
  0
CIRCLE
  5
EC70
  8
SIZE
  6
CONTINUOUS
 62
    30
 10
-42.0
 20
458.388027
 30
0.0
 40
6.0
  0
LINE
  5
EC71
  8
SIZE
  6
CONTINUOUS
 62
    30
 10
-100.0
 20
584.546652
 30
0.0
 11
-88.0
 21
584.546652
 31
0.0
  0
CIRCLE
  5
EC72
  8
SIZE
  6
CONTINUOUS
 62
    30
 10
-100.0
 20
584.546652
 30
0.0
 40
6.0
  0
TEXT
  5
EC73
  8
SIZE
  6
CONTINUOUS
 62
    30
 10
-735.204086
 20
39.21428571428571
 30
0.0
 40
64.0
  1
243
 50
90.0
 41
0.9
 72
     1
 11
-735.204086
 21
121.5
 31
0.0
  0
LINE
  5
EC74
  8
SIZE
  6
CONTINUOUS
 62
    30
 10
-713.003111
 20
12.0
 30
0.0
 11
-713.003111
 21
231.0
 31
0.0
  0
LINE
  5
EC75
  8
SIZE
  6
CONTINUOUS
 62
    30
 10
-713.003111
 20
12.0
 30
0.0
 11
-713.003111
 21
24.0
 31
0.0
  0
CIRCLE
  5
EC76
  8
SIZE
  6
CONTINUOUS
 62
    30
 10
-713.003111
 20
243.0
 30
0.0
 40
6.0
  0
LINE
  5
EC77
  8
SIZE
  6
CONTINUOUS
 62
    30
 10
-713.003111
 20
243.0
 30
0.0
 11
-713.003111
 21
231.0
 31
0.0
  0
LINE
  5
EC78
  8
SIZE
  6
CONTINUOUS
 62
    30
 10
-135.0
 20
708.013573
 30
0.0
 11
-123.0
 21
708.013573
 31
0.0
  0
CIRCLE
  5
EC79
  8
SIZE
  6
CONTINUOUS
 62
    30
 10
-135.0
 20
708.013573
 30
0.0
 40
6.0
  0
TEXT
  5
EC7A
  8
ETC
  6
CONTINUOUS
 62
    61
 10
496.365382
 20
831.294248
 30
0.0
 40
64.0
  1
換気扇
 41
0.9
  0
TEXT
  5
EC7B
  8
ETC
  6
CONTINUOUS
 62
    61
 10
546.972885
 20
723.458467
 30
0.0
 40
40.0
  1
VD-18Z9
 41
0.9
  0
TEXT
  5
EC7C
  8
ETC
  6
CONTINUOUS
 62
    61
 10
546.972885
 20
653.458467
 30
0.0
 40
40.0
  1
VD-18ZL9
 41
0.9
  0
TEXT
  5
EC7D
  8
ETC
  6
CONTINUOUS
 62
    61
 10
546.972885
 20
583.458467
 30
0.0
 40
40.0
  1
VD-18ZV2
 41
0.9
  0
LINE
  5
EC7E
  8
NOTE
  6
CONTINUOUS
 62
     4
 10
99.0
 20
181.0
 30
0.0
 11
99.0
 21
221.0
 31
0.0
  0
LINE
  5
EC7F
  8
NOTE
  6
CONTINUOUS
 62
     4
 39
50.0
 10
99.0
 20
200.0
 30
0.0
 11
350.583181
 21
343.437421
 31
0.0
  0
LINE
  5
EC80
  8
NOTE
  6
CONTINUOUS
 62
     4
 39
50.0
 10
350.583181
 20
343.437421
 30
0.0
 11
485.825616
 21
343.437421
 31
0.0
  0
TEXT
  5
EC81
  8
NOTE
  6
CONTINUOUS
 62
     4
 10
391.928684
 20
367.813227
 30
0.0
 40
64.0
  1
EL
 41
0.9
  0
LINE
  5
EC82
  8
NOTE
  6
CONTINUOUS
 62
     4
 39
50.0
 10
120.276129
 20
225.071285
 30
0.0
 11
99.0
 21
200.0
 31
0.0
  0
LINE
  5
EC83
  8
NOTE
  6
CONTINUOUS
 62
     4
 39
50.0
 10
99.0
 20
200.0
 30
0.0
 11
99.0
 21
200.0
 31
0.0
  0
LINE
  5
EC84
  8
NOTE
  6
CONTINUOUS
 62
     4
 39
50.0
 10
99.0
 20
200.0
 30
0.0
 11
132.440886
 21
210.082007
 31
0.0
  0
LINE
  5
EC85
  8
SIZE
  6
CONTINUOUS
 62
    30
 10
-187.0
 20
0.0
 30
0.0
 11
-599.190652
 21
0.0
 31
0.0
  0
LINE
  5
EC86
  8
SIZE
  6
CONTINUOUS
 62
    30
 10
-140.0
 20
207.0
 30
0.0
 11
-599.190652
 21
207.0
 31
0.0
  0
LINE
  5
EC87
  8
SIZE
  6
CONTINUOUS
 62
    30
 10
-579.190652
 20
12.0
 30
0.0
 11
-579.190652
 21
195.0
 31
0.0
  0
CIRCLE
  5
EC88
  8
SIZE
  6
CONTINUOUS
 62
    30
 10
-579.190652
 20
0.0
 30
0.0
 40
6.0
  0
LINE
  5
EC89
  8
SIZE
  6
CONTINUOUS
 62
    30
 10
-579.190652
 20
0.0
 30
0.0
 11
-579.190652
 21
12.0
 31
0.0
  0
CIRCLE
  5
EC8A
  8
SIZE
  6
CONTINUOUS
 62
    30
 10
-579.190652
 20
207.0
 30
0.0
 40
6.0
  0
LINE
  5
EC8B
  8
SIZE
  6
CONTINUOUS
 62
    30
 10
-579.190652
 20
207.0
 30
0.0
 11
-579.190652
 21
195.0
 31
0.0
  0
TEXT
  5
EC8C
  8
SIZE
  6
CONTINUOUS
 62
    30
 10
-604.190652
 20
21.21428571428571
 30
0.0
 40
64.0
  1
207
 50
90.0
 41
0.9
 72
     1
 11
-604.190652
 21
103.5
 31
0.0
  0
POINT
  5
EC8D
  8
DEFPOINTS
  6
CONTINUOUS
 62
    30
 10
-167.0
 20
0.0
 30
0.0
  0
POINT
  5
EC8E
  8
DEFPOINTS
  6
CONTINUOUS
 62
    30
 10
-120.0
 20
207.0
 30
0.0
  0
POINT
  5
EC8F
  8
DEFPOINTS
  6
CONTINUOUS
 62
    30
 10
-579.190652
 20
207.0
 30
0.0
  0
LINE
  5
EC90
  8
SIZE
  6
CONTINUOUS
 62
    30
 10
-54.74922
 20
-12.0
 30
0.0
 11
-54.74922
 21
-360.952091
 31
0.0
  0
LINE
  5
EC91
  8
SIZE
  6
CONTINUOUS
 62
    30
 10
54.25078
 20
-16.476109
 30
0.0
 11
54.25078
 21
-360.952091
 31
0.0
  0
LINE
  5
EC92
  8
SIZE
  6
CONTINUOUS
 62
    30
 10
-42.74922
 20
-340.952091
 30
0.0
 11
42.25078
 21
-340.952091
 31
0.0
  0
LINE
  5
EC93
  8
SIZE
  6
CONTINUOUS
 62
    30
 10
54.25078
 20
-340.952091
 30
0.0
 11
373.421004
 21
-340.952091
 31
0.0
  0
CIRCLE
  5
EC94
  8
SIZE
  6
CONTINUOUS
 62
    30
 10
-54.74922
 20
-340.952091
 30
0.0
 40
6.0
  0
LINE
  5
EC95
  8
SIZE
  6
CONTINUOUS
 62
    30
 10
-54.74922
 20
-340.952091
 30
0.0
 11
-42.74922
 21
-340.952091
 31
0.0
  0
CIRCLE
  5
EC96
  8
SIZE
  6
CONTINUOUS
 62
    30
 10
54.25078
 20
-340.952091
 30
0.0
 40
6.0
  0
LINE
  5
EC97
  8
SIZE
  6
CONTINUOUS
 62
    30
 10
54.25078
 20
-340.952091
 30
0.0
 11
42.25078
 21
-340.952091
 31
0.0
  0
TEXT
  5
EC98
  8
SIZE
  6
CONTINUOUS
 62
    30
 10
196.1924325714286
 20
-315.952091
 30
0.0
 40
64.0
  1
109
 41
0.9
 72
     1
 11
281.221004
 21
-315.952091
 31
0.0
  0
POINT
  5
EC99
  8
DEFPOINTS
  6
CONTINUOUS
 62
    30
 10
-54.74922
 20
8.0
 30
0.0
  0
POINT
  5
EC9A
  8
DEFPOINTS
  6
CONTINUOUS
 62
    30
 10
54.25078
 20
3.523891
 30
0.0
  0
POINT
  5
EC9B
  8
DEFPOINTS
  6
CONTINUOUS
 62
    30
 10
54.25078
 20
-340.952091
 30
0.0
  0
LINE
  5
EC9C
  8
SIZE
  6
CONTINUOUS
 62
    30
 10
-75.0
 20
-4.218623
 30
0.0
 11
-75.0
 21
-147.118585
 31
0.0
  0
LINE
  5
EC9D
  8
SIZE
  6
CONTINUOUS
 62
    30
 10
-34.49844
 20
-4.218623
 30
0.0
 11
-34.49844
 21
-147.118585
 31
0.0
  0
LINE
  5
EC9E
  8
SIZE
  6
CONTINUOUS
 62
    30
 10
-22.49844
 20
-127.118585
 30
0.0
 11
-10.49844
 21
-127.118585
 31
0.0
  0
LINE
  5
EC9F
  8
SIZE
  6
CONTINUOUS
 62
    30
 10
-87.0
 20
-127.118585
 30
0.0
 11
-297.297055
 21
-127.118585
 31
0.0
  0
LINE
  5
ECA0
  8
SIZE
  6
CONTINUOUS
 62
    30
 10
-34.49844
 20
-127.118585
 30
0.0
 11
-75.0
 21
-127.118585
 31
0.0
  0
CIRCLE
  5
ECA1
  8
SIZE
  6
CONTINUOUS
 62
    30
 10
-34.49844
 20
-127.118585
 30
0.0
 40
6.0
  0
LINE
  5
ECA2
  8
SIZE
  6
CONTINUOUS
 62
    30
 10
-34.49844
 20
-127.118585
 30
0.0
 11
-22.49844
 21
-127.118585
 31
0.0
  0
CIRCLE
  5
ECA3
  8
SIZE
  6
CONTINUOUS
 62
    30
 10
-75.0
 20
-127.118585
 30
0.0
 40
6.0
  0
LINE
  5
ECA4
  8
SIZE
  6
CONTINUOUS
 62
    30
 10
-75.0
 20
-127.118585
 30
0.0
 11
-87.0
 21
-127.118585
 31
0.0
  0
TEXT
  5
ECA5
  8
SIZE
  6
CONTINUOUS
 62
    30
 10
-284.6399124285714
 20
-102.118585
 30
0.0
 40
64.0
  1
41
 41
0.9
 72
     1
 11
-238.011341
 21
-102.118585
 31
0.0
  0
POINT
  5
ECA6
  8
DEFPOINTS
  6
CONTINUOUS
 62
    30
 10
-75.0
 20
15.781377
 30
0.0
  0
POINT
  5
ECA7
  8
DEFPOINTS
  6
CONTINUOUS
 62
    30
 10
-34.49844
 20
15.781377
 30
0.0
  0
POINT
  5
ECA8
  8
DEFPOINTS
  6
CONTINUOUS
 62
    30
 10
-34.49844
 20
-127.118585
 30
0.0
  0
LINE
  5
ECA9
  8
SIZE
  6
CONTINUOUS
 62
    30
 10
-187.0
 20
0.0
 30
0.0
 11
-358.267576
 21
0.0
 31
0.0
  0
LINE
  5
ECAA
  8
SIZE
  6
CONTINUOUS
 62
    30
 10
-99.783041
 20
18.0
 30
0.0
 11
-358.267576
 21
18.0
 31
0.0
  0
LINE
  5
ECAB
  8
SIZE
  6
CONTINUOUS
 62
    30
 10
-338.267576
 20
-12.0
 30
0.0
 11
-338.267576
 21
-24.0
 31
0.0
  0
LINE
  5
ECAC
  8
SIZE
  6
CONTINUOUS
 62
    30
 10
-338.267576
 20
30.0
 30
0.0
 11
-338.267576
 21
174.285714
 31
0.0
  0
LINE
  5
ECAD
  8
SIZE
  6
CONTINUOUS
 62
    30
 10
-338.267576
 20
0.0
 30
0.0
 11
-338.267576
 21
18.0
 31
0.0
  0
CIRCLE
  5
ECAE
  8
SIZE
  6
CONTINUOUS
 62
    30
 10
-338.267576
 20
0.0
 30
0.0
 40
6.0
  0
LINE
  5
ECAF
  8
SIZE
  6
CONTINUOUS
 62
    30
 10
-338.267576
 20
0.0
 30
0.0
 11
-338.267576
 21
-12.0
 31
0.0
  0
CIRCLE
  5
ECB0
  8
SIZE
  6
CONTINUOUS
 62
    30
 10
-338.267576
 20
18.0
 30
0.0
 40
6.0
  0
LINE
  5
ECB1
  8
SIZE
  6
CONTINUOUS
 62
    30
 10
-338.267576
 20
18.0
 30
0.0
 11
-338.267576
 21
30.0
 31
0.0
  0
TEXT
  5
ECB2
  8
SIZE
  6
CONTINUOUS
 62
    30
 10
-363.267576
 20
49.17142842857143
 30
0.0
 40
64.0
  1
18
 50
90.0
 41
0.9
 72
     1
 11
-363.267576
 21
108.142857
 31
0.0
  0
POINT
  5
ECB3
  8
DEFPOINTS
  6
CONTINUOUS
 62
    30
 10
-167.0
 20
0.0
 30
0.0
  0
POINT
  5
ECB4
  8
DEFPOINTS
  6
CONTINUOUS
 62
    30
 10
-79.783041
 20
18.0
 30
0.0
  0
POINT
  5
ECB5
  8
DEFPOINTS
  6
CONTINUOUS
 62
    30
 10
-338.267576
 20
18.0
 30
0.0
  0
LINE
  5
ECB6
  8
SIZE
  6
CONTINUOUS
 62
    30
 10
-85.24922
 20
8.0
 30
0.0
 11
-472.759791
 21
8.0
 31
0.0
  0
LINE
  5
ECB7
  8
SIZE
  6
CONTINUOUS
 62
    30
 10
-74.74922
 20
28.0
 30
0.0
 11
-472.759791
 21
28.0
 31
0.0
  0
LINE
  5
ECB8
  8
SIZE
  6
CONTINUOUS
 62
    30
 10
-452.759791
 20
-4.0
 30
0.0
 11
-452.759791
 21
-16.0
 31
0.0
  0
LINE
  5
ECB9
  8
SIZE
  6
CONTINUOUS
 62
    30
 10
-452.759791
 20
40.0
 30
0.0
 11
-452.759791
 21
195.257143
 31
0.0
  0
LINE
  5
ECBA
  8
SIZE
  6
CONTINUOUS
 62
    30
 10
-452.759791
 20
8.0
 30
0.0
 11
-452.759791
 21
28.0
 31
0.0
  0
CIRCLE
  5
ECBB
  8
SIZE
  6
CONTINUOUS
 62
    30
 10
-452.759791
 20
8.0
 30
0.0
 40
6.0
  0
LINE
  5
ECBC
  8
SIZE
  6
CONTINUOUS
 62
    30
 10
-452.759791
 20
8.0
 30
0.0
 11
-452.759791
 21
-4.0
 31
0.0
  0
CIRCLE
  5
ECBD
  8
SIZE
  6
CONTINUOUS
 62
    30
 10
-452.759791
 20
28.0
 30
0.0
 40
6.0
  0
LINE
  5
ECBE
  8
SIZE
  6
CONTINUOUS
 62
    30
 10
-452.759791
 20
28.0
 30
0.0
 11
-452.759791
 21
40.0
 31
0.0
  0
TEXT
  5
ECBF
  8
SIZE
  6
CONTINUOUS
 62
    30
 10
-477.759791
 20
68.77142814285713
 30
0.0
 40
64.0
  1
20
 50
90.0
 41
0.9
 72
     1
 11
-477.759791
 21
123.628571
 31
0.0
  0
POINT
  5
ECC0
  8
DEFPOINTS
  6
CONTINUOUS
 62
    30
 10
-65.24922
 20
8.0
 30
0.0
  0
POINT
  5
ECC1
  8
DEFPOINTS
  6
CONTINUOUS
 62
    30
 10
-54.74922
 20
28.0
 30
0.0
  0
POINT
  5
ECC2
  8
DEFPOINTS
  6
CONTINUOUS
 62
    30
 10
-452.759791
 20
28.0
 30
0.0
  0
LINE
  5
ECC3
  8
SIZE
  6
CONTINUOUS
 62
    30
 10
187.0
 20
0.0
 30
0.0
 11
390.608512
 21
0.0
 31
0.0
  0
LINE
  5
ECC4
  8
SIZE
  6
CONTINUOUS
 62
    30
 10
240.0
 20
54.0
 30
0.0
 11
390.608512
 21
54.0
 31
0.0
  0
LINE
  5
ECC5
  8
SIZE
  6
CONTINUOUS
 62
    30
 10
370.608512
 20
66.0
 30
0.0
 11
370.608512
 21
78.0
 31
0.0
  0
LINE
  5
ECC6
  8
SIZE
  6
CONTINUOUS
 62
    30
 10
370.608512
 20
-12.0
 30
0.0
 11
370.608512
 21
-170.0
 31
0.0
  0
LINE
  5
ECC7
  8
SIZE
  6
CONTINUOUS
 62
    30
 10
370.608512
 20
54.0
 30
0.0
 11
370.608512
 21
0.0
 31
0.0
  0
CIRCLE
  5
ECC8
  8
SIZE
  6
CONTINUOUS
 62
    30
 10
370.608512
 20
54.0
 30
0.0
 40
6.0
  0
LINE
  5
ECC9
  8
SIZE
  6
CONTINUOUS
 62
    30
 10
370.608512
 20
54.0
 30
0.0
 11
370.608512
 21
66.0
 31
0.0
  0
CIRCLE
  5
ECCA
  8
SIZE
  6
CONTINUOUS
 62
    30
 10
370.608512
 20
0.0
 30
0.0
 40
6.0
  0
LINE
  5
ECCB
  8
SIZE
  6
CONTINUOUS
 62
    30
 10
370.608512
 20
0.0
 30
0.0
 11
370.608512
 21
-12.0
 31
0.0
  0
TEXT
  5
ECCC
  8
SIZE
  6
CONTINUOUS
 62
    30
 10
345.608512
 20
-153.2285714285714
 30
0.0
 40
64.0
  1
54
 50
90.0
 41
0.9
 72
     1
 11
345.608512
 21
-97.0
 31
0.0
  0
POINT
  5
ECCD
  8
DEFPOINTS
  6
CONTINUOUS
 62
    30
 10
167.0
 20
0.0
 30
0.0
  0
POINT
  5
ECCE
  8
DEFPOINTS
  6
CONTINUOUS
 62
    30
 10
220.0
 20
54.0
 30
0.0
  0
POINT
  5
ECCF
  8
DEFPOINTS
  6
CONTINUOUS
 62
    30
 10
370.608512
 20
54.0
 30
0.0
  0
TEXT
  5
ECD0
  8
ETC
  6
CONTINUOUS
 62
    61
 10
496.365382
 20
976.045735
 30
0.0
 40
64.0
  1
VD-18Z9_5
 41
0.9
  0
LINE
  5
ECD1
  8
SIZE
  6
CONTINUOUS
 62
    30
 10
99.0
 20
241.0
 30
0.0
 11
99.0
 21
359.913153
 31
0.0
  0
LINE
  5
ECD2
  8
SIZE
  6
CONTINUOUS
 62
    30
 10
0.0
 20
311.479483
 30
0.0
 11
0.0
 21
359.913153
 31
0.0
  0
LINE
  5
ECD3
  8
SIZE
  6
CONTINUOUS
 62
    30
 10
87.0
 20
339.913153
 30
0.0
 11
12.0
 21
339.913153
 31
0.0
  0
LINE
  5
ECD4
  8
SIZE
  6
CONTINUOUS
 62
    30
 10
0.0
 20
339.913153
 30
0.0
 11
-257.592716
 21
339.913153
 31
0.0
  0
CIRCLE
  5
ECD5
  8
SIZE
  6
CONTINUOUS
 62
    30
 10
99.0
 20
339.913153
 30
0.0
 40
6.0
  0
LINE
  5
ECD6
  8
SIZE
  6
CONTINUOUS
 62
    30
 10
99.0
 20
339.913153
 30
0.0
 11
87.0
 21
339.913153
 31
0.0
  0
CIRCLE
  5
ECD7
  8
SIZE
  6
CONTINUOUS
 62
    30
 10
0.0
 20
339.913153
 30
0.0
 40
6.0
  0
LINE
  5
ECD8
  8
SIZE
  6
CONTINUOUS
 62
    30
 10
0.0
 20
339.913153
 30
0.0
 11
12.0
 21
339.913153
 31
0.0
  0
TEXT
  5
ECD9
  8
SIZE
  6
CONTINUOUS
 62
    30
 10
-240.8212872857143
 20
364.913153
 30
0.0
 40
64.0
  1
99
 41
0.9
 72
     1
 11
-187.335573
 21
364.913153
 31
0.0
  0
POINT
  5
ECDA
  8
DEFPOINTS
  6
CONTINUOUS
 62
    30
 10
99.0
 20
221.0
 30
0.0
  0
POINT
  5
ECDB
  8
DEFPOINTS
  6
CONTINUOUS
 62
    30
 10
0.0
 20
291.479483
 30
0.0
  0
POINT
  5
ECDC
  8
DEFPOINTS
  6
CONTINUOUS
 62
    30
 10
0.0
 20
339.913153
 30
0.0
  0
LINE
  5
ECDD
  8
SIZE
  6
CONTINUOUS
 62
    30
 10
-146.0
 20
-40.0
 30
0.0
 11
-146.0
 21
-645.948416
 31
0.0
  0
LINE
  5
ECDE
  8
SIZE
  6
CONTINUOUS
 62
    30
 10
146.0
 20
-40.0
 30
0.0
 11
146.0
 21
-645.948416
 31
0.0
  0
LINE
  5
ECDF
  8
SIZE
  6
CONTINUOUS
 62
    30
 10
-134.0
 20
-625.948416
 30
0.0
 11
134.0
 21
-625.948416
 31
0.0
  0
CIRCLE
  5
ECE0
  8
SIZE
  6
CONTINUOUS
 62
    30
 10
-146.0
 20
-625.948416
 30
0.0
 40
6.0
  0
LINE
  5
ECE1
  8
SIZE
  6
CONTINUOUS
 62
    30
 10
-146.0
 20
-625.948416
 30
0.0
 11
-134.0
 21
-625.948416
 31
0.0
  0
CIRCLE
  5
ECE2
  8
SIZE
  6
CONTINUOUS
 62
    30
 10
146.0
 20
-625.948416
 30
0.0
 40
6.0
  0
LINE
  5
ECE3
  8
SIZE
  6
CONTINUOUS
 62
    30
 10
146.0
 20
-625.948416
 30
0.0
 11
134.0
 21
-625.948416
 31
0.0
  0
TEXT
  5
ECE4
  8
SIZE
  6
CONTINUOUS
 62
    30
 10
-82.28571428571429
 20
-600.948416
 30
0.0
 40
64.0
  1
292
 41
0.9
 72
     1
 11
-0.0000000000000056
 21
-600.948416
 31
0.0
  0
POINT
  5
ECE5
  8
DEFPOINTS
  6
CONTINUOUS
 62
    30
 10
-146.0
 20
-20.0
 30
0.0
  0
POINT
  5
ECE6
  8
DEFPOINTS
  6
CONTINUOUS
 62
    30
 10
146.0
 20
-20.0
 30
0.0
  0
POINT
  5
ECE7
  8
DEFPOINTS
  6
CONTINUOUS
 62
    30
 10
146.0
 20
-625.948416
 30
0.0
  0
ENDSEC
  0
EOF
