  0
SECTION
  2
HEADER
  9
$ACADVER
  1
AC1009
  9
$INSBASE
 10
0.0
 20
0.0
 30
0.0
  9
$EXTMIN
 10
-1328.288253301625
 20
-654.96825025762519
 30
-0.0015258207003583
  9
$EXTMAX
 10
1573.915112302537
 20
987.89978875766985
 30
0.0000000349246037
  9
$LIMMIN
 10
-2970.0
 20
-2100.0
  9
$LIMMAX
 10
2970.0
 20
2100.0
  9
$ORTHOMODE
 70
     1
  9
$REGENMODE
 70
     0
  9
$FILLMODE
 70
     1
  9
$QTEXTMODE
 70
     0
  9
$MIRRTEXT
 70
     0
  9
$DRAGMODE
 70
     2
  9
$LTSCALE
 40
20.0
  9
$OSMODE
 70
    32
  9
$ATTMODE
 70
     1
  9
$TEXTSIZE
 40
64.0
  9
$TRACEWID
 40
0.05
  9
$TEXTSTYLE
  7
STANDARD
  9
$CLAYER
  8
ETC
  9
$CELTYPE
  6
CONTINUOUS
  9
$CECOLOR
 62
   256
  9
$DIMSCALE
 40
1.0
  9
$DIMASZ
 40
12.0
  9
$DIMEXO
 40
20.0
  9
$DIMDLI
 40
200.0
  9
$DIMRND
 40
0.0
  9
$DIMDLE
 40
0.0
  9
$DIMEXE
 40
20.0
  9
$DIMTP
 40
0.0
  9
$DIMTM
 40
0.0
  9
$DIMTXT
 40
64.0
  9
$DIMCEN
 40
0.09
  9
$DIMTSZ
 40
0.0
  9
$DIMTOL
 70
     0
  9
$DIMLIM
 70
     0
  9
$DIMTIH
 70
     0
  9
$DIMTOH
 70
     0
  9
$DIMSE1
 70
     0
  9
$DIMSE2
 70
     0
  9
$DIMTAD
 70
     1
  9
$DIMZIN
 70
     8
  9
$DIMBLK
  1
DOT1
  9
$DIMASO
 70
     1
  9
$DIMSHO
 70
     0
  9
$DIMPOST
  1

  9
$DIMAPOST
  1

  9
$DIMALT
 70
     0
  9
$DIMALTD
 70
     2
  9
$DIMALTF
 40
25.399999999999999
  9
$DIMLFAC
 40
1.0
  9
$DIMTOFL
 70
     1
  9
$DIMTVP
 40
0.0
  9
$DIMTIX
 70
     1
  9
$DIMSOXD
 70
     0
  9
$DIMSAH
 70
     1
  9
$DIMBLK1
  1
ORIGIN
  9
$DIMBLK2
  1
ORIGIN
  9
$DIMSTYLE
  2
STANDARD
  9
$DIMCLRD
 70
     0
  9
$DIMCLRE
 70
     0
  9
$DIMCLRT
 70
     0
  9
$DIMTFAC
 40
1.0
  9
$DIMGAP
 40
0.09
  9
$LUNITS
 70
     2
  9
$LUPREC
 70
     4
  9
$SKETCHINC
 40
0.1
  9
$FILLETRAD
 40
4.0
  9
$AUNITS
 70
     1
  9
$AUPREC
 70
     3
  9
$MENU
  1
ACAD
  9
$ELEVATION
 40
0.0
  9
$PELEVATION
 40
0.0
  9
$THICKNESS
 40
50.0
  9
$LIMCHECK
 70
     0
  9
$BLIPMODE
 70
     0
  9
$CHAMFERA
 40
0.0
  9
$CHAMFERB
 40
0.0
  9
$SKPOLY
 70
     0
  9
$TDCREATE
 40
2452321.3961996529
  9
$TDUPDATE
 40
2454728.473789236
  9
$TDINDWG
 40
0.2576151157
  9
$TDUSRTIMER
 40
0.2576149306
  9
$USRTIMER
 70
     1
  9
$ANGBASE
 50
0.0
  9
$ANGDIR
 70
     0
  9
$PDMODE
 70
     3
  9
$PDSIZE
 40
-2.0
  9
$PLINEWID
 40
0.0
  9
$COORDS
 70
     1
  9
$SPLFRAME
 70
     0
  9
$SPLINETYPE
 70
     6
  9
$SPLINESEGS
 70
     8
  9
$ATTDIA
 70
     0
  9
$ATTREQ
 70
     1
  9
$HANDLING
 70
     1
  9
$HANDSEED
  5
91A
  9
$SURFTAB1
 70
     6
  9
$SURFTAB2
 70
     6
  9
$SURFTYPE
 70
     6
  9
$SURFU
 70
     6
  9
$SURFV
 70
     6
  9
$UCSNAME
  2

  9
$UCSORG
 10
0.0
 20
0.0
 30
0.0
  9
$UCSXDIR
 10
1.0
 20
0.0
 30
0.0
  9
$UCSYDIR
 10
0.0
 20
1.0
 30
0.0
  9
$PUCSNAME
  2

  9
$PUCSORG
 10
0.0
 20
0.0
 30
0.0
  9
$PUCSXDIR
 10
1.0
 20
0.0
 30
0.0
  9
$PUCSYDIR
 10
0.0
 20
1.0
 30
0.0
  9
$USERI1
 70
     0
  9
$USERI2
 70
     0
  9
$USERI3
 70
     0
  9
$USERI4
 70
     0
  9
$USERI5
 70
     0
  9
$USERR1
 40
20.0
  9
$USERR2
 40
0.0
  9
$USERR3
 40
0.0
  9
$USERR4
 40
0.0
  9
$USERR5
 40
0.0
  9
$WORLDVIEW
 70
     1
  9
$SHADEDGE
 70
     3
  9
$SHADEDIF
 70
    70
  9
$TILEMODE
 70
     1
  9
$MAXACTVP
 70
    48
  9
$PLIMCHECK
 70
     0
  9
$PEXTMIN
 10
1.0000000000000000E+020
 20
1.0000000000000000E+020
 30
1.0000000000000000E+020
  9
$PEXTMAX
 10
-1.0000000000000000E+020
 20
-1.0000000000000000E+020
 30
-1.0000000000000000E+020
  9
$PLIMMIN
 10
0.0
 20
0.0
  9
$PLIMMAX
 10
12.0
 20
9.0
  9
$UNITMODE
 70
     0
  9
$VISRETAIN
 70
     1
  9
$PLINEGEN
 70
     0
  9
$PSLTSCALE
 70
     1
  0
ENDSEC
  0
SECTION
  2
TABLES
  0
TABLE
  2
VPORT
 70
     1
  0
VPORT
  2
*ACTIVE
 70
     0
 10
0.0
 20
0.0
 11
1.0
 21
1.0
 12
240.7398167478687
 22
124.7582534537154
 13
0.0
 23
0.0
 14
1.0
 24
1.0
 15
0.0
 25
0.0
 16
0.0
 26
0.0
 36
1.0
 17
0.0
 27
0.0
 37
0.0
 40
1865.30195199741
 41
1.7517337031900131
 42
50.0
 43
0.0
 44
0.0
 50
0.0
 51
0.0
 71
     0
 72
   100
 73
     1
 74
     0
 75
     0
 76
     0
 77
     0
 78
     0
  0
ENDTAB
  0
TABLE
  2
LTYPE
 70
     3
  0
LTYPE
  2
CONTINUOUS
 70
     0
  3
Ä└É³
 72
    65
 73
     0
 40
0.0
  0
LTYPE
  2
DASHDOT
 70
     0
  3
____ _ ____ _ ____ _ ____ _ ____ _ ____ _ ____
 72
    65
 73
     4
 40
5.5
 49
4.0
 49
-0.6
 49
0.3
 49
-0.6
  0
ENDTAB
  0
TABLE
  2
LAYER
 70
    12
  0
LAYER
  2
0
 70
     0
 62
     7
  6
CONTINUOUS
  0
LAYER
  2
SIZE
 70
     0
 62
    30
  6
CONTINUOUS
  0
LAYER
  2
BASIS
 70
     0
 62
     6
  6
DASHDOT
  0
LAYER
  2
OUTLINE
 70
     0
 62
     3
  6
CONTINUOUS
  0
LAYER
  2
DETAIL
 70
     0
 62
     5
  6
CONTINUOUS
  0
LAYER
  2
ARRANGE
 70
     0
 62
     1
  6
CONTINUOUS
  0
LAYER
  2
DEFPOINTS
 70
     0
 62
     7
  6
CONTINUOUS
  0
LAYER
  2
ETC
 70
     0
 62
    61
  6
CONTINUOUS
  0
LAYER
  2
FIX
 70
     0
 62
    11
  6
CONTINUOUS
  0
LAYER
  2
NOTE
 70
     0
 62
     4
  6
CONTINUOUS
  0
LAYER
  2
SERVICESPACE
 70
     0
 62
     2
  6
DASHDOT
  0
LAYER
  2
SYMBOLLINE
 70
     0
 62
    15
  6
CONTINUOUS
  0
ENDTAB
  0
TABLE
  2
STYLE
 70
     2
  0
STYLE
  2
STANDARD
 70
     0
 40
64.0
 41
0.9
 50
0.0
 71
     0
 42
64.0
  3
SIMPLEX.shx
  4
BIGFONT.shx
  0
STYLE
  2
ANNOTATIVE
 70
     0
 40
0.0
 41
1.0
 50
0.0
 71
     0
 42
0.2
  3
txt
  4

  0
ENDTAB
  0
TABLE
  2
VIEW
 70
     1
  0
VIEW
  2
ALL
 70
     0
 40
4282.6198079999967
 10
0.0
 20
41.309903999999989
 41
5940.0
 11
0.0
 21
0.0
 31
1.0
 12
0.0
 22
0.0
 32
0.0
 42
50.0
 43
0.0
 44
0.0
 50
0.0
 71
     0
  0
ENDTAB
  0
TABLE
  2
UCS
 70
     0
  0
ENDTAB
  0
TABLE
  2
APPID
 70
     4
  0
APPID
  2
ACAD
 70
     0
  0
APPID
  2
ACADANNOTATIVE
 70
     0
  0
APPID
  2
ACAD_MLEADERVER
 70
     0
  0
APPID
  2
ACAD_EXEMPT_FROM_CAD_STANDARDS
 70
     0
  0
ENDTAB
  0
TABLE
  2
DIMSTYLE
 70
     2
  0
DIMSTYLE
  2
STANDARD
 70
     0
  3

  4

  5

  6

  7

 40
1.0
 41
0.18
 42
0.0625
 43
0.38
 44
0.18
 45
0.0
 46
0.0
 47
0.0
 48
0.0
140
0.18
141
0.09
142
0.0
143
25.399999999999999
144
1.0
145
0.0
146
1.0
147
0.09
 71
     0
 72
     0
 73
     1
 74
     1
 75
     0
 76
     0
 77
     0
 78
     0
170
     0
171
     2
172
     0
173
     0
174
     0
175
     0
176
     0
177
     0
178
     0
  0
DIMSTYLE
  2
ANNOTATIVE
 70
     0
  3

  4

  5

  6

  7

 40
1.0
 41
0.18
 42
0.0625
 43
0.38
 44
0.18
 45
0.0
 46
0.0
 47
0.0
 48
0.0
140
0.18
141
0.09
142
0.0
143
25.399999999999999
144
1.0
145
0.0
146
1.0
147
0.09
 71
     0
 72
     0
 73
     1
 74
     1
 75
     0
 76
     0
 77
     0
 78
     0
170
     0
171
     2
172
     0
173
     0
174
     0
175
     0
176
     0
177
     0
178
     0
  0
ENDTAB
  0
ENDSEC
  0
SECTION
  2
BLOCKS
  0
BLOCK
  8
0
  2
$MODEL_SPACE
 70
     0
 10
0.0
 20
0.0
 30
0.0
  3
$MODEL_SPACE
  1

  0
ENDBLK
  5
8C2
  8
0
  0
BLOCK
 67
     1
  8
0
  2
$PAPER_SPACE
 70
     0
 10
0.0
 20
0.0
 30
0.0
  3
$PAPER_SPACE
  1

  0
ENDBLK
  5
8BE
 67
     1
  8
0
  0
BLOCK
  8
0
  2
DOT1
 70
     0
 10
0.0
 20
0.0
 30
0.0
  3
DOT1
  1

  0
CIRCLE
  5
58D
  8
SIZE
  6
CONTINUOUS
 62
     7
 10
0.0
 20
0.0
 30
0.0
 40
3.0
  0
ENDBLK
  5
58E
  8
0
  0
BLOCK
  8
0
  2
_ORIGIN
 70
     0
 10
0.0
 20
0.0
 30
0.0
  3
_ORIGIN
  1

  0
CIRCLE
  5
591
  8
0
  6
CONTINUOUS
 62
     7
 10
0.0
 20
0.0
 30
0.0
 40
0.5
  0
LINE
  5
592
  8
0
  6
CONTINUOUS
 62
     7
 10
0.0
 20
0.0
 30
0.0
 11
-1.0
 21
0.0
 31
0.0
  0
ENDBLK
  5
593
  8
0
  0
ENDSEC
  0
SECTION
  2
ENTITIES
  0
LINE
  5
594
  8
BASIS
  6
DASHDOT
 62
     6
 10
0.0
 20
-97.81752400000002
 30
0.0
 11
0.0
 21
293.87911200000002
 31
0.0
  0
LINE
  5
595
  8
BASIS
  6
DASHDOT
 62
     6
 10
-2.0
 20
173.87266099999999
 30
0.0
 11
-2.0
 21
265.88841500000001
 31
0.0
  0
LINE
  5
596
  8
DETAIL
  6
CONTINUOUS
 62
     5
 10
-60.0
 20
208.0
 30
0.0
 11
56.0
 21
208.0
 31
0.0
  0
LINE
  5
597
  8
DETAIL
  6
CONTINUOUS
 62
     5
 10
153.5
 20
0.0
 30
0.0
 11
153.5
 21
43.0
 31
0.0
  0
LINE
  5
598
  8
DETAIL
  6
CONTINUOUS
 62
     5
 10
-153.5
 20
0.0
 30
0.0
 11
-153.5
 21
200.0
 31
0.0
  0
ARC
  5
599
  8
DETAIL
  6
CONTINUOUS
 62
     5
 10
-37.939999999999998
 20
233.34
 30
0.0
 40
5.060001999999999
 50
90.0
 51
179.999999
  0
LINE
  5
59A
  8
DETAIL
  6
CONTINUOUS
 62
     5
 10
-43.0
 20
208.0
 30
0.0
 11
-43.0
 21
233.34
 31
0.0
  0
LINE
  5
59B
  8
DETAIL
  6
CONTINUOUS
 62
     5
 10
28.63747
 20
238.3999859999999
 30
0.0
 11
27.468962000000001
 21
240.42388799999981
 31
0.0
  0
LINE
  5
59C
  8
DETAIL
  6
CONTINUOUS
 62
     5
 10
-2.0
 20
240.42390199999991
 30
0.0
 11
27.468952999999999
 21
240.42390199999991
 31
0.0
  0
LINE
  5
59D
  8
DETAIL
  6
CONTINUOUS
 62
     5
 10
33.939999999999998
 20
238.3999859999999
 30
0.0
 11
-2.0
 21
238.3999859999999
 31
0.0
  0
ARC
  5
59E
  8
DETAIL
  6
CONTINUOUS
 62
     5
 10
33.939999999999998
 20
233.34
 30
0.0
 40
5.060001999999999
 50
0.000001
 51
90.0
  0
LINE
  5
59F
  8
DETAIL
  6
CONTINUOUS
 62
     5
 10
39.0
 20
208.0
 30
0.0
 11
39.0
 21
233.34421399999991
 31
0.0
  0
LINE
  5
5A0
  8
DETAIL
  6
CONTINUOUS
 62
     5
 10
20.079999999999998
 20
238.3999859999999
 30
0.0
 11
-2.0
 21
238.3999859999999
 31
0.0
  0
LINE
  5
5A1
  8
DETAIL
  6
CONTINUOUS
 62
     5
 10
-2.0
 20
240.42390199999991
 30
0.0
 11
20.079999999999998
 21
240.42390199999991
 31
0.0
  0
LINE
  5
5A2
  8
DETAIL
  6
CONTINUOUS
 62
     5
 10
4.6722339999999987
 20
241.42907099999991
 30
0.0
 11
4.8208209999999987
 21
240.42390199999991
 31
0.0
  0
LINE
  5
5A3
  8
DETAIL
  6
CONTINUOUS
 62
     5
 10
2.852011999999998
 20
243.0
 30
0.0
 11
-2.0
 21
243.0
 31
0.0
  0
ARC
  5
5A4
  8
DETAIL
  6
CONTINUOUS
 62
     5
 10
2.852011999999998
 20
241.15998599999989
 30
0.0
 40
1.8400009999999991
 50
8.4091109999999976
 51
90.0
  0
ARC
  5
5A5
  8
DETAIL
  6
CONTINUOUS
 62
     5
 10
-6.8520119999999993
 20
241.15998599999989
 30
0.0
 40
1.8400009999999991
 50
90.0
 51
171.59088899999981
  0
LINE
  5
5A6
  8
DETAIL
  6
CONTINUOUS
 62
     5
 10
-6.8520119999999993
 20
243.0
 30
0.0
 11
-2.0
 21
243.0
 31
0.0
  0
LINE
  5
5A7
  8
DETAIL
  6
CONTINUOUS
 62
     5
 10
-8.672233999999996
 20
241.42907099999991
 30
0.0
 11
-8.8208210000000005
 21
240.42390199999991
 31
0.0
  0
LINE
  5
5A8
  8
DETAIL
  6
CONTINUOUS
 62
     5
 10
-2.0
 20
240.42390199999991
 30
0.0
 11
-31.468952999999999
 21
240.42390199999991
 31
0.0
  0
LINE
  5
5A9
  8
DETAIL
  6
CONTINUOUS
 62
     5
 10
-37.939999999999998
 20
238.3999859999999
 30
0.0
 11
-2.0
 21
238.3999859999999
 31
0.0
  0
LINE
  5
5AA
  8
DETAIL
  6
CONTINUOUS
 62
     5
 10
-32.63747
 20
238.3999859999999
 30
0.0
 11
-31.468962000000001
 21
240.42388799999981
 31
0.0
  0
CIRCLE
  5
5AB
  8
FIX
  6
CONTINUOUS
 62
    11
 10
-100.0
 20
0.0
 30
0.0
 40
2.5
  0
LINE
  5
5AC
  8
NOTE
  6
CONTINUOUS
 62
     4
 10
-100.0
 20
-20.0
 30
0.0
 11
-100.0
 21
20.0
 31
0.0
  0
LINE
  5
5AD
  8
NOTE
  6
CONTINUOUS
 62
     4
 10
-80.0
 20
0.0
 30
0.0
 11
-120.0
 21
0.0
 31
0.0
  0
CIRCLE
  5
5AE
  8
FIX
  6
CONTINUOUS
 62
    11
 10
-166.0
 20
0.0
 30
0.0
 40
2.5
  0
LINE
  5
5AF
  8
NOTE
  6
CONTINUOUS
 62
     4
 10
-166.0
 20
-20.0
 30
0.0
 11
-166.0
 21
20.0
 31
0.0
  0
LINE
  5
5B0
  8
NOTE
  6
CONTINUOUS
 62
     4
 10
-146.0
 20
0.0
 30
0.0
 11
-186.0
 21
0.0
 31
0.0
  0
LINE
  5
5B1
  8
DETAIL
  6
CONTINUOUS
 62
     5
 10
-153.5
 20
200.0
 30
0.0
 11
-125.0
 21
200.0
 31
0.0
  0
TEXT
  5
5B2
  8
NOTE
  6
CONTINUOUS
 62
     4
 10
-638.54991299999995
 20
-152.76155600000001
 30
0.0
 40
64.0
  1
8-âË5ü~8
 41
0.9
  0
LINE
  5
5B3
  8
NOTE
  6
CONTINUOUS
 62
     4
 10
-363.09238900000003
 20
409.59560399999992
 30
0.0
 11
-1328.1610000000001
 21
409.59560399999992
 31
0.0
  0
LINE
  5
5B4
  8
NOTE
  6
CONTINUOUS
 62
     4
 10
-277.2510299999999
 20
-185.72582700000001
 30
0.0
 11
-668.04225599999995
 21
-185.72582700000001
 31
0.0
  0
LINE
  5
5B5
  8
NOTE
  6
CONTINUOUS
 62
     4
 10
-166.01228899999981
 20
-0.052601
 30
0.0
 11
-277.2510299999999
 21
-185.72582700000001
 31
0.0
  0
LINE
  5
5B6
  8
NOTE
  6
CONTINUOUS
 62
     4
 10
-177.5064099999999
 20
-38.309221000000001
 30
0.0
 11
-166.00336299999981
 21
0.00109
 31
0.0
  0
LINE
  5
5B7
  8
NOTE
  6
CONTINUOUS
 62
     4
 10
-166.00336299999981
 20
0.00109
 30
0.0
 11
-195.12045000000001
 21
-27.425089
 31
0.0
  0
TEXT
  5
5B8
  8
NOTE
  6
CONTINUOUS
 62
     4
 10
-1314.6369999999999
 20
454.20548899999989
 30
0.0
 40
64.0
  1
AH 4-âË15ü~22(4ô_Æ¦éÞ)
 41
0.9
  0
LINE
  5
5B9
  8
DETAIL
  6
CONTINUOUS
 62
     5
 10
-153.5
 20
192.0
 30
0.0
 11
-125.0
 21
192.0
 31
0.0
  0
LINE
  5
5BA
  8
DETAIL
  6
CONTINUOUS
 62
     5
 10
-60.0
 20
208.0
 30
0.0
 11
-66.394959999999998
 21
200.0
 31
0.0
  0
LINE
  5
5BB
  8
DETAIL
  6
CONTINUOUS
 62
     5
 10
-43.0
 20
213.0
 30
0.0
 11
39.0
 21
213.0
 31
0.0
  0
LINE
  5
5BC
  8
NOTE
  6
CONTINUOUS
 62
     4
 10
100.0
 20
-20.0
 30
0.0
 11
100.0
 21
20.0
 31
0.0
  0
LINE
  5
5BD
  8
NOTE
  6
CONTINUOUS
 62
     4
 10
80.0
 20
0.0
 30
0.0
 11
120.0
 21
0.0
 31
0.0
  0
CIRCLE
  5
5BE
  8
FIX
  6
CONTINUOUS
 62
    11
 10
100.0
 20
0.0
 30
0.0
 40
2.5
  0
LINE
  5
5BF
  8
NOTE
  6
CONTINUOUS
 62
     4
 10
166.0
 20
-20.0
 30
0.0
 11
166.0
 21
20.0
 31
0.0
  0
LINE
  5
5C0
  8
NOTE
  6
CONTINUOUS
 62
     4
 10
146.0
 20
0.0
 30
0.0
 11
186.0
 21
0.0
 31
0.0
  0
CIRCLE
  5
5C1
  8
FIX
  6
CONTINUOUS
 62
    11
 10
166.0
 20
0.0
 30
0.0
 40
2.5
  0
LINE
  5
5C2
  8
SIZE
  6
CONTINUOUS
 62
    30
 10
-100.0
 20
-40.0
 30
0.0
 11
-100.0
 21
-282.143306
 31
0.0
  0
LINE
  5
5C3
  8
SIZE
  6
CONTINUOUS
 62
    30
 10
100.0
 20
-40.0
 30
0.0
 11
100.0
 21
-282.143306
 31
0.0
  0
LINE
  5
5C4
  8
SIZE
  6
CONTINUOUS
 62
    30
 10
-88.0
 20
-262.143306
 30
0.0
 11
88.0
 21
-262.143306
 31
0.0
  0
CIRCLE
  5
5C5
  8
SIZE
  6
CONTINUOUS
 62
    30
 10
-100.0
 20
-262.143306
 30
0.0
 40
6.0
  0
LINE
  5
5C6
  8
SIZE
  6
CONTINUOUS
 62
    30
 10
-100.0
 20
-262.143306
 30
0.0
 11
-88.0
 21
-262.143306
 31
0.0
  0
CIRCLE
  5
5C7
  8
SIZE
  6
CONTINUOUS
 62
    30
 10
100.0
 20
-262.143306
 30
0.0
 40
6.0
  0
LINE
  5
5C8
  8
SIZE
  6
CONTINUOUS
 62
    30
 10
100.0
 20
-262.143306
 30
0.0
 11
88.0
 21
-262.143306
 31
0.0
  0
TEXT
  5
5C9
  8
SIZE
  6
CONTINUOUS
 62
    30
 10
-74.05714285714285
 20
-237.143306
 30
0.0
 40
64.0
  1
200
 41
0.9
 72
     1
 11
0.0
 21
-237.143306
 31
0.0
  0
LINE
  5
5CA
  8
SIZE
  6
CONTINUOUS
 62
    30
 10
-166.0
 20
-40.0
 30
0.0
 11
-166.0
 21
-406.80688500000002
 31
0.0
  0
LINE
  5
5CB
  8
SIZE
  6
CONTINUOUS
 62
    30
 10
166.0
 20
-40.0
 30
0.0
 11
166.0
 21
-406.80688500000002
 31
0.0
  0
LINE
  5
5CC
  8
SIZE
  6
CONTINUOUS
 62
    30
 10
-154.0
 20
-386.80688500000002
 30
0.0
 11
154.0
 21
-386.80688500000002
 31
0.0
  0
CIRCLE
  5
5CD
  8
SIZE
  6
CONTINUOUS
 62
    30
 10
-166.0
 20
-386.80688500000002
 30
0.0
 40
6.0
  0
LINE
  5
5CE
  8
SIZE
  6
CONTINUOUS
 62
    30
 10
-166.0
 20
-386.80688500000002
 30
0.0
 11
-154.0
 21
-386.80688500000002
 31
0.0
  0
CIRCLE
  5
5CF
  8
SIZE
  6
CONTINUOUS
 62
    30
 10
166.0
 20
-386.80688500000002
 30
0.0
 40
6.0
  0
LINE
  5
5D0
  8
SIZE
  6
CONTINUOUS
 62
    30
 10
166.0
 20
-386.80688500000002
 30
0.0
 11
154.0
 21
-386.80688500000002
 31
0.0
  0
TEXT
  5
5D1
  8
SIZE
  6
CONTINUOUS
 62
    30
 10
-74.05714285714285
 20
-361.80688500000002
 30
0.0
 40
64.0
  1
332
 41
0.9
 72
     1
 11
0.0
 21
-361.80688500000002
 31
0.0
  0
LINE
  5
5D2
  8
DETAIL
  6
CONTINUOUS
 62
     5
 10
153.5
 20
0.0
 30
0.0
 11
153.5
 21
208.0
 31
0.0
  0
LINE
  5
5D3
  8
DETAIL
  6
CONTINUOUS
 62
     5
 10
56.0
 20
208.0
 30
0.0
 11
62.39495999999999
 21
200.0
 31
0.0
  0
LINE
  5
5D4
  8
SIZE
  6
CONTINUOUS
 62
    30
 10
-210.0
 20
0.0
 30
0.0
 11
-631.21004400000004
 21
0.0
 31
0.0
  0
LINE
  5
5D5
  8
SIZE
  6
CONTINUOUS
 62
    30
 10
-173.5
 20
200.0
 30
0.0
 11
-631.21004400000004
 21
200.0
 31
0.0
  0
LINE
  5
5D6
  8
SIZE
  6
CONTINUOUS
 62
    30
 10
-611.21004400000004
 20
12.0
 30
0.0
 11
-611.21004400000004
 21
188.0
 31
0.0
  0
CIRCLE
  5
5D7
  8
SIZE
  6
CONTINUOUS
 62
    30
 10
-611.21004400000004
 20
0.0
 30
0.0
 40
6.0
  0
LINE
  5
5D8
  8
SIZE
  6
CONTINUOUS
 62
    30
 10
-611.21004400000004
 20
0.0
 30
0.0
 11
-611.21004400000004
 21
12.0
 31
0.0
  0
CIRCLE
  5
5D9
  8
SIZE
  6
CONTINUOUS
 62
    30
 10
-611.21004400000004
 20
200.0
 30
0.0
 40
6.0
  0
LINE
  5
5DA
  8
SIZE
  6
CONTINUOUS
 62
    30
 10
-611.21004400000004
 20
200.0
 30
0.0
 11
-611.21004400000004
 21
188.0
 31
0.0
  0
TEXT
  5
5DB
  8
SIZE
  6
CONTINUOUS
 62
    30
 10
-636.21004400000004
 20
25.94285714285715
 30
0.0
 40
64.0
  1
200
 50
90.0
 41
0.9
 72
     1
 11
-636.21004400000004
 21
100.0
 31
0.0
  0
LINE
  5
5DC
  8
SIZE
  6
CONTINUOUS
 62
    30
 10
-170.0
 20
200.0
 30
0.0
 11
-631.21004400000004
 21
200.0
 31
0.0
  0
LINE
  5
5DD
  8
SIZE
  6
CONTINUOUS
 62
    30
 10
-101.0
 20
208.0
 30
0.0
 11
-631.21004400000004
 21
208.0
 31
0.0
  0
LINE
  5
5DE
  8
SIZE
  6
CONTINUOUS
 62
    30
 10
-611.21004400000004
 20
188.0
 30
0.0
 11
-611.21004400000004
 21
176.0
 31
0.0
  0
LINE
  5
5DF
  8
SIZE
  6
CONTINUOUS
 62
    30
 10
-611.21004400000004
 20
220.0
 30
0.0
 11
-611.21004400000004
 21
320.39999999999992
 31
0.0
  0
LINE
  5
5E0
  8
SIZE
  6
CONTINUOUS
 62
    30
 10
-611.21004400000004
 20
200.0
 30
0.0
 11
-611.21004400000004
 21
208.0
 31
0.0
  0
CIRCLE
  5
5E1
  8
SIZE
  6
CONTINUOUS
 62
    30
 10
-611.21004400000004
 20
200.0
 30
0.0
 40
6.0
  0
LINE
  5
5E2
  8
SIZE
  6
CONTINUOUS
 62
    30
 10
-611.21004400000004
 20
200.0
 30
0.0
 11
-611.21004400000004
 21
188.0
 31
0.0
  0
CIRCLE
  5
5E3
  8
SIZE
  6
CONTINUOUS
 62
    30
 10
-611.21004400000004
 20
208.0
 30
0.0
 40
6.0
  0
LINE
  5
5E4
  8
SIZE
  6
CONTINUOUS
 62
    30
 10
-611.21004400000004
 20
208.0
 30
0.0
 11
-611.21004400000004
 21
220.0
 31
0.0
  0
TEXT
  5
5E5
  8
SIZE
  6
CONTINUOUS
 62
    30
 10
-636.21004400000004
 20
257.0
 30
0.0
 40
64.0
  1
8
 50
90.0
 41
0.9
 72
     1
 11
-636.21004400000004
 21
276.19999999999999
 31
0.0
  0
LINE
  5
5E6
  8
DETAIL
  6
CONTINUOUS
 62
     5
 10
-125.0
 20
7.0
 30
0.0
 11
-75.0
 21
7.0
 31
0.0
  0
LINE
  5
5E7
  8
DETAIL
  6
CONTINUOUS
 62
     5
 10
-125.0
 20
208.0
 30
0.0
 11
-75.0
 21
208.0
 31
0.0
  0
LINE
  5
5E8
  8
DETAIL
  6
CONTINUOUS
 62
     5
 10
-125.0
 20
208.0
 30
0.0
 11
-75.0
 21
208.0
 31
0.0
  0
LINE
  5
5E9
  8
DETAIL
  6
CONTINUOUS
 62
     5
 10
-75.0
 20
7.0
 30
0.0
 11
-75.0
 21
208.0
 31
0.0
  0
LINE
  5
5EA
  8
DETAIL
  6
CONTINUOUS
 62
     5
 10
-125.0
 20
7.0
 30
0.0
 11
-125.0
 21
208.0
 31
0.0
  0
LINE
  5
5EB
  8
DETAIL
  6
CONTINUOUS
 62
     5
 10
-125.0
 20
204.49999999999989
 30
0.0
 11
-75.0
 21
204.49999999999989
 31
0.0
  0
LINE
  5
5EC
  8
DETAIL
  6
CONTINUOUS
 62
     5
 10
125.0
 20
204.49999999999989
 30
0.0
 11
75.0
 21
204.49999999999989
 31
0.0
  0
LINE
  5
5ED
  8
DETAIL
  6
CONTINUOUS
 62
     5
 10
125.0
 20
7.0
 30
0.0
 11
125.0
 21
208.0
 31
0.0
  0
LINE
  5
5EE
  8
DETAIL
  6
CONTINUOUS
 62
     5
 10
75.0
 20
7.0
 30
0.0
 11
75.0
 21
208.0
 31
0.0
  0
LINE
  5
5EF
  8
DETAIL
  6
CONTINUOUS
 62
     5
 10
125.0
 20
208.0
 30
0.0
 11
75.0
 21
208.0
 31
0.0
  0
LINE
  5
5F0
  8
DETAIL
  6
CONTINUOUS
 62
     5
 10
125.0
 20
208.0
 30
0.0
 11
75.0
 21
208.0
 31
0.0
  0
LINE
  5
5F1
  8
DETAIL
  6
CONTINUOUS
 62
     5
 10
125.0
 20
7.0
 30
0.0
 11
75.0
 21
7.0
 31
0.0
  0
LINE
  5
5F2
  8
DETAIL
  6
CONTINUOUS
 62
     5
 10
153.5
 20
0.0
 30
0.0
 11
153.5
 21
229.0
 31
0.0
  0
LINE
  5
5F3
  8
DETAIL
  6
CONTINUOUS
 62
     5
 10
155.25
 20
229.0
 30
0.0
 11
155.25
 21
0.0
 31
0.0
  0
LINE
  5
5F4
  8
DETAIL
  6
CONTINUOUS
 62
     5
 10
158.75
 20
55.0
 30
0.0
 11
158.75
 21
0.0
 31
0.0
  0
LINE
  5
5F5
  8
DETAIL
  6
CONTINUOUS
 62
     5
 10
158.75
 20
229.0
 30
0.0
 11
153.5
 21
229.0
 31
0.0
  0
LINE
  5
5F6
  8
DETAIL
  6
CONTINUOUS
 62
     5
 10
158.75
 20
229.0
 30
0.0
 11
158.75
 21
215.0
 31
0.0
  0
LINE
  5
5F7
  8
DETAIL
  6
CONTINUOUS
 62
     5
 10
238.5
 20
55.0
 30
0.0
 11
238.5
 21
215.0
 31
0.0
  0
LINE
  5
5F8
  8
DETAIL
  6
CONTINUOUS
 62
     5
 10
268.5
 20
59.0
 30
0.0
 11
268.5
 21
211.0
 31
0.0
  0
LINE
  5
5F9
  8
DETAIL
  6
CONTINUOUS
 62
     5
 10
268.5
 20
211.0
 30
0.0
 11
238.5
 21
211.0
 31
0.0
  0
LINE
  5
5FA
  8
DETAIL
  6
CONTINUOUS
 62
     5
 10
268.5
 20
59.0
 30
0.0
 11
238.5
 21
59.0
 31
0.0
  0
LINE
  5
5FB
  8
DETAIL
  6
CONTINUOUS
 62
     5
 10
295.5
 20
63.0
 30
0.0
 11
268.5
 21
63.0
 31
0.0
  0
LINE
  5
5FC
  8
DETAIL
  6
CONTINUOUS
 62
     5
 10
295.5
 20
207.0
 30
0.0
 11
268.5
 21
207.0
 31
0.0
  0
LINE
  5
5FD
  8
DETAIL
  6
CONTINUOUS
 62
     5
 10
238.5
 20
55.0
 30
0.0
 11
153.5
 21
55.0
 31
0.0
  0
LINE
  5
5FE
  8
DETAIL
  6
CONTINUOUS
 62
     5
 10
238.5
 20
215.0
 30
0.0
 11
155.25
 21
215.0
 31
0.0
  0
LINE
  5
5FF
  8
DETAIL
  6
CONTINUOUS
 62
     5
 10
153.5
 20
0.0
 30
0.0
 11
153.5
 21
200.0
 31
0.0
  0
LINE
  5
600
  8
BASIS
  6
DASHDOT
 62
     6
 10
327.26425699999982
 20
135.0
 30
0.0
 11
130.216452
 21
135.0
 31
0.0
  0
LINE
  5
601
  8
NOTE
  6
CONTINUOUS
 62
     4
 10
-100.0
 20
188.0
 30
0.0
 11
-100.0
 21
228.0
 31
0.0
  0
LINE
  5
602
  8
NOTE
  6
CONTINUOUS
 62
     4
 10
-80.0
 20
208.0
 30
0.0
 11
-120.0
 21
208.0
 31
0.0
  0
CIRCLE
  5
603
  8
FIX
  6
CONTINUOUS
 62
    11
 10
-100.0
 20
208.0
 30
0.0
 40
7.5
  0
LINE
  5
604
  8
DETAIL
  6
CONTINUOUS
 62
     5
 10
-75.0
 20
192.0
 30
0.0
 11
75.0
 21
192.0
 31
0.0
  0
LINE
  5
605
  8
DETAIL
  6
CONTINUOUS
 62
     5
 10
-75.0
 20
200.0
 30
0.0
 11
75.0
 21
200.0
 31
0.0
  0
LINE
  5
606
  8
DETAIL
  6
CONTINUOUS
 62
     5
 10
125.0
 20
200.0
 30
0.0
 11
153.5
 21
200.0
 31
0.0
  0
LINE
  5
607
  8
DETAIL
  6
CONTINUOUS
 62
     5
 10
125.0
 20
192.0
 30
0.0
 11
153.5
 21
192.0
 31
0.0
  0
LINE
  5
608
  8
NOTE
  6
CONTINUOUS
 62
     4
 10
100.0
 20
188.0
 30
0.0
 11
100.0
 21
228.0
 31
0.0
  0
LINE
  5
609
  8
NOTE
  6
CONTINUOUS
 62
     4
 10
80.0
 20
208.0
 30
0.0
 11
120.0
 21
208.0
 31
0.0
  0
CIRCLE
  5
60A
  8
FIX
  6
CONTINUOUS
 62
    11
 10
100.0
 20
208.0
 30
0.0
 40
7.5
  0
LINE
  5
60B
  8
SIZE
  6
CONTINUOUS
 62
    30
 10
-210.0
 20
0.0
 30
0.0
 11
-756.60657100000003
 21
0.0
 31
0.0
  0
LINE
  5
60C
  8
SIZE
  6
CONTINUOUS
 62
    30
 10
-22.0
 20
243.0
 30
0.0
 11
-756.60657100000003
 21
243.0
 31
0.0
  0
LINE
  5
60D
  8
SIZE
  6
CONTINUOUS
 62
    30
 10
-736.60657100000003
 20
12.0
 30
0.0
 11
-736.60657100000003
 21
231.0
 31
0.0
  0
CIRCLE
  5
60E
  8
SIZE
  6
CONTINUOUS
 62
    30
 10
-736.60657100000003
 20
0.0
 30
0.0
 40
6.0
  0
LINE
  5
60F
  8
SIZE
  6
CONTINUOUS
 62
    30
 10
-736.60657100000003
 20
0.0
 30
0.0
 11
-736.60657100000003
 21
12.0
 31
0.0
  0
CIRCLE
  5
610
  8
SIZE
  6
CONTINUOUS
 62
    30
 10
-736.60657100000003
 20
243.0
 30
0.0
 40
6.0
  0
LINE
  5
611
  8
SIZE
  6
CONTINUOUS
 62
    30
 10
-736.60657100000003
 20
243.0
 30
0.0
 11
-736.60657100000003
 21
231.0
 31
0.0
  0
TEXT
  5
612
  8
SIZE
  6
CONTINUOUS
 62
    30
 10
-761.60657100000003
 20
47.44285714285715
 30
0.0
 40
64.0
  1
243
 50
90.0
 41
0.9
 72
     1
 11
-761.60657100000003
 21
121.5
 31
0.0
  0
LINE
  5
613
  8
SIZE
  6
CONTINUOUS
 62
    30
 10
210.0
 20
0.0
 30
0.0
 11
1068.1880000000001
 21
0.0
 31
0.0
  0
LINE
  5
614
  8
SIZE
  6
CONTINUOUS
 62
    30
 10
178.75
 20
229.0
 30
0.0
 11
1068.1880000000001
 21
229.0
 31
0.0
  0
LINE
  5
615
  8
SIZE
  6
CONTINUOUS
 62
    30
 10
1048.1880000000001
 20
12.0
 30
0.0
 11
1048.1880000000001
 21
217.0
 31
0.0
  0
CIRCLE
  5
616
  8
SIZE
  6
CONTINUOUS
 62
    30
 10
1048.1880000000001
 20
0.0
 30
0.0
 40
6.0
  0
LINE
  5
617
  8
SIZE
  6
CONTINUOUS
 62
    30
 10
1048.1880000000001
 20
0.0
 30
0.0
 11
1048.1880000000001
 21
12.0
 31
0.0
  0
CIRCLE
  5
618
  8
SIZE
  6
CONTINUOUS
 62
    30
 10
1048.1880000000001
 20
229.0
 30
0.0
 40
6.0
  0
LINE
  5
619
  8
SIZE
  6
CONTINUOUS
 62
    30
 10
1048.1880000000001
 20
229.0
 30
0.0
 11
1048.1880000000001
 21
217.0
 31
0.0
  0
TEXT
  5
61A
  8
SIZE
  6
CONTINUOUS
 62
    30
 10
1023.187999999999
 20
40.81428571428571
 30
0.0
 40
64.0
  1
229
 50
90.0
 41
0.9
 72
     1
 11
1023.187999999999
 21
113.5
 31
0.0
  0
TEXT
  5
61B
  8
NOTE
  6
CONTINUOUS
 62
     4
 10
361.60746899999998
 20
83.469680000000025
 30
0.0
 40
64.0
  1
EA
 41
0.9
  0
LINE
  5
61C
  8
SIZE
  6
CONTINUOUS
 62
    30
 10
258.49999999999989
 20
55.0
 30
0.0
 11
929.87416599999995
 21
55.0
 31
0.0
  0
LINE
  5
61D
  8
SIZE
  6
CONTINUOUS
 62
    30
 10
258.49999999999989
 20
215.0
 30
0.0
 11
929.87416599999995
 21
215.0
 31
0.0
  0
LINE
  5
61E
  8
SIZE
  6
CONTINUOUS
 62
    30
 10
909.87416599999995
 20
67.0
 30
0.0
 11
909.87416599999995
 21
203.0
 31
0.0
  0
LINE
  5
61F
  8
SIZE
  6
CONTINUOUS
 62
    30
 10
909.87416599999995
 20
215.0
 30
0.0
 11
909.87416599999995
 21
479.42285700000002
 31
0.0
  0
CIRCLE
  5
620
  8
SIZE
  6
CONTINUOUS
 62
    30
 10
909.87416599999995
 20
55.0
 30
0.0
 40
6.0
  0
LINE
  5
621
  8
SIZE
  6
CONTINUOUS
 62
    30
 10
909.87416599999995
 20
55.0
 30
0.0
 11
909.87416599999995
 21
67.0
 31
0.0
  0
CIRCLE
  5
622
  8
SIZE
  6
CONTINUOUS
 62
    30
 10
909.87416599999995
 20
215.0
 30
0.0
 40
6.0
  0
LINE
  5
623
  8
SIZE
  6
CONTINUOUS
 62
    30
 10
909.87416599999995
 20
215.0
 30
0.0
 11
909.87416599999995
 21
203.0
 31
0.0
  0
TEXT
  5
624
  8
SIZE
  6
CONTINUOUS
 62
    30
 10
884.87416599999983
 20
248.16000042857121
 30
0.0
 40
64.0
  1
üá160
 50
90.0
 41
0.9
 72
     1
 11
884.87416599999983
 21
353.21142899999978
 31
0.0
  0
LINE
  5
625
  8
SIZE
  6
CONTINUOUS
 62
    30
 10
288.5
 20
211.0
 30
0.0
 11
805.078709
 21
211.0
 31
0.0
  0
LINE
  5
626
  8
SIZE
  6
CONTINUOUS
 62
    30
 10
288.5
 20
59.0
 30
0.0
 11
805.078709
 21
59.0
 31
0.0
  0
LINE
  5
627
  8
SIZE
  6
CONTINUOUS
 62
    30
 10
785.07870899999989
 20
71.0
 30
0.0
 11
785.07870899999989
 21
199.0
 31
0.0
  0
LINE
  5
628
  8
SIZE
  6
CONTINUOUS
 62
    30
 10
785.07870899999989
 20
211.0
 30
0.0
 11
785.07870899999989
 21
469.24513299999978
 31
0.0
  0
CIRCLE
  5
629
  8
SIZE
  6
CONTINUOUS
 62
    30
 10
785.07870899999989
 20
59.0
 30
0.0
 40
6.0
  0
LINE
  5
62A
  8
SIZE
  6
CONTINUOUS
 62
    30
 10
785.07870899999989
 20
59.0
 30
0.0
 11
785.07870899999989
 21
71.0
 31
0.0
  0
CIRCLE
  5
62B
  8
SIZE
  6
CONTINUOUS
 62
    30
 10
785.07870899999989
 20
211.0
 30
0.0
 40
6.0
  0
LINE
  5
62C
  8
SIZE
  6
CONTINUOUS
 62
    30
 10
785.07870899999989
 20
211.0
 30
0.0
 11
785.07870899999989
 21
199.0
 31
0.0
  0
TEXT
  5
62D
  8
SIZE
  6
CONTINUOUS
 62
    30
 10
760.07870899999989
 20
237.9822754285714
 30
0.0
 40
64.0
  1
âË152
 50
90.0
 41
0.9
 72
     1
 11
760.07870899999989
 21
346.87370399999992
 31
0.0
  0
LINE
  5
62E
  8
SIZE
  6
CONTINUOUS
 62
    30
 10
318.5
 20
63.0
 30
0.0
 11
677.81205599999976
 21
63.0
 31
0.0
  0
LINE
  5
62F
  8
SIZE
  6
CONTINUOUS
 62
    30
 10
315.5
 20
207.0
 30
0.0
 11
677.81205599999976
 21
207.0
 31
0.0
  0
LINE
  5
630
  8
SIZE
  6
CONTINUOUS
 62
    30
 10
657.81205599999998
 20
75.0
 30
0.0
 11
657.81205599999998
 21
195.0
 31
0.0
  0
LINE
  5
631
  8
SIZE
  6
CONTINUOUS
 62
    30
 10
657.81205599999998
 20
207.0
 30
0.0
 11
657.81205599999998
 21
470.61656099999999
 31
0.0
  0
CIRCLE
  5
632
  8
SIZE
  6
CONTINUOUS
 62
    30
 10
657.81205599999998
 20
63.0
 30
0.0
 40
6.0
  0
LINE
  5
633
  8
SIZE
  6
CONTINUOUS
 62
    30
 10
657.81205599999998
 20
63.0
 30
0.0
 11
657.81205599999998
 21
75.0
 31
0.0
  0
CIRCLE
  5
634
  8
SIZE
  6
CONTINUOUS
 62
    30
 10
657.81205599999998
 20
207.0
 30
0.0
 40
6.0
  0
LINE
  5
635
  8
SIZE
  6
CONTINUOUS
 62
    30
 10
657.81205599999998
 20
207.0
 30
0.0
 11
657.81205599999998
 21
195.0
 31
0.0
  0
TEXT
  5
636
  8
SIZE
  6
CONTINUOUS
 62
    30
 10
632.81205599999998
 20
236.6108468571428
 30
0.0
 40
64.0
  1
âË144
 50
90.0
 41
0.9
 72
     1
 11
632.81205599999998
 21
346.87370399999992
 31
0.0
  0
LINE
  5
637
  8
SIZE
  6
CONTINUOUS
 62
    30
 10
210.0
 20
0.0
 30
0.0
 11
547.6529059999998
 21
0.0
 31
0.0
  0
LINE
  5
638
  8
SIZE
  6
CONTINUOUS
 62
    30
 10
347.26425699999999
 20
135.0
 30
0.0
 11
547.6529059999998
 21
135.0
 31
0.0
  0
LINE
  5
639
  8
SIZE
  6
CONTINUOUS
 62
    30
 10
527.65290599999992
 20
123.0
 30
0.0
 11
527.65290599999992
 21
12.0
 31
0.0
  0
LINE
  5
63A
  8
SIZE
  6
CONTINUOUS
 62
    30
 10
527.65290599999992
 20
0.0
 30
0.0
 11
527.65290599999992
 21
-199.14285699999999
 31
0.0
  0
CIRCLE
  5
63B
  8
SIZE
  6
CONTINUOUS
 62
    30
 10
527.65290599999992
 20
135.0
 30
0.0
 40
6.0
  0
LINE
  5
63C
  8
SIZE
  6
CONTINUOUS
 62
    30
 10
527.65290599999992
 20
135.0
 30
0.0
 11
527.65290599999992
 21
123.0
 31
0.0
  0
CIRCLE
  5
63D
  8
SIZE
  6
CONTINUOUS
 62
    30
 10
527.65290599999992
 20
0.0
 30
0.0
 40
6.0
  0
LINE
  5
63E
  8
SIZE
  6
CONTINUOUS
 62
    30
 10
527.65290599999992
 20
0.0
 30
0.0
 11
527.65290599999992
 21
12.0
 31
0.0
  0
TEXT
  5
63F
  8
SIZE
  6
CONTINUOUS
 62
    30
 10
502.65290599999992
 20
-174.14285757142849
 30
0.0
 40
64.0
  1
135
 50
90.0
 41
0.9
 72
     1
 11
502.65290599999992
 21
-105.57142899999999
 31
0.0
  0
LINE
  5
640
  8
SIZE
  6
CONTINUOUS
 62
    30
 10
0.0
 20
311.47948300000002
 30
0.0
 11
0.0
 21
419.167935
 31
0.0
  0
LINE
  5
641
  8
SIZE
  6
CONTINUOUS
 62
    30
 10
-2.0
 20
285.88841500000001
 30
0.0
 11
-2.0
 21
419.167935
 31
0.0
  0
LINE
  5
642
  8
SIZE
  6
CONTINUOUS
 62
    30
 10
12.0
 20
399.167935
 30
0.0
 11
24.0
 21
399.167935
 31
0.0
  0
LINE
  5
643
  8
SIZE
  6
CONTINUOUS
 62
    30
 10
-14.0
 20
399.167935
 30
0.0
 11
-272.21749199999999
 21
399.167935
 31
0.0
  0
LINE
  5
644
  8
SIZE
  6
CONTINUOUS
 62
    30
 10
0.0
 20
399.167935
 30
0.0
 11
-2.0
 21
399.167935
 31
0.0
  0
CIRCLE
  5
645
  8
SIZE
  6
CONTINUOUS
 62
    30
 10
0.0
 20
399.167935
 30
0.0
 40
6.0
  0
LINE
  5
646
  8
SIZE
  6
CONTINUOUS
 62
    30
 10
0.0
 20
399.167935
 30
0.0
 11
12.0
 21
399.167935
 31
0.0
  0
CIRCLE
  5
647
  8
SIZE
  6
CONTINUOUS
 62
    30
 10
-2.0
 20
399.167935
 30
0.0
 40
6.0
  0
LINE
  5
648
  8
SIZE
  6
CONTINUOUS
 62
    30
 10
-2.0
 20
399.167935
 30
0.0
 11
-14.0
 21
399.167935
 31
0.0
  0
TEXT
  5
649
  8
SIZE
  6
CONTINUOUS
 62
    30
 10
-247.21749199999979
 20
424.16793499999989
 30
0.0
 40
64.0
  1
2
 41
0.9
 72
     1
 11
-228.01749199999981
 21
424.16793499999989
 31
0.0
  0
LINE
  5
64A
  8
SIZE
  6
CONTINUOUS
 62
    30
 10
295.5
 20
227.0
 30
0.0
 11
295.5
 21
486.09252600000002
 31
0.0
  0
LINE
  5
64B
  8
SIZE
  6
CONTINUOUS
 62
    30
 10
268.5
 20
231.0
 30
0.0
 11
268.5
 21
486.09252600000002
 31
0.0
  0
LINE
  5
64C
  8
SIZE
  6
CONTINUOUS
 62
    30
 10
256.49999999999989
 20
466.09252599999991
 30
0.0
 11
244.4999999999998
 21
466.09252599999991
 31
0.0
  0
LINE
  5
64D
  8
SIZE
  6
CONTINUOUS
 62
    30
 10
307.5
 20
466.09252599999991
 30
0.0
 11
465.75714299999993
 21
466.09252599999991
 31
0.0
  0
LINE
  5
64E
  8
SIZE
  6
CONTINUOUS
 62
    30
 10
268.5
 20
466.09252599999991
 30
0.0
 11
295.5
 21
466.09252599999991
 31
0.0
  0
CIRCLE
  5
64F
  8
SIZE
  6
CONTINUOUS
 62
    30
 10
268.5
 20
466.09252599999991
 30
0.0
 40
6.0
  0
LINE
  5
650
  8
SIZE
  6
CONTINUOUS
 62
    30
 10
268.5
 20
466.09252599999991
 30
0.0
 11
256.49999999999989
 21
466.09252599999991
 31
0.0
  0
CIRCLE
  5
651
  8
SIZE
  6
CONTINUOUS
 62
    30
 10
295.5
 20
466.09252599999991
 30
0.0
 40
6.0
  0
LINE
  5
652
  8
SIZE
  6
CONTINUOUS
 62
    30
 10
295.5
 20
466.09252599999991
 30
0.0
 11
307.5
 21
466.09252599999991
 31
0.0
  0
TEXT
  5
653
  8
SIZE
  6
CONTINUOUS
 62
    30
 10
347.49999957142859
 20
491.09252599999991
 30
0.0
 40
64.0
  1
27
 41
0.9
 72
     1
 11
394.12857100000002
 21
491.09252599999991
 31
0.0
  0
LINE
  5
654
  8
SIZE
  6
CONTINUOUS
 62
    30
 10
295.5
 20
227.0
 30
0.0
 11
295.5
 21
607.64318800000001
 31
0.0
  0
LINE
  5
655
  8
SIZE
  6
CONTINUOUS
 62
    30
 10
238.5
 20
235.0
 30
0.0
 11
238.5
 21
607.64318800000001
 31
0.0
  0
LINE
  5
657
  8
SIZE
  6
CONTINUOUS
 62
    30
 10
307.5
 20
587.64318800000001
 30
0.0
 11
465.75714299999993
 21
587.64318800000001
 31
0.0
  0
LINE
  5
658
  8
SIZE
  6
CONTINUOUS
 62
    30
 10
238.5
 20
587.64318800000001
 30
0.0
 11
295.5
 21
587.64318800000001
 31
0.0
  0
CIRCLE
  5
659
  8
SIZE
  6
CONTINUOUS
 62
    30
 10
238.5
 20
587.64318800000001
 30
0.0
 40
6.0
  0
CIRCLE
  5
65B
  8
SIZE
  6
CONTINUOUS
 62
    30
 10
295.5
 20
587.64318800000001
 30
0.0
 40
6.0
  0
LINE
  5
65C
  8
SIZE
  6
CONTINUOUS
 62
    30
 10
295.5
 20
587.64318800000001
 30
0.0
 11
307.5
 21
587.64318800000001
 31
0.0
  0
TEXT
  5
65D
  8
SIZE
  6
CONTINUOUS
 62
    30
 10
347.49999957142859
 20
612.64318800000001
 30
0.0
 40
64.0
  1
57
 41
0.9
 72
     1
 11
394.12857100000002
 21
612.64318800000001
 31
0.0
  0
LINE
  5
65E
  8
SIZE
  6
CONTINUOUS
 62
    30
 10
39.000002000000002
 20
253.3399999999998
 30
0.0
 11
39.000002000000002
 21
488.00329099999988
 31
0.0
  0
LINE
  5
65F
  8
SIZE
  6
CONTINUOUS
 62
    30
 10
-43.000002000000002
 20
253.3399999999998
 30
0.0
 11
-43.000002000000002
 21
488.00329099999988
 31
0.0
  0
LINE
  5
662
  8
SIZE
  6
CONTINUOUS
 62
    30
 10
39.000002000000002
 20
468.00329099999999
 30
0.0
 11
-43.000002000000002
 21
468.00329099999999
 31
0.0
  0
CIRCLE
  5
663
  8
SIZE
  6
CONTINUOUS
 62
    30
 10
39.000002000000002
 20
468.00329099999999
 30
0.0
 40
6.0
  0
CIRCLE
  5
665
  8
SIZE
  6
CONTINUOUS
 62
    30
 10
-43.000002000000002
 20
468.00329099999999
 30
0.0
 40
6.0
  0
TEXT
  5
667
  8
SIZE
  6
CONTINUOUS
 62
    30
 10
-88.948571428571384
 20
493.00329099999999
 30
0.0
 40
64.0
  1
âË82
 41
0.9
 72
     1
 11
-2.0
 21
493.00329099999999
 31
0.0
  0
LINE
  5
668
  8
SIZE
  6
CONTINUOUS
 62
    30
 10
100.0
 20
248.0
 30
0.0
 11
100.0
 21
608.40724699999976
 31
0.0
  0
LINE
  5
669
  8
SIZE
  6
CONTINUOUS
 62
    30
 10
-100.0
 20
248.0
 30
0.0
 11
-100.0
 21
608.40724699999976
 31
0.0
  0
LINE
  5
66A
  8
SIZE
  6
CONTINUOUS
 62
    30
 10
88.0
 20
588.40724699999976
 30
0.0
 11
-88.0
 21
588.40724699999976
 31
0.0
  0
CIRCLE
  5
66B
  8
SIZE
  6
CONTINUOUS
 62
    30
 10
100.0
 20
588.40724699999976
 30
0.0
 40
6.0
  0
LINE
  5
66C
  8
SIZE
  6
CONTINUOUS
 62
    30
 10
100.0
 20
588.40724699999976
 30
0.0
 11
88.0
 21
588.40724699999976
 31
0.0
  0
CIRCLE
  5
66D
  8
SIZE
  6
CONTINUOUS
 62
    30
 10
-100.0
 20
588.40724699999976
 30
0.0
 40
6.0
  0
LINE
  5
66E
  8
SIZE
  6
CONTINUOUS
 62
    30
 10
-100.0
 20
588.40724699999976
 30
0.0
 11
-88.0
 21
588.40724699999976
 31
0.0
  0
TEXT
  5
66F
  8
SIZE
  6
CONTINUOUS
 62
    30
 10
-74.05714285714285
 20
613.40724699999976
 30
0.0
 40
64.0
  1
200
 41
0.9
 72
     1
 11
0.0
 21
613.40724699999976
 31
0.0
  0
LINE
  5
670
  8
SIZE
  6
CONTINUOUS
 62
    30
 10
153.5
 20
247.0
 30
0.0
 11
153.5
 21
735.34238700000003
 31
0.0
  0
LINE
  5
671
  8
SIZE
  6
CONTINUOUS
 62
    30
 10
295.5
 20
227.0
 30
0.0
 11
295.5
 21
735.34238700000003
 31
0.0
  0
LINE
  5
672
  8
SIZE
  6
CONTINUOUS
 62
    30
 10
141.5
 20
715.34238700000003
 30
0.0
 11
129.49999999999969
 21
715.34238700000003
 31
0.0
  0
LINE
  5
674
  8
SIZE
  6
CONTINUOUS
 62
    30
 10
153.5
 20
715.34238700000003
 30
0.0
 11
295.5
 21
715.34238700000003
 31
0.0
  0
CIRCLE
  5
675
  8
SIZE
  6
CONTINUOUS
 62
    30
 10
153.5
 20
715.34238700000003
 30
0.0
 40
6.0
  0
LINE
  5
676
  8
SIZE
  6
CONTINUOUS
 62
    30
 10
153.5
 20
715.34238700000003
 30
0.0
 11
141.5
 21
715.34238700000003
 31
0.0
  0
CIRCLE
  5
677
  8
SIZE
  6
CONTINUOUS
 62
    30
 10
295.5
 20
715.34238700000003
 30
0.0
 40
6.0
  0
TEXT
  5
679
  8
SIZE
  6
CONTINUOUS
 62
    30
 10
155.92857142857139
 20
740.34238700000003
 30
0.0
 40
64.0
  1
142
 41
0.9
 72
     1
 11
224.5
 21
740.34238700000003
 31
0.0
  0
LINE
  5
67A
  8
SIZE
  6
CONTINUOUS
 62
    30
 10
153.5
 20
247.0
 30
0.0
 11
153.5
 21
735.34238700000003
 31
0.0
  0
LINE
  5
67B
  8
SIZE
  6
CONTINUOUS
 62
    30
 10
-153.5
 20
220.0
 30
0.0
 11
-153.5
 21
735.34238700000003
 31
0.0
  0
LINE
  5
67C
  8
SIZE
  6
CONTINUOUS
 62
    30
 10
141.5
 20
715.34238700000003
 30
0.0
 11
-141.5
 21
715.34238700000003
 31
0.0
  0
CIRCLE
  5
67D
  8
SIZE
  6
CONTINUOUS
 62
    30
 10
153.5
 20
715.34238700000003
 30
0.0
 40
6.0
  0
LINE
  5
67E
  8
SIZE
  6
CONTINUOUS
 62
    30
 10
153.5
 20
715.34238700000003
 30
0.0
 11
141.5
 21
715.34238700000003
 31
0.0
  0
CIRCLE
  5
67F
  8
SIZE
  6
CONTINUOUS
 62
    30
 10
-153.5
 20
715.34238700000003
 30
0.0
 40
6.0
  0
LINE
  5
680
  8
SIZE
  6
CONTINUOUS
 62
    30
 10
-153.5
 20
715.34238700000003
 30
0.0
 11
-141.5
 21
715.34238700000003
 31
0.0
  0
TEXT
  5
681
  8
SIZE
  6
CONTINUOUS
 62
    30
 10
-110.5371428571428
 20
740.34238700000003
 30
0.0
 40
64.0
  1
üá307
 41
0.9
 72
     1
 11
0.0
 21
740.34238700000003
 31
0.0
  0
LINE
  5
682
  8
NOTE
  6
CONTINUOUS
 62
     4
 10
-100.0
 20
208.0
 30
0.0
 11
-363.09238900000003
 21
409.59560399999992
 31
0.0
  0
LINE
  5
683
  8
NOTE
  6
CONTINUOUS
 62
     4
 10
-136.77335099999991
 20
223.73914300000001
 30
0.0
 11
-100.0
 21
208.0
 31
0.0
  0
LINE
  5
684
  8
NOTE
  6
CONTINUOUS
 62
     4
 10
-100.0
 20
208.0
 30
0.0
 11
-123.9770849999999
 21
240.01717400000001
 31
0.0
  0
LINE
  5
685
  8
SIZE
  6
CONTINUOUS
 62
    30
 10
189.97260900000001
 20
-20.0
 30
0.0
 11
189.97260900000001
 21
-654.94550300000003
 31
0.0
  0
LINE
  5
686
  8
SIZE
  6
CONTINUOUS
 62
    30
 10
-190.02739099999991
 20
-20.0
 30
0.0
 11
-190.02739099999991
 21
-654.94550300000003
 31
0.0
  0
LINE
  5
687
  8
SIZE
  6
CONTINUOUS
 62
    30
 10
177.97260900000001
 20
-634.94550300000003
 30
0.0
 11
-178.02739099999999
 21
-634.94550300000003
 31
0.0
  0
CIRCLE
  5
688
  8
SIZE
  6
CONTINUOUS
 62
    30
 10
189.97260900000001
 20
-634.94550300000003
 30
0.0
 40
6.0
  0
LINE
  5
689
  8
SIZE
  6
CONTINUOUS
 62
    30
 10
189.97260900000001
 20
-634.94550300000003
 30
0.0
 11
177.97260900000001
 21
-634.94550300000003
 31
0.0
  0
CIRCLE
  5
68A
  8
SIZE
  6
CONTINUOUS
 62
    30
 10
-190.02739099999991
 20
-634.94550300000003
 30
0.0
 40
6.0
  0
LINE
  5
68B
  8
SIZE
  6
CONTINUOUS
 62
    30
 10
-190.02739099999991
 20
-634.94550300000003
 30
0.0
 11
-178.02739099999999
 21
-634.94550300000003
 31
0.0
  0
TEXT
  5
68C
  8
SIZE
  6
CONTINUOUS
 62
    30
 10
-110.5371428571428
 20
-609.94550300000003
 30
0.0
 40
64.0
  1
üá380
 41
0.9
 72
     1
 11
0.0
 21
-609.94550300000003
 31
0.0
  0
LINE
  5
68D
  8
SIZE
  6
CONTINUOUS
 62
    30
 10
-210.0
 20
0.0
 30
0.0
 11
-756.60657100000003
 21
0.0
 31
0.0
  0
LINE
  5
68E
  8
SIZE
  6
CONTINUOUS
 62
    30
 10
-189.0379109999997
 20
-55.0
 30
0.0
 11
-756.60657100000003
 21
-55.0
 31
0.0
  0
LINE
  5
68F
  8
SIZE
  6
CONTINUOUS
 62
    30
 10
-736.60657100000003
 20
12.0
 30
0.0
 11
-736.60657100000003
 21
24.0
 31
0.0
  0
LINE
  5
690
  8
SIZE
  6
CONTINUOUS
 62
    30
 10
-736.60657100000003
 20
-67.0
 30
0.0
 11
-736.60657100000003
 21
-222.25714300000001
 31
0.0
  0
LINE
  5
691
  8
SIZE
  6
CONTINUOUS
 62
    30
 10
-736.60657100000003
 20
0.0
 30
0.0
 11
-736.60657100000003
 21
-55.0
 31
0.0
  0
CIRCLE
  5
692
  8
SIZE
  6
CONTINUOUS
 62
    30
 10
-736.60657100000003
 20
0.0
 30
0.0
 40
6.0
  0
LINE
  5
693
  8
SIZE
  6
CONTINUOUS
 62
    30
 10
-736.60657100000003
 20
0.0
 30
0.0
 11
-736.60657100000003
 21
12.0
 31
0.0
  0
CIRCLE
  5
694
  8
SIZE
  6
CONTINUOUS
 62
    30
 10
-736.60657100000003
 20
-55.0
 30
0.0
 40
6.0
  0
LINE
  5
695
  8
SIZE
  6
CONTINUOUS
 62
    30
 10
-736.60657100000003
 20
-55.0
 30
0.0
 11
-736.60657100000003
 21
-67.0
 31
0.0
  0
TEXT
  5
696
  8
SIZE
  6
CONTINUOUS
 62
    30
 10
-761.60657100000003
 20
-197.2571424285714
 30
0.0
 40
64.0
  1
55
 50
90.0
 41
0.9
 72
     1
 11
-761.60657100000003
 21
-150.62857099999999
 31
0.0
  0
LINE
  5
697
  8
DETAIL
  6
CONTINUOUS
 62
     5
 10
295.5
 20
63.0
 30
0.0
 11
295.5
 21
207.0
 31
0.0
  0
LINE
  5
698
  8
DETAIL
  6
CONTINUOUS
 62
     5
 10
0.0
 20
-55.0
 30
0.0
 11
169.092692
 21
-55.0
 31
0.0
  0
LINE
  5
699
  8
DETAIL
  6
CONTINUOUS
 62
     5
 10
0.0
 20
-37.0
 30
0.0
 11
177.52739099999991
 21
-37.0
 31
0.0
  0
LINE
  5
69A
  8
DETAIL
  6
CONTINUOUS
 62
     5
 10
0.0
 20
0.0
 30
0.0
 11
189.97260900000001
 21
0.0
 31
0.0
  0
LINE
  5
69B
  8
DETAIL
  6
CONTINUOUS
 62
     5
 10
0.0
 20
-14.0
 30
0.0
 11
186.1568079999999
 21
-14.0
 31
0.0
  0
LINE
  5
69C
  8
DETAIL
  6
CONTINUOUS
 62
     5
 10
0.0
 20
-37.0
 30
0.0
 11
157.5
 21
-37.0
 31
0.0
  0
LINE
  5
69D
  8
DETAIL
  6
CONTINUOUS
 62
     5
 10
0.0
 20
-55.0
 30
0.0
 11
149.065302
 21
-55.0
 31
0.0
  0
LINE
  5
69E
  8
DETAIL
  6
CONTINUOUS
 62
     5
 10
0.0
 20
-55.0
 30
0.0
 11
-169.03791100000001
 21
-55.0
 31
0.0
  0
LINE
  5
69F
  8
DETAIL
  6
CONTINUOUS
 62
     5
 10
0.0
 20
-37.0
 30
0.0
 11
-177.47260900000001
 21
-37.0
 31
0.0
  0
LINE
  5
6A0
  8
DETAIL
  6
CONTINUOUS
 62
     5
 10
0.0
 20
0.0
 30
0.0
 11
-190.02739099999991
 21
0.0
 31
0.0
  0
LINE
  5
6A1
  8
DETAIL
  6
CONTINUOUS
 62
     5
 10
0.0
 20
-14.0
 30
0.0
 11
-186.211589
 21
-14.0
 31
0.0
  0
LINE
  5
6A2
  8
DETAIL
  6
CONTINUOUS
 62
     5
 10
-176.496826
 20
-48.283963
 30
0.0
 11
-177.4452189999999
 21
-39.26060300000001
 31
0.0
  0
LINE
  5
6A3
  8
DETAIL
  6
CONTINUOUS
 62
     5
 10
-176.496826
 20
-48.283963
 30
0.0
 11
-177.4452189999999
 21
-39.26060300000001
 31
0.0
  0
ARC
  5
6A4
  8
DETAIL
  6
CONTINUOUS
 62
     5
 10
-169.03791100000001
 20
-47.5
 30
0.0
 40
7.5
 50
186.0
 51
270.0
  0
ARC
  5
6A5
  8
DETAIL
  6
CONTINUOUS
 62
     5
 10
-169.03791100000001
 20
-47.5
 30
0.0
 40
7.5
 50
186.0
 51
270.0
  0
LINE
  5
6A6
  8
DETAIL
  6
CONTINUOUS
 62
     5
 10
-177.4452189999999
 20
-39.26060300000001
 30
0.0
 11
-177.47260900000001
 21
-39.0
 31
0.0
  0
LINE
  5
6A7
  8
DETAIL
  6
CONTINUOUS
 62
     5
 10
-177.47260900000001
 20
-38.737960999999991
 30
0.0
 11
-177.47260900000001
 21
-39.0
 31
0.0
  0
ARC
  5
6A8
  8
DETAIL
  6
CONTINUOUS
 62
     5
 10
-172.47260900000001
 20
-38.737960999999991
 30
0.0
 40
5.0
 50
180.0
 51
186.0
  0
LINE
  5
6A9
  8
DETAIL
  6
CONTINUOUS
 62
     5
 10
-177.47260900000001
 20
-37.0
 30
0.0
 11
-177.47260900000001
 21
-38.737960999999991
 31
0.0
  0
LINE
  5
6AA
  8
DETAIL
  6
CONTINUOUS
 62
     5
 10
-177.47260900000001
 20
-37.0
 30
0.0
 11
-177.47260900000001
 21
-38.0
 31
0.0
  0
LINE
  5
6AB
  8
DETAIL
  6
CONTINUOUS
 62
     5
 10
-190.02739099999991
 20
0.0
 30
0.0
 11
-190.02739099999991
 21
-1.0
 31
0.0
  0
ARC
  5
6AC
  8
DETAIL
  6
CONTINUOUS
 62
     5
 10
-186.211589
 20
-11.0
 30
0.0
 40
3.0
 50
187.4999999999998
 51
270.0
  0
LINE
  5
6AD
  8
DETAIL
  6
CONTINUOUS
 62
     5
 10
-190.02739099999991
 20
-1.0
 30
0.0
 11
-189.185923
 21
-11.391579
 31
0.0
  0
LINE
  5
6AE
  8
DETAIL
  6
CONTINUOUS
 62
     5
 10
-177.47260900000001
 20
-37.0
 30
0.0
 11
-177.47260900000001
 21
-38.0
 31
0.0
  0
LINE
  5
6AF
  8
DETAIL
  6
CONTINUOUS
 62
     5
 10
-177.47260900000001
 20
-37.0
 30
0.0
 11
-177.47260900000001
 21
-38.737960999999991
 31
0.0
  0
ARC
  5
6B0
  8
DETAIL
  6
CONTINUOUS
 62
     5
 10
-172.47260900000001
 20
-38.737960999999991
 30
0.0
 40
5.0
 50
180.0
 51
186.0
  0
LINE
  5
6B1
  8
DETAIL
  6
CONTINUOUS
 62
     5
 10
-177.47260900000001
 20
-38.737960999999991
 30
0.0
 11
-177.47260900000001
 21
-39.0
 31
0.0
  0
LINE
  5
6B2
  8
DETAIL
  6
CONTINUOUS
 62
     5
 10
-177.4452189999999
 20
-39.26060300000001
 30
0.0
 11
-177.47260900000001
 21
-39.0
 31
0.0
  0
LINE
  5
6B3
  8
DETAIL
  6
CONTINUOUS
 62
     5
 10
-167.0
 20
-14.0
 30
0.0
 11
-167.0
 21
-37.0
 31
0.0
  0
LINE
  5
6B4
  8
DETAIL
  6
CONTINUOUS
 62
     5
 10
0.0
 20
-55.0
 30
0.0
 11
-149.065302
 21
-55.0
 31
0.0
  0
LINE
  5
6B5
  8
DETAIL
  6
CONTINUOUS
 62
     5
 10
0.0
 20
-37.0
 30
0.0
 11
-157.5
 21
-37.0
 31
0.0
  0
LINE
  5
6B6
  8
DETAIL
  6
CONTINUOUS
 62
     5
 10
-159.25
 20
-14.0
 30
0.0
 11
-159.25
 21
-37.0
 31
0.0
  0
LINE
  5
6B7
  8
DETAIL
  6
CONTINUOUS
 62
     5
 10
-154.75
 20
-14.0
 30
0.0
 11
-154.75
 21
-37.0
 31
0.0
  0
LINE
  5
6B8
  8
DETAIL
  6
CONTINUOUS
 62
     5
 10
-157.0
 20
-14.0
 30
0.0
 11
-157.0
 21
-37.0
 31
0.0
  0
LINE
  5
6B9
  8
DETAIL
  6
CONTINUOUS
 62
     5
 10
-147.0
 20
-14.0
 30
0.0
 11
-147.0
 21
-37.0
 31
0.0
  0
LINE
  5
6BA
  8
DETAIL
  6
CONTINUOUS
 62
     5
 10
0.027391
 20
-37.0
 30
0.0
 11
0.027391
 21
-14.0
 31
0.0
  0
LINE
  5
6BB
  8
DETAIL
  6
CONTINUOUS
 62
     5
 10
-2.4726089999999981
 20
-37.0
 30
0.0
 11
-2.4726089999999981
 21
-14.0
 31
0.0
  0
LINE
  5
6BC
  8
DETAIL
  6
CONTINUOUS
 62
     5
 10
-19.972608999999991
 20
-37.0
 30
0.0
 11
-19.972608999999991
 21
-14.0
 31
0.0
  0
LINE
  5
6BD
  8
DETAIL
  6
CONTINUOUS
 62
     5
 10
2.5273910000000002
 20
-37.0
 30
0.0
 11
2.5273910000000002
 21
-14.0
 31
0.0
  0
LINE
  5
6BE
  8
DETAIL
  6
CONTINUOUS
 62
     5
 10
8.0273909999999962
 20
-37.0
 30
0.0
 11
8.0273909999999962
 21
-14.0
 31
0.0
  0
LINE
  5
6BF
  8
DETAIL
  6
CONTINUOUS
 62
     5
 10
176.5516069999999
 20
-48.283963
 30
0.0
 11
177.5
 21
-39.26060300000001
 31
0.0
  0
LINE
  5
6C0
  8
DETAIL
  6
CONTINUOUS
 62
     5
 10
176.5516069999999
 20
-48.283963
 30
0.0
 11
177.5
 21
-39.26060300000001
 31
0.0
  0
ARC
  5
6C1
  8
DETAIL
  6
CONTINUOUS
 62
     5
 10
169.092692
 20
-47.5
 30
0.0
 40
7.5
 50
270.0
 51
354.0
  0
ARC
  5
6C2
  8
DETAIL
  6
CONTINUOUS
 62
     5
 10
169.092692
 20
-47.5
 30
0.0
 40
7.5
 50
270.0
 51
354.0
  0
ARC
  5
6C3
  8
DETAIL
  6
CONTINUOUS
 62
     5
 10
186.1568079999999
 20
-11.0
 30
0.0
 40
3.0
 50
270.0
 51
352.49999999999977
  0
LINE
  5
6C4
  8
DETAIL
  6
CONTINUOUS
 62
     5
 10
177.52739099999991
 20
-37.0
 30
0.0
 11
177.52739099999991
 21
-38.0
 31
0.0
  0
LINE
  5
6C5
  8
DETAIL
  6
CONTINUOUS
 62
     5
 10
177.52739099999991
 20
-37.0
 30
0.0
 11
177.52739099999991
 21
-38.737960999999991
 31
0.0
  0
ARC
  5
6C6
  8
DETAIL
  6
CONTINUOUS
 62
     5
 10
172.52739099999999
 20
-38.737960999999991
 30
0.0
 40
5.0
 50
354.0
 51
0.0
  0
LINE
  5
6C7
  8
DETAIL
  6
CONTINUOUS
 62
     5
 10
177.52739099999991
 20
-38.737960999999991
 30
0.0
 11
177.52739099999991
 21
-39.0
 31
0.0
  0
LINE
  5
6C8
  8
DETAIL
  6
CONTINUOUS
 62
     5
 10
177.5
 20
-39.26060300000001
 30
0.0
 11
177.52739099999991
 21
-39.0
 31
0.0
  0
LINE
  5
6C9
  8
DETAIL
  6
CONTINUOUS
 62
     5
 10
177.5
 20
-39.26060300000001
 30
0.0
 11
177.52739099999991
 21
-39.0
 31
0.0
  0
LINE
  5
6CA
  8
DETAIL
  6
CONTINUOUS
 62
     5
 10
177.52739099999991
 20
-38.737960999999991
 30
0.0
 11
177.52739099999991
 21
-39.0
 31
0.0
  0
ARC
  5
6CB
  8
DETAIL
  6
CONTINUOUS
 62
     5
 10
172.52739099999999
 20
-38.737960999999991
 30
0.0
 40
5.0
 50
354.0
 51
0.0
  0
LINE
  5
6CC
  8
DETAIL
  6
CONTINUOUS
 62
     5
 10
177.52739099999991
 20
-37.0
 30
0.0
 11
177.52739099999991
 21
-38.737960999999991
 31
0.0
  0
LINE
  5
6CD
  8
DETAIL
  6
CONTINUOUS
 62
     5
 10
177.52739099999991
 20
-37.0
 30
0.0
 11
177.52739099999991
 21
-38.0
 31
0.0
  0
LINE
  5
6CE
  8
DETAIL
  6
CONTINUOUS
 62
     5
 10
167.0
 20
-14.0
 30
0.0
 11
167.0
 21
-37.0
 31
0.0
  0
LINE
  5
6CF
  8
DETAIL
  6
CONTINUOUS
 62
     5
 10
159.25
 20
-14.0
 30
0.0
 11
159.25
 21
-37.0
 31
0.0
  0
LINE
  5
6D0
  8
DETAIL
  6
CONTINUOUS
 62
     5
 10
157.0
 20
-14.0
 30
0.0
 11
157.0
 21
-37.0
 31
0.0
  0
LINE
  5
6D1
  8
DETAIL
  6
CONTINUOUS
 62
     5
 10
154.75
 20
-14.0
 30
0.0
 11
154.75
 21
-37.0
 31
0.0
  0
LINE
  5
6D2
  8
DETAIL
  6
CONTINUOUS
 62
     5
 10
147.0
 20
-14.0
 30
0.0
 11
147.0
 21
-37.0
 31
0.0
  0
LINE
  5
6D3
  8
DETAIL
  6
CONTINUOUS
 62
     5
 10
189.97260900000001
 20
0.0
 30
0.0
 11
189.97260900000001
 21
-1.0
 31
0.0
  0
LINE
  5
6D4
  8
DETAIL
  6
CONTINUOUS
 62
     5
 10
189.97260900000001
 20
-1.0
 30
0.0
 11
189.1311419999999
 21
-11.391579
 31
0.0
  0
LINE
  5
6D5
  8
SIZE
  6
CONTINUOUS
 62
    30
 10
177.52739099999991
 20
-57.0
 30
0.0
 11
177.52739099999991
 21
-525.75227099999995
 31
0.0
  0
LINE
  5
6D6
  8
SIZE
  6
CONTINUOUS
 62
    30
 10
-177.47260900000001
 20
-57.0
 30
0.0
 11
-177.47260900000001
 21
-525.75227099999995
 31
0.0
  0
LINE
  5
6D7
  8
SIZE
  6
CONTINUOUS
 62
    30
 10
165.52739099999999
 20
-505.75227099999989
 30
0.0
 11
-165.47260900000001
 21
-505.75227099999989
 31
0.0
  0
CIRCLE
  5
6D8
  8
SIZE
  6
CONTINUOUS
 62
    30
 10
177.52739099999991
 20
-505.75227099999989
 30
0.0
 40
6.0
  0
LINE
  5
6D9
  8
SIZE
  6
CONTINUOUS
 62
    30
 10
177.52739099999991
 20
-505.75227099999989
 30
0.0
 11
165.52739099999999
 21
-505.75227099999989
 31
0.0
  0
CIRCLE
  5
6DA
  8
SIZE
  6
CONTINUOUS
 62
    30
 10
-177.47260900000001
 20
-505.75227099999989
 30
0.0
 40
6.0
  0
LINE
  5
6DB
  8
SIZE
  6
CONTINUOUS
 62
    30
 10
-177.47260900000001
 20
-505.75227099999989
 30
0.0
 11
-165.47260900000001
 21
-505.75227099999989
 31
0.0
  0
TEXT
  5
6DC
  8
SIZE
  6
CONTINUOUS
 62
    30
 10
-110.5097518571428
 20
-480.75227099999989
 30
0.0
 40
64.0
  1
üá355
 41
0.9
 72
     1
 11
0.027391
 21
-480.75227099999989
 31
0.0
  0
TEXT
  5
6DD
  8
ETC
  6
CONTINUOUS
 62
    61
 10
600.89499309758105
 20
923.66266112072515
 30
0.0
 40
64.0
  1
VD-18ZA8-W_5
 41
0.9
  0
TEXT
  5
6DE
  8
ETC
  6
CONTINUOUS
 62
    61
 10
656.52582202197823
 20
586.10699630938416
 30
0.0
 40
45.0
  1
VD-20ZX7-W
 41
0.9
  0
TEXT
  5
6DF
  8
ETC
  6
CONTINUOUS
 62
    61
 10
653.81186712065619
 20
659.35514350882136
 30
0.0
 40
45.0
  1
VD-18ZXP7-W
 41
0.9
  0
TEXT
  5
6E0
  8
ETC
  6
CONTINUOUS
 62
    61
 10
651.09790501575606
 20
732.66321316845335
 30
0.0
 40
45.0
  1
VD-18ZA7-W
 41
0.9
  0
TEXT
  5
6E1
  8
ETC
  6
CONTINUOUS
 62
    61
 10
592.97928709758105
 20
805.01859212072509
 30
0.0
 40
64.0
  1
èÀïCÉ¯
 41
0.9
  0
CIRCLE
  5
6E2
  8
ARRANGE
  6
CONTINUOUS
 62
     1
 10
0.0
 20
0.0
 30
0.0
 40
40.0
  0
LINE
  5
6E3
  8
OUTLINE
  6
CONTINUOUS
 62
     3
 10
-153.5
 20
200.0
 30
0.0
 11
153.5
 21
200.0
 31
0.0
  0
LINE
  5
6E4
  8
OUTLINE
  6
CONTINUOUS
 62
     3
 10
-190.08097590366191
 20
0.0
 30
0.0
 11
190.08097590366191
 21
0.0
 31
0.0
  0
LINE
  5
6E6
  8
OUTLINE
  6
CONTINUOUS
 62
     3
 10
-153.5
 20
0.0
 30
0.0
 11
-153.5
 21
200.0
 31
0.0
  0
LINE
  5
6FF
  8
OUTLINE
  6
CONTINUOUS
 62
     3
 10
153.5
 20
0.0
 30
0.0
 11
153.5
 21
200.0
 31
0.0
  0
POINT
  5
718
  8
ARRANGE
  6
CONTINUOUS
 62
     1
 10
0.0
 20
0.0
 30
0.0
  0
LINE
  5
77A
  8
BASIS
  6
DASHDOT
 62
     6
 10
-79.284600999999952
 20
18.0
 30
0.0
 11
-28.718518999999901
 21
18.0
 31
0.0
  0
LINE
  5
77B
  8
DETAIL
  6
CONTINUOUS
 62
     5
 10
-64.750779999999963
 20
11.0
 30
0.0
 11
-43.750779999999963
 21
11.0
 31
0.0
  0
LINE
  5
77C
  8
DETAIL
  6
CONTINUOUS
 62
     5
 10
-64.750779999999963
 20
25.0
 30
0.0
 11
-43.750779999999963
 21
25.0
 31
0.0
  0
LINE
  5
77D
  8
DETAIL
  6
CONTINUOUS
 62
     5
 10
-64.750779999999963
 20
8.0
 30
0.0
 11
-43.750779999999963
 21
8.0
 31
0.0
  0
LINE
  5
77E
  8
DETAIL
  6
CONTINUOUS
 62
     5
 10
-64.750779999999963
 20
28.0
 30
0.0
 11
-43.750779999999963
 21
28.0
 31
0.0
  0
ARC
  5
77F
  8
DETAIL
  6
CONTINUOUS
 62
     5
 10
-64.750779999999963
 20
18.0
 30
0.0
 40
7.0
 50
180.0
 51
270.0
  0
ARC
  5
780
  8
DETAIL
  6
CONTINUOUS
 62
     5
 10
-64.750779999999963
 20
18.0
 30
0.0
 40
7.0
 50
90.0
 51
180.0
  0
ARC
  5
781
  8
DETAIL
  6
CONTINUOUS
 62
     5
 10
-64.750779999999963
 20
18.0
 30
0.0
 40
10.0
 50
180.0
 51
270.0
  0
ARC
  5
782
  8
DETAIL
  6
CONTINUOUS
 62
     5
 10
-64.750779999999963
 20
18.0
 30
0.0
 40
10.0
 50
90.0
 51
180.0
  0
LINE
  5
783
  8
DETAIL
  6
CONTINUOUS
 62
     5
 10
-74.750779999999978
 20
18.0
 30
0.0
 11
-74.750779999999978
 21
18.0
 31
0.0
  0
LINE
  5
784
  8
BASIS
  6
DASHDOT
 62
     6
 10
-54.250779999999963
 20
3.523890999999991
 30
0.0
 11
-54.250779999999963
 21
33.438380999999993
 31
0.0
  0
ARC
  5
785
  8
DETAIL
  6
CONTINUOUS
 62
     5
 10
-43.750779999999963
 20
18.0
 30
0.0
 40
7.0
 50
0.0
 51
90.0
  0
ARC
  5
786
  8
DETAIL
  6
CONTINUOUS
 62
     5
 10
-43.750779999999963
 20
18.0
 30
0.0
 40
7.0
 50
270.0
 51
0.0
  0
ARC
  5
787
  8
DETAIL
  6
CONTINUOUS
 62
     5
 10
-43.750779999999963
 20
18.0
 30
0.0
 40
10.0
 50
270.0
 51
0.0
  0
ARC
  5
788
  8
DETAIL
  6
CONTINUOUS
 62
     5
 10
-43.750779999999963
 20
18.0
 30
0.0
 40
10.0
 50
0.0
 51
90.0
  0
LINE
  5
789
  8
BASIS
  6
DASHDOT
 62
     6
 10
79.783041000000026
 20
18.0
 30
0.0
 11
29.216958999999971
 21
18.0
 31
0.0
  0
LINE
  5
78A
  8
DETAIL
  6
CONTINUOUS
 62
     5
 10
65.249220000000037
 20
28.0
 30
0.0
 11
44.249220000000037
 21
28.0
 31
0.0
  0
LINE
  5
78B
  8
DETAIL
  6
CONTINUOUS
 62
     5
 10
65.249220000000037
 20
8.0
 30
0.0
 11
44.249220000000037
 21
8.0
 31
0.0
  0
LINE
  5
78C
  8
DETAIL
  6
CONTINUOUS
 62
     5
 10
65.249220000000037
 20
25.0
 30
0.0
 11
44.249220000000037
 21
25.0
 31
0.0
  0
LINE
  5
78D
  8
DETAIL
  6
CONTINUOUS
 62
     5
 10
65.249220000000037
 20
11.0
 30
0.0
 11
44.249220000000037
 21
11.0
 31
0.0
  0
LINE
  5
78E
  8
BASIS
  6
DASHDOT
 62
     6
 10
54.749220000000022
 20
3.523890999999991
 30
0.0
 11
54.749220000000022
 21
33.438380999999993
 31
0.0
  0
ARC
  5
78F
  8
DETAIL
  6
CONTINUOUS
 62
     5
 10
44.249220000000037
 20
18.0
 30
0.0
 40
10.0
 50
90.0
 51
180.0
  0
ARC
  5
790
  8
DETAIL
  6
CONTINUOUS
 62
     5
 10
44.249220000000037
 20
18.0
 30
0.0
 40
10.0
 50
180.0
 51
270.0
  0
ARC
  5
791
  8
DETAIL
  6
CONTINUOUS
 62
     5
 10
44.249220000000037
 20
18.0
 30
0.0
 40
7.0
 50
180.0
 51
270.0
  0
ARC
  5
792
  8
DETAIL
  6
CONTINUOUS
 62
     5
 10
44.249220000000037
 20
18.0
 30
0.0
 40
7.0
 50
90.0
 51
180.0
  0
LINE
  5
793
  8
DETAIL
  6
CONTINUOUS
 62
     5
 10
75.249220000000022
 20
18.0
 30
0.0
 11
75.249220000000022
 21
18.0
 31
0.0
  0
ARC
  5
794
  8
DETAIL
  6
CONTINUOUS
 62
     5
 10
65.249220000000037
 20
18.0
 30
0.0
 40
10.0
 50
0.0
 51
90.0
  0
ARC
  5
795
  8
DETAIL
  6
CONTINUOUS
 62
     5
 10
65.249220000000037
 20
18.0
 30
0.0
 40
10.0
 50
270.0
 51
0.0
  0
ARC
  5
796
  8
DETAIL
  6
CONTINUOUS
 62
     5
 10
65.249220000000037
 20
18.0
 30
0.0
 40
7.0
 50
0.0
 51
90.0
  0
ARC
  5
797
  8
DETAIL
  6
CONTINUOUS
 62
     5
 10
65.249220000000037
 20
18.0
 30
0.0
 40
7.0
 50
270.0
 51
0.0
  0
TEXT
  5
8DD
  8
ETC
  6
CONTINUOUS
 62
    61
 10
1132.9450956250639
 20
586.10699630938416
 30
0.0
 40
45.0
  1
VD-20ZX8-W
 41
0.9
  0
TEXT
  5
8DE
  8
ETC
  6
CONTINUOUS
 62
    61
 10
1130.2311407237421
 20
659.35514350882136
 30
0.0
 40
45.0
  1
VD-18ZXP8-W
 41
0.9
  0
TEXT
  5
8DF
  8
ETC
  6
CONTINUOUS
 62
    61
 10
1127.5171786188421
 20
732.66321316845335
 30
0.0
 40
45.0
  1
VD-18ZA8-W
 41
0.9
  0
ENDSEC
  0
EOF
