  0
SECTION
  2
HEADER
  9
$ACADVER
  1
AC1009
  9
$DWGCODEPAGE
  3
dos932
  9
$INSBASE
 10
0.0
 20
0.0
 30
0.0
  9
$EXTMIN
 10
-697.13445041732484
 20
-646.31651684911594
 30
-0.0038144062317542
  9
$EXTMAX
 10
914.36484096977256
 20
946.56372913923587
 30
0.0057221914242405
  9
$LIMMIN
 10
-2970.0
 20
-2100.0
  9
$LIMMAX
 10
2970.0
 20
2100.0
  9
$ORTHOMODE
 70
     1
  9
$REGENMODE
 70
     1
  9
$FILLMODE
 70
     1
  9
$QTEXTMODE
 70
     0
  9
$MIRRTEXT
 70
     0
  9
$LTSCALE
 40
20.0
  9
$ATTMODE
 70
     1
  9
$TEXTSIZE
 40
64.0
  9
$TRACEWID
 40
0.05
  9
$TEXTSTYLE
  7
STANDARD
  9
$CLAYER
  8
OUTLINE
  9
$CELTYPE
  6
CONTINUOUS
  9
$CECOLOR
 62
     7
  9
$DIMSCALE
 40
1.0
  9
$DIMASZ
 40
12.0
  9
$DIMEXO
 40
20.0
  9
$DIMDLI
 40
200.0
  9
$DIMRND
 40
0.0
  9
$DIMDLE
 40
0.0
  9
$DIMEXE
 40
20.0
  9
$DIMTP
 40
0.0
  9
$DIMTM
 40
0.0
  9
$DIMTXT
 40
64.0
  9
$DIMCEN
 40
0.09
  9
$DIMTSZ
 40
0.0
  9
$DIMTOL
 70
     0
  9
$DIMLIM
 70
     0
  9
$DIMTIH
 70
     0
  9
$DIMTOH
 70
     0
  9
$DIMSE1
 70
     0
  9
$DIMSE2
 70
     0
  9
$DIMTAD
 70
     1
  9
$DIMZIN
 70
     8
  9
$DIMBLK
  1

  9
$DIMASO
 70
     1
  9
$DIMSHO
 70
     0
  9
$DIMPOST
  1

  9
$DIMAPOST
  1

  9
$DIMALT
 70
     0
  9
$DIMALTD
 70
     2
  9
$DIMALTF
 40
25.399999999999999
  9
$DIMLFAC
 40
1.0
  9
$DIMTOFL
 70
     1
  9
$DIMTVP
 40
0.0
  9
$DIMTIX
 70
     1
  9
$DIMSOXD
 70
     0
  9
$DIMSAH
 70
     0
  9
$DIMBLK1
  1

  9
$DIMBLK2
  1

  9
$DIMSTYLE
  2
STANDARD
  9
$DIMCLRD
 70
     7
  9
$DIMCLRE
 70
     7
  9
$DIMCLRT
 70
     7
  9
$DIMTFAC
 40
1.0
  9
$DIMGAP
 40
25.0
  9
$LUNITS
 70
     2
  9
$LUPREC
 70
     4
  9
$SKETCHINC
 40
0.1
  9
$FILLETRAD
 40
3.0
  9
$AUNITS
 70
     1
  9
$AUPREC
 70
     3
  9
$MENU
  1
ACAD
  9
$ELEVATION
 40
0.0
  9
$PELEVATION
 40
0.0
  9
$THICKNESS
 40
50.0
  9
$LIMCHECK
 70
     0
  9
$CHAMFERA
 40
0.0
  9
$CHAMFERB
 40
0.0
  9
$SKPOLY
 70
     0
  9
$TDCREATE
 40
2453019.62301037
  9
$TDUPDATE
 40
2458899.500293866
  9
$TDINDWG
 40
1.8941548843
  9
$TDUSRTIMER
 40
1.8941548843
  9
$USRTIMER
 70
     1
  9
$ANGBASE
 50
0.0
  9
$ANGDIR
 70
     0
  9
$PDMODE
 70
     3
  9
$PDSIZE
 40
-2.0
  9
$PLINEWID
 40
0.0
  9
$SPLFRAME
 70
     0
  9
$SPLINETYPE
 70
     6
  9
$SPLINESEGS
 70
     8
  9
$SURFTAB1
 70
     6
  9
$SURFTAB2
 70
     6
  9
$SURFTYPE
 70
     6
  9
$SURFU
 70
     6
  9
$SURFV
 70
     6
  9
$UCSNAME
  2

  9
$UCSORG
 10
0.0
 20
0.0
 30
0.0
  9
$UCSXDIR
 10
1.0
 20
0.0
 30
0.0
  9
$UCSYDIR
 10
0.0
 20
1.0
 30
0.0
  9
$PUCSNAME
  2

  9
$PUCSORG
 10
0.0
 20
0.0
 30
0.0
  9
$PUCSXDIR
 10
1.0
 20
0.0
 30
0.0
  9
$PUCSYDIR
 10
0.0
 20
1.0
 30
0.0
  9
$USERI1
 70
     0
  9
$USERI2
 70
     0
  9
$USERI3
 70
     0
  9
$USERI4
 70
     0
  9
$USERI5
 70
     0
  9
$USERR1
 40
20.0
  9
$USERR2
 40
0.0
  9
$USERR3
 40
0.0
  9
$USERR4
 40
0.0
  9
$USERR5
 40
0.0
  9
$WORLDVIEW
 70
     1
  9
$SHADEDGE
 70
     3
  9
$SHADEDIF
 70
    70
  9
$TILEMODE
 70
     1
  9
$MAXACTVP
 70
    48
  9
$PINSBASE
 10
0.0
 20
0.0
 30
0.0
  9
$PLIMCHECK
 70
     0
  9
$PEXTMIN
 10
-100000000000000000000.0
 20
-100000000000000000000.0
 30
-100000000000000000000.0
  9
$PEXTMAX
 10
100000000000000000000.0
 20
100000000000000000000.0
 30
100000000000000000000.0
  9
$PLIMMIN
 10
0.0
 20
0.0
  9
$PLIMMAX
 10
12.0
 20
9.0
  9
$UNITMODE
 70
     0
  9
$VISRETAIN
 70
     0
  9
$PLINEGEN
 70
     0
  9
$PSLTSCALE
 70
     0
  9
$TREEDEPTH
 70
  3020
  9
$ATTDIA
 70
     0
  9
$ATTREQ
 70
     1
  9
$BLIPMODE
 70
     1
  9
$COORDS
 70
     1
  9
$DRAGMODE
 70
     2
  9
$OSMODE
 70
     0
  9
$HANDLING
 70
     0
  9
$HANDSEED
  5
289EA
  0
ENDSEC
  0
SECTION
  2
TABLES
  0
TABLE
  2
LTYPE
 70
     3
  0
LTYPE
  2
CONTINUOUS
 70
     0
  3
実線
 72
    65
 73
     0
 40
0.0
  0
LTYPE
  2
DASHDOT
 70
     0
  3
____ _ ____ _ ____ _ ____ _ ____ _ ____ _ ____
 72
    65
 73
     4
 40
5.5
 49
4.0
 49
-0.6
 49
0.3
 49
-0.6
  0
LTYPE
  2
DASHED
 70
     0
  3
-- -- -- -- -- -- -- -- -- -- -- -- -- -- --
 72
    65
 73
     2
 40
0.75
 49
0.5
 49
-0.25
  0
ENDTAB
  0
TABLE
  2
LAYER
 70
    12
  0
LAYER
  2
0
 70
     0
 62
     7
  6
CONTINUOUS
  0
LAYER
  2
BASIS
 70
     0
 62
     6
  6
DASHDOT
  0
LAYER
  2
OUTLINE
 70
     0
 62
     3
  6
CONTINUOUS
  0
LAYER
  2
DETAIL
 70
     0
 62
     5
  6
CONTINUOUS
  0
LAYER
  2
SIZE
 70
     0
 62
    30
  6
CONTINUOUS
  0
LAYER
  2
ARRANGE
 70
     0
 62
     1
  6
CONTINUOUS
  0
LAYER
  2
DEFPOINTS
 70
     0
 62
     7
  6
CONTINUOUS
  0
LAYER
  2
ETC
 70
     0
 62
    61
  6
CONTINUOUS
  0
LAYER
  2
FIX
 70
     0
 62
    11
  6
CONTINUOUS
  0
LAYER
  2
NOTE
 70
     0
 62
     4
  6
CONTINUOUS
  0
LAYER
  2
SERVICESPACE
 70
    64
 62
     2
  6
DASHDOT
  0
LAYER
  2
SYMBOLLINE
 70
    64
 62
    15
  6
CONTINUOUS
  0
ENDTAB
  0
TABLE
  2
STYLE
 70
     1
  0
STYLE
  2
STANDARD
 70
     0
 40
64.0
 41
0.9
 50
0.0
 71
     0
 42
64.0
  3
SIMPLEX.shx
  4
BIGFONT.shx
  0
ENDTAB
  0
TABLE
  2
APPID
 70
    17
  0
APPID
  2
ACAD
 70
     0
  0
APPID
  2
AUTOCAD_POSTSCRIPT_FIGURE
 70
     0
  0
APPID
  2
ACAD_EXEMPT_FROM_CAD_STANDARDS
 70
     0
  0
APPID
  2
ACAD_PSEXT
 70
     0
  0
APPID
  2
ACAUTHENVIRON
 70
     0
  0
APPID
  2
GENIUS_GENOENT_13
 70
     0
  0
APPID
  2
GENIUS_GENCFG_13
 70
     0
  0
APPID
  2
GENIUS_GENCFG0_13
 70
     0
  0
APPID
  2
GENIUS_GENCFG1_13
 70
     0
  0
APPID
  2
GENIUS_GENCFG2_13
 70
     0
  0
APPID
  2
GENIUS_GENCFG3_13
 70
     0
  0
APPID
  2
GENIUS_GENCFG4_13
 70
     0
  0
APPID
  2
GENIUS_GEVCFG0_13
 70
     0
  0
APPID
  2
CONTENTBLOCKICON
 70
     0
  0
APPID
  2
CONTENTBLOCKDESCRIPTION
 70
     0
  0
APPID
  2
ACAD_NAV_VCDISPLAY
 70
     0
  0
APPID
  2
ACAD_MLEADERVER
 70
     0
  0
ENDTAB
  0
TABLE
  2
DIMSTYLE
 70
     1
  0
DIMSTYLE
  2
STANDARD
 70
     0
  3

  4

  5
_ORIGIN
  6

  7

 40
1.0
 41
12.0
 42
20.0
 43
200.0
 44
20.0
 45
0.0
 46
0.0
 47
0.0
 48
0.0
140
64.0
141
0.09
142
0.0
143
25.399999999999999
144
1.0
145
0.0
146
1.0
147
25.0
 71
     0
 72
     0
 73
     0
 74
     0
 75
     0
 76
     0
 77
     1
 78
     8
170
     0
171
     2
172
     1
173
     0
174
     1
175
     0
176
     7
177
     7
178
     7
  0
ENDTAB
  0
TABLE
  2
VIEW
 70
     1
  0
VIEW
  2
ALL
 70
     0
 40
4282.6198079999986
 10
0.0
 20
41.309904000000003
 41
5940.0
 11
0.0
 21
0.0
 31
1.0
 12
0.0
 22
0.0
 32
0.0
 42
50.0
 43
0.0
 44
0.0
 50
0.0
 71
     0
  0
ENDTAB
  0
TABLE
  2
UCS
 70
     0
  0
ENDTAB
  0
TABLE
  2
VPORT
 70
     1
  0
VPORT
  2
*ACTIVE
 70
     0
 10
0.0
 20
0.0
 11
1.0
 21
1.0
 12
108.6151952762239
 22
150.12360614505999
 13
0.0
 23
0.0
 14
1.0
 24
1.0
 15
0.0
 25
0.0
 16
0.0
 26
0.0
 36
1.0
 17
0.0
 27
0.0
 37
0.0
 40
1602.7534706535689
 41
1.6339193381592549
 42
50.0
 43
0.0
 44
0.0
 50
0.0
 51
0.0
 71
     0
 72
  1000
 73
     1
 74
     3
 75
     0
 76
     0
 77
     0
 78
     0
  0
ENDTAB
  0
ENDSEC
  0
SECTION
  2
BLOCKS
  0
BLOCK
  8
0
  2
_ORIGIN
 70
     0
 10
0.0
 20
0.0
 30
0.0
  3
_ORIGIN
  1
_ORIGIN
  0
CIRCLE
  8
0
  6
CONTINUOUS
 62
     7
 10
0.0
 20
0.0
 30
0.0
 40
0.5
  0
LINE
  8
0
  6
CONTINUOUS
 62
     7
 10
0.0
 20
0.0
 30
0.0
 11
-1.0
 21
0.0
 31
0.0
  0
ENDBLK
  8
0
  0
ENDSEC
  0
SECTION
  2
ENTITIES
  0
TEXT
  8
ETC
  6
CONTINUOUS
 62
    61
 10
316.29768732764592
 20
867.00445320296967
 30
0.0
 40
64.0
  1
VD-18ZB13_2
 41
0.9
  0
TEXT
  8
ETC
  6
CONTINUOUS
 62
    61
 10
313.93050932764572
 20
762.22318772729705
 30
0.0
 40
64.0
  1
換気扇
 41
0.9
  0
TEXT
  8
ETC
  6
CONTINUOUS
 62
    61
 10
398.29145067112682
 20
679.15573347856071
 30
0.0
 40
40.0
  1
VD-18ZB13
 41
0.9
  0
TEXT
  8
ETC
  6
CONTINUOUS
 62
    61
 10
398.29145067112682
 20
613.15573347856071
 30
0.0
 40
40.0
  1
VD-20ZB13
 41
0.9
  0
POINT
  8
ARRANGE
  6
CONTINUOUS
 62
     1
 10
0.0
 20
0.0
 30
0.0
  0
LINE
  8
OUTLINE
  6
CONTINUOUS
 62
     3
 10
195.0
 20
0.0
 30
0.0
 11
-195.0
 21
0.0
 31
0.0
  0
LINE
  8
OUTLINE
  6
DASHED
 62
     3
 10
16.5
 20
200.0
 30
0.0
 11
-153.5
 21
200.0
 31
0.0
  0
LINE
  8
BASIS
  6
DASHDOT
 62
     6
 10
38.573747999999803
 20
135.0
 30
0.0
 11
-212.15688
 21
135.0
 31
0.0
  0
ARC
  8
DETAIL
  6
CONTINUOUS
 62
     5
 10
-36.0
 20
186.0
 30
0.0
 40
30.0
 50
0.0
 51
90.0
  0
ARC
  8
DETAIL
  6
CONTINUOUS
 62
     5
 10
-36.0
 20
84.0
 30
0.0
 40
30.0
 50
270.0
 51
0.0
  0
LINE
  8
DETAIL
  6
CONTINUOUS
 62
     5
 10
14.5
 20
1.0
 30
0.0
 11
-153.5
 21
1.0
 31
0.0
  0
LINE
  8
DETAIL
  6
CONTINUOUS
 62
     5
 10
16.5
 20
229.0
 30
0.0
 11
-159.50000363832709
 21
229.0
 31
0.0
  0
LINE
  8
DETAIL
  6
CONTINUOUS
 62
     5
 10
-25.691327000000001
 20
45.407433999999967
 30
0.0
 11
3.007913999999801
 21
72.006783000000041
 31
0.0
  0
LINE
  8
DETAIL
  6
CONTINUOUS
 62
     5
 10
-25.691327000000001
 20
224.59256600000001
 30
0.0
 11
3.007913999999801
 21
197.99321699999999
 31
0.0
  0
TEXT
  8
SIZE
  6
CONTINUOUS
 62
    30
 10
-110.5371428571429
 20
754.29827811069617
 30
0.0
 40
64.0
  1
□307
 41
0.9
 72
     1
 11
0.0
 21
754.29827811069617
 31
0.0
  0
LINE
  8
SIZE
  6
CONTINUOUS
 62
    30
 10
141.5
 20
729.29827811069617
 30
0.0
 11
-141.5
 21
729.29827811069617
 31
0.0
  0
TEXT
  8
SIZE
  6
CONTINUOUS
 62
    30
 10
-74.05714285714285
 20
-466.82841384186668
 30
0.0
 40
64.0
  1
332
 41
0.9
 72
     1
 11
0.0
 21
-466.82841384186668
 31
0.0
  0
LINE
  8
SIZE
  6
CONTINUOUS
 62
    30
 10
154.0
 20
-496.16125384186671
 30
0.0
 11
-154.0
 21
-496.16125384186671
 31
0.0
  0
TEXT
  8
SIZE
  6
CONTINUOUS
 62
    30
 10
-110.5371428571428
 20
-599.66399484186695
 30
0.0
 40
64.0
  1
□390
 41
0.9
 72
     1
 11
0.0
 21
-599.66399484186695
 31
0.0
  0
LINE
  8
SIZE
  6
CONTINUOUS
 62
    30
 10
183.0
 20
-626.13046784186679
 30
0.0
 11
-183.0
 21
-626.13046784186679
 31
0.0
  0
TEXT
  8
SIZE
  6
CONTINUOUS
 62
    30
 10
-61.714285714285708
 20
882.33896011069601
 30
0.0
 40
64.0
  1
341
 41
0.9
 72
     1
 11
0.0
 21
882.33896011069601
 31
0.0
  0
LINE
  8
SIZE
  6
CONTINUOUS
 62
    30
 10
158.5
 20
861.27992711069601
 30
0.0
 11
-158.5
 21
861.27992711069601
 31
0.0
  0
LINE
  8
SIZE
  6
CONTINUOUS
 62
    30
 10
52.000001999999768
 20
593.80764400000021
 30
0.0
 11
-6.0
 21
593.80764400000021
 31
0.0
  0
TEXT
  8
SIZE
  6
CONTINUOUS
 62
    30
 10
-74.05714285714285
 20
-181.2632173764093
 30
0.0
 40
64.0
  1
200
 41
0.9
 72
     1
 11
0.0
 21
-181.2632173764093
 31
0.0
  0
LINE
  8
SIZE
  6
CONTINUOUS
 62
    30
 10
88.0
 20
-203.20076137640939
 30
0.0
 11
-88.0
 21
-203.20076137640939
 31
0.0
  0
LINE
  8
DETAIL
  6
CONTINUOUS
 62
     5
 10
-12.940000000000049
 20
240.9760839999999
 30
0.0
 11
23.0
 21
240.9760839999999
 31
0.0
  0
LINE
  8
DETAIL
  6
CONTINUOUS
 62
     5
 10
23.0
 20
243.0
 30
0.0
 11
-6.4689530000000559
 21
243.0
 31
0.0
  0
LINE
  8
DETAIL
  6
CONTINUOUS
 62
     5
 10
165.1349129999999
 20
-18.0
 30
0.0
 11
-165.1349129999999
 21
-18.0
 31
0.0
  0
LINE
  8
DETAIL
  6
CONTINUOUS
 62
     5
 10
148.5
 20
-10.0
 30
0.0
 11
-148.5
 21
-10.0
 31
0.0
  0
LINE
  8
DETAIL
  6
CONTINUOUS
 62
     5
 10
195.0
 20
0.0
 30
0.0
 11
-195.0
 21
0.0
 31
0.0
  0
CIRCLE
  8
ARRANGE
  6
CONTINUOUS
 62
     1
 10
0.0
 20
0.0
 30
0.0
 40
40.0
  0
LINE
  8
OUTLINE
  6
CONTINUOUS
 62
     3
 10
-153.5
 20
0.0
 30
0.0
 11
-153.5
 21
43.0
 31
0.0
  0
LINE
  8
SIZE
  6
CONTINUOUS
 62
    30
 10
-591.75602025052012
 20
0.0
 30
0.0
 11
-591.75602025052012
 21
12.0
 31
0.0
  0
CIRCLE
  8
SIZE
  6
CONTINUOUS
 62
    30
 10
-591.75602025052012
 20
0.0
 30
0.0
 40
6.0
  0
LINE
  8
SIZE
  6
CONTINUOUS
 62
    30
 10
-591.75602025052012
 20
0.0
 30
0.0
 11
-591.75602025052012
 21
12.0
 31
0.0
  0
CIRCLE
  8
SIZE
  6
CONTINUOUS
 62
    30
 10
-591.75602025052012
 20
0.0
 30
0.0
 40
6.0
  0
LINE
  8
SIZE
  6
CONTINUOUS
 62
    30
 10
-443.31120999999979
 20
0.0
 30
0.0
 11
-443.31120999999979
 21
12.0
 31
0.0
  0
CIRCLE
  8
SIZE
  6
CONTINUOUS
 62
    30
 10
-443.31120999999979
 20
0.0
 30
0.0
 40
6.0
  0
LINE
  8
NOTE
  6
CONTINUOUS
 62
     4
 10
-100.0
 20
-18.0
 30
0.0
 11
-100.0
 21
20.0
 31
0.0
  0
LINE
  8
NOTE
  6
CONTINUOUS
 62
     4
 10
-166.0
 20
-18.0
 30
0.0
 11
-166.0
 21
20.0
 31
0.0
  0
CIRCLE
  8
FIX
  6
CONTINUOUS
 62
    11
 10
-166.0
 20
0.0
 30
0.0
 40
2.5
  0
CIRCLE
  8
FIX
  6
CONTINUOUS
 62
    11
 10
-100.0
 20
0.0
 30
0.0
 40
2.5
  0
LINE
  8
DETAIL
  6
CONTINUOUS
 62
     5
 10
-153.5
 20
0.0
 30
0.0
 11
-153.5
 21
50.0
 31
0.0
  0
LINE
  8
BASIS
  6
DASHDOT
 62
     6
 10
0.0
 20
-84.105973137602632
 30
0.0
 11
0.0
 21
300.0
 31
0.0
  0
LINE
  8
SIZE
  6
CONTINUOUS
 62
    30
 10
-215.0
 20
0.0
 30
0.0
 11
-592.77669999999989
 21
0.0
 31
0.0
  0
LINE
  8
NOTE
  6
CONTINUOUS
 62
     4
 10
-290.48172100000011
 20
-322.49819100000002
 30
0.0
 11
-679.558761
 21
-322.49819100000002
 31
0.0
  0
TEXT
  8
NOTE
  6
CONTINUOUS
 62
     4
 10
-667.67237999999975
 20
-289.53392000000008
 30
0.0
 40
64.0
  1
8-φ5×8
 41
0.9
  0
LINE
  8
SIZE
  6
CONTINUOUS
 62
    30
 10
-176.5
 20
-18.0
 30
0.0
 11
-611.75602025052012
 21
-18.0
 31
0.0
  0
LINE
  8
SIZE
  6
CONTINUOUS
 62
    30
 10
-215.0
 20
0.0
 30
0.0
 11
-611.75602025052012
 21
0.0
 31
0.0
  0
LINE
  8
SIZE
  6
CONTINUOUS
 62
    30
 10
-215.0
 20
0.0
 30
0.0
 11
-611.75602025052012
 21
0.0
 31
0.0
  0
TEXT
  8
SIZE
  6
CONTINUOUS
 62
    30
 10
-616.75602025052012
 20
-164.251792142857
 30
0.0
 40
64.0
  1
18
 50
90.0
 41
0.9
 72
     1
 11
-616.75602025052012
 21
-123.1089349999999
 31
0.0
  0
LINE
  8
SIZE
  6
CONTINUOUS
 62
    30
 10
-591.75602025052012
 20
-194.73750599999991
 30
0.0
 11
-591.75602025052012
 21
-20.0
 31
0.0
  0
LINE
  8
SIZE
  6
CONTINUOUS
 62
    30
 10
-591.75602025052012
 20
-20.0
 30
0.0
 11
-591.75602025052012
 21
-32.0
 31
0.0
  0
CIRCLE
  8
SIZE
  6
CONTINUOUS
 62
    30
 10
-591.75602025052012
 20
-20.0
 30
0.0
 40
6.0
  0
LINE
  8
SIZE
  6
CONTINUOUS
 62
    30
 10
-591.75602025052012
 20
0.0
 30
0.0
 11
-591.75602025052012
 21
-20.0
 31
0.0
  0
LINE
  8
SIZE
  6
CONTINUOUS
 62
    30
 10
-591.75602025052012
 20
0.0
 30
0.0
 11
-591.75602025052012
 21
-20.0
 31
0.0
  0
LINE
  8
SIZE
  6
CONTINUOUS
 62
    30
 10
-591.75602025052012
 20
-32.0
 30
0.0
 11
-591.75602025052012
 21
-44.0
 31
0.0
  0
LINE
  8
SIZE
  6
CONTINUOUS
 62
    30
 10
-166.0
 20
-40.0
 30
0.0
 11
-166.0
 21
-516.16125384186671
 31
0.0
  0
LINE
  8
SIZE
  6
CONTINUOUS
 62
    30
 10
-195.0
 20
-26.553879000000052
 30
0.0
 11
-195.0
 21
-646.13046784186679
 31
0.0
  0
LINE
  8
SIZE
  6
CONTINUOUS
 62
    30
 10
-100.0
 20
-40.0
 30
0.0
 11
-100.0
 21
-223.20076137640939
 31
0.0
  0
CIRCLE
  8
SIZE
  6
CONTINUOUS
 62
    30
 10
-166.0
 20
-496.16125384186671
 30
0.0
 40
6.0
  0
LINE
  8
SIZE
  6
CONTINUOUS
 62
    30
 10
-195.0
 20
-626.13046784186679
 30
0.0
 11
-183.0
 21
-626.13046784186679
 31
0.0
  0
CIRCLE
  8
SIZE
  6
CONTINUOUS
 62
    30
 10
-195.0
 20
-626.13046784186679
 30
0.0
 40
6.0
  0
LINE
  8
SIZE
  6
CONTINUOUS
 62
    30
 10
-166.0
 20
-496.16125384186671
 30
0.0
 11
-154.0
 21
-496.16125384186671
 31
0.0
  0
LINE
  8
SIZE
  6
CONTINUOUS
 62
    30
 10
-100.0
 20
-203.20076137640939
 30
0.0
 11
-88.0
 21
-203.20076137640939
 31
0.0
  0
CIRCLE
  8
SIZE
  6
CONTINUOUS
 62
    30
 10
-100.0
 20
-203.20076137640939
 30
0.0
 40
6.0
  0
LINE
  8
NOTE
  6
CONTINUOUS
 62
     4
 10
-166.0
 20
-0.0544280000000299
 30
0.0
 11
-290.48172100000011
 21
-322.49819100000002
 31
0.0
  0
LINE
  8
SIZE
  6
CONTINUOUS
 62
    30
 10
-215.0
 20
0.0
 30
0.0
 11
-463.31120999999979
 21
0.0
 31
0.0
  0
LINE
  8
NOTE
  6
CONTINUOUS
 62
     4
 10
-120.0
 20
0.0
 30
0.0
 11
-80.0
 21
0.0
 31
0.0
  0
LINE
  8
NOTE
  6
CONTINUOUS
 62
     4
 10
-166.0
 20
0.0
 30
0.0
 11
-190.2250490000001
 21
-31.829969999999999
 31
0.0
  0
LINE
  8
NOTE
  6
CONTINUOUS
 62
     4
 10
-186.0
 20
0.0
 30
0.0
 11
-146.0
 21
0.0
 31
0.0
  0
ARC
  8
DETAIL
  6
CONTINUOUS
 62
     5
 10
-162.52209500000029
 20
55.303926999999931
 30
0.0
 40
73.225695999999999
 50
253.5285969999905
 51
263.01776900000442
  0
LINE
  8
DETAIL
  6
CONTINUOUS
 62
     5
 10
-151.5
 20
-10.0
 30
0.0
 11
-194.75239999999999
 21
-10.0
 31
0.0
  0
LINE
  8
DETAIL
  6
CONTINUOUS
 62
     5
 10
-195.0
 20
-8.5538790000000517
 30
0.0
 11
-195.0
 21
0.0
 31
0.0
  0
ARC
  8
DETAIL
  6
CONTINUOUS
 62
     5
 10
-180.37034085274129
 20
14.0302731222323
 30
0.0
 40
29.093255285669919
 50
243.88031000594921
 51
264.25171474150233
  0
ARC
  8
DETAIL
  6
CONTINUOUS
 62
     5
 10
-190.65313000000009
 20
-8.5538820000000442
 30
0.0
 40
4.34687
 50
180.0
 51
234.48039799999731
  0
LINE
  8
NOTE
  6
CONTINUOUS
 62
     4
 10
-171.0645220000001
 20
-39.678086999999998
 30
0.0
 11
-166.0
 21
0.0
 31
0.0
  0
ARC
  8
DETAIL
  6
CONTINUOUS
 62
     5
 10
-155.000145
 20
116.721689
 30
0.0
 40
135.10235800000001
 50
263.01771400000331
 51
265.69788799999469
  0
LINE
  8
DETAIL
  6
CONTINUOUS
 62
     5
 10
-151.5
 20
-18.0
 30
0.0
 11
-151.5
 21
0.0
 31
0.0
  0
LINE
  8
DETAIL
  6
CONTINUOUS
 62
     5
 10
-148.5
 20
-18.0
 30
0.0
 11
-148.5
 21
0.0
 31
0.0
  0
POINT
  8
DEFPOINTS
  6
CONTINUOUS
 62
    30
 10
0.0
 20
-40.0
 30
0.0
  0
LINE
  8
SIZE
  6
CONTINUOUS
 62
    30
 10
-153.5
 20
228.0
 30
0.0
 11
-153.5
 21
633.30105711069609
 31
0.0
  0
LINE
  8
SIZE
  6
CONTINUOUS
 62
    30
 10
-153.5
 20
228.0
 30
0.0
 11
-153.5
 21
633.30105711069609
 31
0.0
  0
LINE
  8
SIZE
  6
CONTINUOUS
 62
    30
 10
-153.5
 20
228.0
 30
0.0
 11
-153.5
 21
749.29827811069617
 31
0.0
  0
LINE
  8
SIZE
  6
CONTINUOUS
 62
    30
 10
-170.5
 20
248.0
 30
0.0
 11
-170.5
 21
881.27992711069601
 31
0.0
  0
TEXT
  8
NOTE
  6
CONTINUOUS
 62
     4
 10
246.14950769200851
 20
307.81383671247892
 30
0.0
 40
64.0
  1
AH 4
 41
0.9
  0
LINE
  8
NOTE
  6
CONTINUOUS
 62
     4
 10
474.16853582451859
 20
277.85685471247888
 30
0.0
 11
232.9099643864738
 21
277.85685471247888
 31
0.0
  0
LINE
  8
SIZE
  6
CONTINUOUS
 62
    30
 10
-1.852011999999831
 20
243.0
 30
0.0
 11
-611.75602025052012
 21
243.0
 31
0.0
  0
TEXT
  8
SIZE
  6
CONTINUOUS
 62
    30
 10
-616.75602025052012
 20
47.44285714285715
 30
0.0
 40
64.0
  1
243
 50
90.0
 41
0.9
 72
     1
 11
-616.75602025052012
 21
121.5
 31
0.0
  0
LINE
  8
SIZE
  6
CONTINUOUS
 62
    30
 10
-591.75602025052012
 20
12.0
 30
0.0
 11
-591.75602025052012
 21
231.0
 31
0.0
  0
LINE
  8
SIZE
  6
CONTINUOUS
 62
    30
 10
-591.75602025052012
 20
12.0
 30
0.0
 11
-591.75602025052012
 21
24.0
 31
0.0
  0
CIRCLE
  8
SIZE
  6
CONTINUOUS
 62
    30
 10
-591.75602025052012
 20
243.0
 30
0.0
 40
6.0
  0
LINE
  8
SIZE
  6
CONTINUOUS
 62
    30
 10
-591.75602025052012
 20
243.0
 30
0.0
 11
-591.75602025052012
 21
231.0
 31
0.0
  0
TEXT
  8
SIZE
  6
CONTINUOUS
 62
    30
 10
-465.28159299999987
 20
5.2338394285714998
 30
0.0
 40
64.0
  1
135
 50
90.0
 41
0.9
 72
     1
 11
-465.28159299999987
 21
73.805268000000069
 31
0.0
  0
LINE
  8
SIZE
  6
CONTINUOUS
 62
    30
 10
-18.0
 20
253.34421399999999
 30
0.0
 11
-18.0
 21
613.80764399999975
 31
0.0
  0
LINE
  8
NOTE
  6
CONTINUOUS
 62
     4
 10
170.5
 20
207.0
 30
0.0
 11
232.9099643864738
 21
277.85685471247888
 31
0.0
  0
LINE
  8
SIZE
  6
CONTINUOUS
 62
    30
 10
-232.1568799999994
 20
135.0
 30
0.0
 11
-463.31120999999979
 21
135.0
 31
0.0
  0
LINE
  8
SIZE
  6
CONTINUOUS
 62
    30
 10
-443.31120999999979
 20
12.0
 30
0.0
 11
-443.31120999999979
 21
123.0
 31
0.0
  0
LINE
  8
SIZE
  6
CONTINUOUS
 62
    30
 10
-443.31120999999979
 20
135.0
 30
0.0
 11
-443.31120999999979
 21
123.0
 31
0.0
  0
CIRCLE
  8
SIZE
  6
CONTINUOUS
 62
    30
 10
-443.31120999999979
 20
135.0
 30
0.0
 40
6.0
  0
LINE
  8
OUTLINE
  6
DASHED
 62
     3
 10
-153.5
 20
43.0
 30
0.0
 11
-153.5
 21
200.0
 31
0.0
  0
LINE
  8
DETAIL
  6
CONTINUOUS
 62
     5
 10
-166.0
 20
186.00000000000679
 30
0.0
 11
-166.0
 21
84.0
 31
0.0
  0
LINE
  8
DETAIL
  6
CONTINUOUS
 62
     5
 10
-6.0
 20
186.0
 30
0.0
 11
-6.0
 21
84.0
 31
0.0
  0
CIRCLE
  8
DETAIL
  6
CONTINUOUS
 62
     5
 10
-86.0
 20
135.0
 30
0.0
 40
72.0
  0
CIRCLE
  8
DETAIL
  6
CONTINUOUS
 62
     5
 10
-86.0
 20
135.0
 30
0.0
 40
76.0
  0
LINE
  8
DETAIL
  6
CONTINUOUS
 62
     5
 10
-179.5
 20
71.437516834962935
 30
0.0
 11
-179.5
 21
207.0
 31
0.0
  0
LINE
  8
DETAIL
  6
CONTINUOUS
 62
     5
 10
-177.5
 20
85.0
 30
0.0
 11
-177.5
 21
190.4006509999999
 31
0.0
  0
LINE
  8
BASIS
  6
DASHDOT
 62
     6
 10
-86.0
 20
27.787792000000081
 30
0.0
 11
-86.0
 21
240.0681720000002
 31
0.0
  0
LINE
  8
DETAIL
  6
CONTINUOUS
 62
     5
 10
-36.0
 20
54.0
 30
0.0
 11
-136.0
 21
54.0
 31
0.0
  0
LINE
  8
DETAIL
  6
CONTINUOUS
 62
     5
 10
-32.199241000000256
 20
43.0
 30
0.0
 11
-138.80075899999969
 21
43.0
 31
0.0
  0
LINE
  8
DETAIL
  6
CONTINUOUS
 62
     5
 10
-32.199241000000256
 20
43.0
 30
0.0
 11
-138.80075899999969
 21
43.0
 31
0.0
  0
TEXT
  8
NOTE
  6
CONTINUOUS
 62
     4
 10
-129.09128999999979
 20
93.436005000000023
 30
0.0
 40
64.0
  1
EA
 41
0.9
  0
ARC
  8
DETAIL
  6
CONTINUOUS
 62
     5
 10
-136.0
 20
84.0
 30
0.0
 40
30.0
 50
180.0
 51
270.0
  0
LINE
  8
DETAIL
  6
CONTINUOUS
 62
     5
 10
-177.5
 20
85.0
 30
0.0
 11
-177.5
 21
79.599349000000075
 31
0.0
  0
ARC
  8
DETAIL
  6
CONTINUOUS
 62
     5
 10
-157.70935300000019
 20
71.71876999999995
 30
0.0
 40
21.792462
 50
179.2605829999986
 51
265.28679500000482
  0
ARC
  8
DETAIL
  6
CONTINUOUS
 62
     5
 10
-167.5
 20
79.599349000000075
 30
0.0
 40
10.0
 50
180.0
 51
229.39870499999921
  0
LINE
  8
DETAIL
  6
CONTINUOUS
 62
     5
 10
-150.2638002267004
 20
50.0
 30
0.0
 11
-159.50000363832851
 21
50.0
 31
0.0
  0
LINE
  8
DETAIL
  6
CONTINUOUS
 62
     5
 10
-137.5
 20
43.0
 30
0.0
 11
-138.80075899999969
 21
43.0
 31
0.0
  0
ARC
  8
DETAIL
  6
CONTINUOUS
 62
     5
 10
-138.80075899999969
 20
53.0
 30
0.0
 40
10.0
 50
229.39870499999921
 51
270.0
  0
LINE
  8
DETAIL
  6
CONTINUOUS
 62
     5
 10
-145.308673
 20
45.407433999999967
 30
0.0
 11
-174.0079139999998
 21
72.006783000000041
 31
0.0
  0
ARC
  8
DETAIL
  6
CONTINUOUS
 62
     5
 10
-32.199241000000256
 20
53.0
 30
0.0
 40
10.0
 50
270.0
 51
310.60129500000079
  0
LINE
  8
DETAIL
  6
CONTINUOUS
 62
     5
 10
-36.0
 20
216.0
 30
0.0
 11
-136.0
 21
216.0
 31
0.0
  0
LINE
  8
DETAIL
  6
CONTINUOUS
 62
     5
 10
-32.199241000000256
 20
227.0
 30
0.0
 11
-138.80075899999969
 21
227.0
 31
0.0
  0
ARC
  8
DETAIL
  6
CONTINUOUS
 62
     5
 10
-157.70935300000019
 20
207.28123000000011
 30
0.0
 40
21.792462
 50
94.713204999995241
 51
180.7394170000014
  0
ARC
  8
DETAIL
  6
CONTINUOUS
 62
     5
 10
-167.5
 20
190.4006509999999
 30
0.0
 40
10.0
 50
130.60129500000079
 51
180.0
  0
LINE
  8
NOTE
  6
CONTINUOUS
 62
     4
 10
170.5
 20
207.0
 30
0.0
 11
189.06566100000009
 21
242.43044199999991
 31
0.0
  0
LINE
  8
NOTE
  6
CONTINUOUS
 62
     4
 10
204.29355600000011
 20
228.40083199999981
 30
0.0
 11
170.5
 21
207.0
 31
0.0
  0
CIRCLE
  8
FIX
  6
CONTINUOUS
 62
    11
 10
-170.5
 20
207.0
 30
0.0
 40
7.5
  0
LINE
  8
NOTE
  6
CONTINUOUS
 62
     4
 10
-190.5
 20
207.0
 30
0.0
 11
-150.5
 21
207.0
 31
0.0
  0
LINE
  8
DETAIL
  6
CONTINUOUS
 62
     5
 10
-185.75
 20
203.5
 30
0.0
 11
-179.5
 21
203.5
 31
0.0
  0
LINE
  8
DETAIL
  6
CONTINUOUS
 62
     5
 10
-185.75
 20
207.0
 30
0.0
 11
-179.5
 21
207.0
 31
0.0
  0
LINE
  8
DETAIL
  6
CONTINUOUS
 62
     5
 10
-185.75
 20
207.0
 30
0.0
 11
-185.75
 21
203.5
 31
0.0
  0
ARC
  8
DETAIL
  6
CONTINUOUS
 62
     5
 10
-136.0
 20
186.0
 30
0.0
 40
30.0
 50
90.0
 51
180.0
  0
ARC
  8
DETAIL
  6
CONTINUOUS
 62
     5
 10
-138.80075899999969
 20
217.0
 30
0.0
 40
10.0
 50
90.0
 51
130.60129500000079
  0
LINE
  8
DETAIL
  6
CONTINUOUS
 62
     5
 10
-145.308673
 20
224.59256600000001
 30
0.0
 11
-174.0079139999998
 21
197.99321699999999
 31
0.0
  0
LINE
  8
DETAIL
  6
CONTINUOUS
 62
     5
 10
-138.80075899999969
 20
229.0
 30
0.0
 11
-157.5
 21
229.0
 31
0.0
  0
LINE
  8
NOTE
  6
CONTINUOUS
 62
     4
 10
-170.5
 20
187.0
 30
0.0
 11
-170.5
 21
227.0
 31
0.0
  0
ARC
  8
DETAIL
  6
CONTINUOUS
 62
     5
 10
-32.199241000000256
 20
217.0
 30
0.0
 40
10.0
 50
49.398704999999197
 51
90.0
  0
LINE
  8
DETAIL
  6
CONTINUOUS
 62
     5
 10
-18.0
 20
229.0
 30
0.0
 11
-18.0
 21
235.920312
 31
0.0
  0
ARC
  8
DETAIL
  6
CONTINUOUS
 62
     5
 10
-12.940000000000049
 20
235.91609800000009
 30
0.0
 40
5.060001999999999
 50
90.0
 51
179.99999899999861
  0
LINE
  8
DETAIL
  6
CONTINUOUS
 62
     5
 10
-7.6374700000001212
 20
240.9760839999999
 30
0.0
 11
-6.4689619999999186
 21
242.99998599999981
 31
0.0
  0
LINE
  8
SIZE
  6
CONTINUOUS
 62
    30
 10
-18.0
 20
593.80764400000021
 30
0.0
 11
-6.0
 21
593.80764400000021
 31
0.0
  0
CIRCLE
  8
SIZE
  6
CONTINUOUS
 62
    30
 10
-18.0
 20
593.80764400000021
 30
0.0
 40
6.0
  0
LINE
  8
SIZE
  6
CONTINUOUS
 62
    30
 10
-153.5
 20
729.29827811069617
 30
0.0
 11
-141.5
 21
729.29827811069617
 31
0.0
  0
CIRCLE
  8
SIZE
  6
CONTINUOUS
 62
    30
 10
-153.5
 20
729.29827811069617
 30
0.0
 40
6.0
  0
CIRCLE
  8
SIZE
  6
CONTINUOUS
 62
    30
 10
-170.5
 20
861.27992711069601
 30
0.0
 40
6.0
  0
LINE
  8
SIZE
  6
CONTINUOUS
 62
    30
 10
-170.5
 20
861.27992711069601
 30
0.0
 11
-158.5
 21
861.27992711069601
 31
0.0
  0
LINE
  8
OUTLINE
  6
CONTINUOUS
 62
     3
 10
153.5
 20
0.0
 30
0.0
 11
153.5
 21
200.0
 31
0.0
  0
LINE
  8
DETAIL
  6
CONTINUOUS
 62
     5
 10
16.5
 20
0.0
 30
0.0
 11
16.5
 21
229.0
 31
0.0
  0
LINE
  8
NOTE
  6
CONTINUOUS
 62
     4
 10
166.0
 20
-18.0
 30
0.0
 11
166.0
 21
20.0
 31
0.0
  0
CIRCLE
  8
FIX
  6
CONTINUOUS
 62
    11
 10
166.0
 20
0.0
 30
0.0
 40
2.5
  0
LINE
  8
NOTE
  6
CONTINUOUS
 62
     4
 10
100.0
 20
-18.0
 30
0.0
 11
100.0
 21
20.0
 31
0.0
  0
CIRCLE
  8
FIX
  6
CONTINUOUS
 62
    11
 10
100.0
 20
0.0
 30
0.0
 40
2.5
  0
LINE
  8
DETAIL
  6
CONTINUOUS
 62
     5
 10
14.5
 20
0.0
 30
0.0
 11
14.5
 21
229.0
 31
0.0
  0
LINE
  8
DETAIL
  6
CONTINUOUS
 62
     5
 10
153.5
 20
0.0
 30
0.0
 11
153.5
 21
207.0
 31
0.0
  0
LINE
  8
SIZE
  6
CONTINUOUS
 62
    30
 10
166.0
 20
-40.0
 30
0.0
 11
166.0
 21
-516.16125384186671
 31
0.0
  0
LINE
  8
SIZE
  6
CONTINUOUS
 62
    30
 10
195.0
 20
-26.553879000000052
 30
0.0
 11
195.0
 21
-646.13046784186679
 31
0.0
  0
LINE
  8
SIZE
  6
CONTINUOUS
 62
    30
 10
100.0
 20
-40.0
 30
0.0
 11
100.0
 21
-223.20076137640939
 31
0.0
  0
CIRCLE
  8
SIZE
  6
CONTINUOUS
 62
    30
 10
166.0
 20
-496.16125384186671
 30
0.0
 40
6.0
  0
LINE
  8
SIZE
  6
CONTINUOUS
 62
    30
 10
195.0
 20
-626.13046784186679
 30
0.0
 11
183.0
 21
-626.13046784186679
 31
0.0
  0
CIRCLE
  8
SIZE
  6
CONTINUOUS
 62
    30
 10
195.0
 20
-626.13046784186679
 30
0.0
 40
6.0
  0
LINE
  8
SIZE
  6
CONTINUOUS
 62
    30
 10
100.0
 20
-203.20076137640939
 30
0.0
 11
88.0
 21
-203.20076137640939
 31
0.0
  0
CIRCLE
  8
SIZE
  6
CONTINUOUS
 62
    30
 10
100.0
 20
-203.20076137640939
 30
0.0
 40
6.0
  0
LINE
  8
SIZE
  6
CONTINUOUS
 62
    30
 10
166.0
 20
-496.16125384186671
 30
0.0
 11
154.0
 21
-496.16125384186671
 31
0.0
  0
LINE
  8
NOTE
  6
CONTINUOUS
 62
     4
 10
80.0
 20
0.0
 30
0.0
 11
120.0
 21
0.0
 31
0.0
  0
LINE
  8
NOTE
  6
CONTINUOUS
 62
     4
 10
146.0
 20
0.0
 30
0.0
 11
186.0
 21
0.0
 31
0.0
  0
ARC
  8
DETAIL
  6
CONTINUOUS
 62
     5
 10
162.52209500000029
 20
55.303926999999931
 30
0.0
 40
73.225695999999999
 50
276.98223099999558
 51
286.4714030000095
  0
LINE
  8
DETAIL
  6
CONTINUOUS
 62
     5
 10
194.75239999999999
 20
-10.0
 30
0.0
 11
151.5
 21
-10.0
 31
0.0
  0
ARC
  8
DETAIL
  6
CONTINUOUS
 62
     5
 10
155.000145
 20
116.721689
 30
0.0
 40
135.10235800000001
 50
274.30211200000531
 51
276.98228599999669
  0
LINE
  8
DETAIL
  6
CONTINUOUS
 62
     5
 10
151.5
 20
-18.0
 30
0.0
 11
151.5
 21
0.0
 31
0.0
  0
LINE
  8
DETAIL
  6
CONTINUOUS
 62
     5
 10
148.5
 20
-18.0
 30
0.0
 11
148.5
 21
0.0
 31
0.0
  0
LINE
  8
DETAIL
  6
CONTINUOUS
 62
     5
 10
195.0
 20
-8.5538790000000517
 30
0.0
 11
195.0
 21
0.0
 31
0.0
  0
ARC
  8
DETAIL
  6
CONTINUOUS
 62
     5
 10
180.37034085274129
 20
14.0302731222323
 30
0.0
 40
29.093255285669901
 50
275.74828525849767
 51
296.11968999405082
  0
ARC
  8
DETAIL
  6
CONTINUOUS
 62
     5
 10
190.65312999999969
 20
-8.5538820000000442
 30
0.0
 40
4.34687
 50
305.51960200000269
 51
0.0
  0
LINE
  8
SIZE
  6
CONTINUOUS
 62
    30
 10
153.5
 20
228.0
 30
0.0
 11
153.5
 21
749.29827811069617
 31
0.0
  0
LINE
  8
SIZE
  6
CONTINUOUS
 62
    30
 10
170.5
 20
248.0
 30
0.0
 11
170.5
 21
881.27992711069601
 31
0.0
  0
TEXT
  8
SIZE
  6
CONTINUOUS
 62
    30
 10
-54.011889714578302
 20
618.80764400000021
 30
0.0
 40
64.0
  1
φ82
 41
0.9
 72
     1
 11
22.788110285421681
 21
618.80764400000021
 31
0.0
  0
LINE
  8
SIZE
  6
CONTINUOUS
 62
    30
 10
64.000001999999768
 20
253.33999999999969
 30
0.0
 11
64.000001999999768
 21
613.80764399999975
 31
0.0
  0
LINE
  8
NOTE
  6
CONTINUOUS
 62
     4
 10
130.0
 20
200.0
 30
0.0
 11
214.1187819925494
 21
414.20059053115278
 31
0.0
  0
LINE
  8
DETAIL
  6
CONTINUOUS
 62
     5
 10
6.5
 20
190.4006509999999
 30
0.0
 11
6.5
 21
79.599349000000075
 31
0.0
  0
LINE
  8
DETAIL
  6
CONTINUOUS
 62
     5
 10
158.75
 20
203.5
 30
0.0
 11
158.75
 21
7.0
 31
0.0
  0
ARC
  8
DETAIL
  6
CONTINUOUS
 62
     5
 10
-3.5
 20
79.599349000000075
 30
0.0
 40
10.0
 50
310.60129500000079
 51
0.0
  0
LINE
  8
DETAIL
  6
CONTINUOUS
 62
     5
 10
158.75
 20
7.0
 30
0.0
 11
153.5
 21
7.0
 31
0.0
  0
LINE
  8
OUTLINE
  6
CONTINUOUS
 62
     3
 10
153.5
 20
200.0
 30
0.0
 11
16.5
 21
200.0
 31
0.0
  0
LINE
  8
DETAIL
  6
CONTINUOUS
 62
     5
 10
153.5
 20
192.0
 30
0.0
 11
16.5
 21
192.0
 31
0.0
  0
LINE
  8
DETAIL
  6
CONTINUOUS
 62
     5
 10
153.5
 20
200.0
 30
0.0
 11
16.5
 21
200.0
 31
0.0
  0
LINE
  8
NOTE
  6
CONTINUOUS
 62
     4
 10
110.0
 20
200.0
 30
0.0
 11
150.0
 21
200.0
 31
0.0
  0
LINE
  8
DETAIL
  6
CONTINUOUS
 62
     5
 10
64.0
 20
213.0
 30
0.0
 11
16.5
 21
213.0
 31
0.0
  0
LINE
  8
DETAIL
  6
CONTINUOUS
 62
     5
 10
58.940000000000047
 20
240.9760839999999
 30
0.0
 11
23.0
 21
240.9760839999999
 31
0.0
  0
LINE
  8
DETAIL
  6
CONTINUOUS
 62
     5
 10
80.0
 20
208.0
 30
0.0
 11
16.5
 21
208.0
 31
0.0
  0
ARC
  8
DETAIL
  6
CONTINUOUS
 62
     5
 10
-3.5
 20
190.4006509999999
 30
0.0
 40
10.0
 50
0.0
 51
49.398704999999197
  0
LINE
  8
DETAIL
  6
CONTINUOUS
 62
     5
 10
53.637470000000121
 20
240.9760839999999
 30
0.0
 11
52.468961999999919
 21
242.99998599999981
 31
0.0
  0
LINE
  8
DETAIL
  6
CONTINUOUS
 62
     5
 10
23.0
 20
243.0
 30
0.0
 11
52.468953000000063
 21
243.0
 31
0.0
  0
LINE
  8
DETAIL
  6
CONTINUOUS
 62
     5
 10
23.0
 20
243.0
 30
0.0
 11
0.9200000000000728
 21
243.0
 31
0.0
  0
LINE
  8
DETAIL
  6
CONTINUOUS
 62
     5
 10
0.9200000000000728
 20
240.9760839999999
 30
0.0
 11
23.0
 21
240.9760839999999
 31
0.0
  0
LINE
  8
DETAIL
  6
CONTINUOUS
 62
     5
 10
88.0
 20
200.0
 30
0.0
 11
80.0
 21
208.0
 31
0.0
  0
LINE
  8
DETAIL
  6
CONTINUOUS
 62
     5
 10
64.0
 20
208.0
 30
0.0
 11
64.0
 21
235.91609800000009
 31
0.0
  0
ARC
  8
DETAIL
  6
CONTINUOUS
 62
     5
 10
58.940000000000047
 20
235.91609800000009
 30
0.0
 40
5.060001999999999
 50
0.0000010000014034
 51
90.0
  0
LINE
  8
DETAIL
  6
CONTINUOUS
 62
     5
 10
153.5
 20
207.0
 30
0.0
 11
185.75
 21
207.0
 31
0.0
  0
CIRCLE
  8
FIX
  6
CONTINUOUS
 62
    11
 10
170.5
 20
207.0
 30
0.0
 40
7.5
  0
LINE
  8
NOTE
  6
CONTINUOUS
 62
     4
 10
150.5
 20
207.0
 30
0.0
 11
190.5
 21
207.0
 31
0.0
  0
LINE
  8
DETAIL
  6
CONTINUOUS
 62
     5
 10
185.75
 20
203.5
 30
0.0
 11
158.75
 21
203.5
 31
0.0
  0
LINE
  8
NOTE
  6
CONTINUOUS
 62
     4
 10
130.0
 20
200.0
 30
0.0
 11
153.68457945088889
 21
232.23415406379129
 31
0.0
  0
LINE
  8
NOTE
  6
CONTINUOUS
 62
     4
 10
134.39437064244939
 20
239.75788632303829
 30
0.0
 11
130.0
 21
200.0
 31
0.0
  0
LINE
  8
NOTE
  6
CONTINUOUS
 62
     4
 10
130.0
 20
180.0
 30
0.0
 11
130.0
 21
220.0
 31
0.0
  0
LINE
  8
NOTE
  6
CONTINUOUS
 62
     4
 10
170.5
 20
188.0
 30
0.0
 11
170.5
 21
228.0
 31
0.0
  0
LINE
  8
DETAIL
  6
CONTINUOUS
 62
     5
 10
185.75
 20
207.0
 30
0.0
 11
185.75
 21
203.5
 31
0.0
  0
LINE
  8
NOTE
  6
CONTINUOUS
 62
     4
 10
214.1187819925494
 20
414.20059053115278
 30
0.0
 11
331.48928799254918
 21
414.20059053115278
 31
0.0
  0
LINE
  8
SIZE
  6
CONTINUOUS
 62
    30
 10
64.000001999999768
 20
593.80764400000021
 30
0.0
 11
52.000001999999768
 21
593.80764400000021
 31
0.0
  0
CIRCLE
  8
SIZE
  6
CONTINUOUS
 62
    30
 10
64.000001999999768
 20
593.80764400000021
 30
0.0
 40
6.0
  0
TEXT
  8
NOTE
  6
CONTINUOUS
 62
     4
 10
233.7851869925494
 20
440.68817153115288
 30
0.0
 40
64.0
  1
EL
 41
0.9
  0
LINE
  8
SIZE
  6
CONTINUOUS
 62
    30
 10
153.5
 20
729.29827811069617
 30
0.0
 11
141.5
 21
729.29827811069617
 31
0.0
  0
CIRCLE
  8
SIZE
  6
CONTINUOUS
 62
    30
 10
153.5
 20
729.29827811069617
 30
0.0
 40
6.0
  0
CIRCLE
  8
SIZE
  6
CONTINUOUS
 62
    30
 10
170.5
 20
861.27992711069601
 30
0.0
 40
6.0
  0
LINE
  8
SIZE
  6
CONTINUOUS
 62
    30
 10
170.5
 20
861.27992711069601
 30
0.0
 11
158.5
 21
861.27992711069601
 31
0.0
  0
LINE
  8
SIZE
  6
CONTINUOUS
 62
    30
 10
0.0
 20
320.0
 30
0.0
 11
0.0
 21
515.70578574948559
 31
0.0
  0
LINE
  8
SIZE
  6
CONTINUOUS
 62
    30
 10
-86.0
 20
260.06817200000017
 30
0.0
 11
-86.0
 21
515.70578574948559
 31
0.0
  0
LINE
  8
SIZE
  6
CONTINUOUS
 62
    30
 10
-12.0
 20
495.70578574948559
 30
0.0
 11
-74.0
 21
495.70578574948559
 31
0.0
  0
LINE
  8
SIZE
  6
CONTINUOUS
 62
    30
 10
-86.0
 20
495.70578574948559
 30
0.0
 11
-363.57819087765182
 21
495.70578574948559
 31
0.0
  0
CIRCLE
  8
SIZE
  6
CONTINUOUS
 62
    30
 10
0.0
 20
495.70578574948559
 30
0.0
 40
6.0
  0
LINE
  8
SIZE
  6
CONTINUOUS
 62
    30
 10
0.0
 20
495.70578574948559
 30
0.0
 11
-12.0
 21
495.70578574948559
 31
0.0
  0
CIRCLE
  8
SIZE
  6
CONTINUOUS
 62
    30
 10
-86.0
 20
495.70578574948559
 30
0.0
 40
6.0
  0
LINE
  8
SIZE
  6
CONTINUOUS
 62
    30
 10
-86.0
 20
495.70578574948559
 30
0.0
 11
-74.0
 21
495.70578574948559
 31
0.0
  0
TEXT
  8
SIZE
  6
CONTINUOUS
 62
    30
 10
-338.57819087765182
 20
520.70578574948559
 30
0.0
 40
64.0
  1
86
 41
0.9
 72
     1
 11
-293.3210480205089
 21
520.70578574948559
 31
0.0
  0
POINT
  8
DEFPOINTS
  6
CONTINUOUS
 62
    30
 10
0.0
 20
300.0
 30
0.0
  0
POINT
  8
DEFPOINTS
  6
CONTINUOUS
 62
    30
 10
-86.0
 20
240.0681720000002
 30
0.0
  0
POINT
  8
DEFPOINTS
  6
CONTINUOUS
 62
    30
 10
-86.0
 20
495.70578574948559
 30
0.0
  0
LINE
  8
SIZE
  6
CONTINUOUS
 62
    30
 10
-215.0
 20
0.0
 30
0.0
 11
-325.62855800902418
 21
0.0
 31
0.0
  0
LINE
  8
SIZE
  6
CONTINUOUS
 62
    30
 10
-178.75
 20
50.0
 30
0.0
 11
-325.62855800902418
 21
50.0
 31
0.0
  0
LINE
  8
SIZE
  6
CONTINUOUS
 62
    30
 10
-305.62855800902418
 20
62.0
 30
0.0
 11
-305.62855800902418
 21
74.0
 31
0.0
  0
LINE
  8
SIZE
  6
CONTINUOUS
 62
    30
 10
-305.62855800902418
 20
-12.0
 30
0.0
 11
-305.6285580090244
 21
-167.2571428571429
 31
0.0
  0
LINE
  8
SIZE
  6
CONTINUOUS
 62
    30
 10
-305.62855800902418
 20
50.0
 30
0.0
 11
-305.62855800902418
 21
0.0
 31
0.0
  0
CIRCLE
  8
SIZE
  6
CONTINUOUS
 62
    30
 10
-305.62855800902418
 20
50.0
 30
0.0
 40
6.0
  0
LINE
  8
SIZE
  6
CONTINUOUS
 62
    30
 10
-305.62855800902418
 20
50.0
 30
0.0
 11
-305.62855800902418
 21
62.0
 31
0.0
  0
CIRCLE
  8
SIZE
  6
CONTINUOUS
 62
    30
 10
-305.62855800902418
 20
0.0
 30
0.0
 40
6.0
  0
LINE
  8
SIZE
  6
CONTINUOUS
 62
    30
 10
-305.62855800902418
 20
0.0
 30
0.0
 11
-305.62855800902418
 21
-12.0
 31
0.0
  0
TEXT
  8
SIZE
  6
CONTINUOUS
 62
    30
 10
-330.62855800902418
 20
-142.2571428571429
 30
0.0
 40
64.0
  1
50
 50
90.0
 41
0.9
 72
     1
 11
-330.62855800902418
 21
-95.62857142857149
 31
0.0
  0
POINT
  8
DEFPOINTS
  6
CONTINUOUS
 62
    30
 10
-195.0
 20
0.0
 30
0.0
  0
POINT
  8
DEFPOINTS
  6
CONTINUOUS
 62
    30
 10
-158.75
 20
50.0
 30
0.0
  0
POINT
  8
DEFPOINTS
  6
CONTINUOUS
 62
    30
 10
-305.62855800902418
 20
50.0
 30
0.0
  0
LINE
  8
SIZE
  6
CONTINUOUS
 62
    30
 10
215.0
 20
0.0
 30
0.0
 11
526.77561825220164
 21
-0.0000000000001137
 31
0.0
  0
LINE
  8
SIZE
  6
CONTINUOUS
 62
    30
 10
-16.0
 20
54.0
 30
0.0
 11
526.77561825220164
 21
53.999999999999893
 31
0.0
  0
LINE
  8
SIZE
  6
CONTINUOUS
 62
    30
 10
506.77561825220158
 20
65.999999999999886
 30
0.0
 11
506.77561825220158
 21
77.999999999999886
 31
0.0
  0
LINE
  8
SIZE
  6
CONTINUOUS
 62
    30
 10
506.77561825220158
 20
-12.00000000000011
 30
0.0
 11
506.77561825220158
 21
-170.00000000000011
 31
0.0
  0
LINE
  8
SIZE
  6
CONTINUOUS
 62
    30
 10
506.77561825220158
 20
53.999999999999893
 30
0.0
 11
506.77561825220158
 21
-0.0000000000001137
 31
0.0
  0
CIRCLE
  8
SIZE
  6
CONTINUOUS
 62
    30
 10
506.77561825220158
 20
53.999999999999893
 30
0.0
 40
6.0
  0
LINE
  8
SIZE
  6
CONTINUOUS
 62
    30
 10
506.77561825220158
 20
53.999999999999893
 30
0.0
 11
506.77561825220158
 21
65.999999999999773
 31
0.0
  0
CIRCLE
  8
SIZE
  6
CONTINUOUS
 62
    30
 10
506.77561825220158
 20
-0.0000000000001137
 30
0.0
 40
6.0
  0
LINE
  8
SIZE
  6
CONTINUOUS
 62
    30
 10
506.77561825220158
 20
-0.0000000000001137
 30
0.0
 11
506.77561825220158
 21
-12.00000000000011
 31
0.0
  0
TEXT
  8
SIZE
  6
CONTINUOUS
 62
    30
 10
481.77561825220158
 20
-145.0
 30
0.0
 40
64.0
  1
54
 50
90.0
 41
0.9
 72
     1
 11
481.77561825220158
 21
-97.0
 31
0.0
  0
POINT
  8
DEFPOINTS
  6
CONTINUOUS
 62
    30
 10
195.0
 20
0.0
 30
0.0
  0
POINT
  8
DEFPOINTS
  6
CONTINUOUS
 62
    30
 10
-36.0
 20
54.0
 30
0.0
  0
POINT
  8
DEFPOINTS
  6
CONTINUOUS
 62
    30
 10
506.77561825220158
 20
53.999999999999893
 30
0.0
  0
LINE
  8
SIZE
  6
CONTINUOUS
 62
    30
 10
215.0
 20
0.0
 30
0.0
 11
653.00123602238909
 21
-0.0000000000001137
 31
0.0
  0
LINE
  8
SIZE
  6
CONTINUOUS
 62
    30
 10
205.75
 20
207.0
 30
0.0
 11
653.00123602238909
 21
206.99999999999989
 31
0.0
  0
LINE
  8
SIZE
  6
CONTINUOUS
 62
    30
 10
633.00123602238909
 20
11.99999999999989
 30
0.0
 11
633.00123602238909
 21
194.99999999999989
 31
0.0
  0
CIRCLE
  8
SIZE
  6
CONTINUOUS
 62
    30
 10
633.00123602238909
 20
-0.0000000000001137
 30
0.0
 40
6.0
  0
LINE
  8
SIZE
  6
CONTINUOUS
 62
    30
 10
633.00123602238909
 20
-0.0000000000001137
 30
0.0
 11
633.00123602238909
 21
11.99999999999989
 31
0.0
  0
CIRCLE
  8
SIZE
  6
CONTINUOUS
 62
    30
 10
633.00123602238909
 20
206.99999999999989
 30
0.0
 40
6.0
  0
LINE
  8
SIZE
  6
CONTINUOUS
 62
    30
 10
633.00123602238909
 20
206.99999999999989
 30
0.0
 11
633.00123602238909
 21
194.99999999999989
 31
0.0
  0
TEXT
  8
SIZE
  6
CONTINUOUS
 62
    30
 10
608.00123602238909
 20
29.44285714285715
 30
0.0
 40
64.0
  1
207
 50
90.0
 41
0.9
 72
     1
 11
608.00123602238909
 21
103.5
 31
0.0
  0
POINT
  8
DEFPOINTS
  6
CONTINUOUS
 62
    30
 10
195.0
 20
0.0
 30
0.0
  0
POINT
  8
DEFPOINTS
  6
CONTINUOUS
 62
    30
 10
185.75
 20
207.0
 30
0.0
  0
POINT
  8
DEFPOINTS
  6
CONTINUOUS
 62
    30
 10
633.00123602238909
 20
206.99999999999989
 30
0.0
  0
LINE
  8
SIZE
  6
CONTINUOUS
 62
    30
 10
-153.5
 20
248.0
 30
0.0
 11
-153.5
 21
749.29827811069617
 31
0.0
  0
LINE
  8
SIZE
  6
CONTINUOUS
 62
    30
 10
-179.50181500000011
 20
227.28123000000011
 30
0.0
 11
-179.50181500000011
 21
749.29827811069617
 31
0.0
  0
LINE
  8
SIZE
  6
CONTINUOUS
 62
    30
 10
-141.5
 20
729.29827811069617
 30
0.0
 11
-129.5
 21
729.29827811069617
 31
0.0
  0
LINE
  8
SIZE
  6
CONTINUOUS
 62
    30
 10
-191.50181500000011
 20
729.29827811069617
 30
0.0
 11
-350.85747467738031
 21
729.29827811069617
 31
0.0
  0
LINE
  8
SIZE
  6
CONTINUOUS
 62
    30
 10
-153.5
 20
729.29827811069617
 30
0.0
 11
-179.50181500000011
 21
729.29827811069617
 31
0.0
  0
CIRCLE
  8
SIZE
  6
CONTINUOUS
 62
    30
 10
-153.5
 20
729.29827811069617
 30
0.0
 40
6.0
  0
LINE
  8
SIZE
  6
CONTINUOUS
 62
    30
 10
-153.5
 20
729.29827811069617
 30
0.0
 11
-141.5
 21
729.29827811069617
 31
0.0
  0
CIRCLE
  8
SIZE
  6
CONTINUOUS
 62
    30
 10
-179.50181500000011
 20
729.29827811069617
 30
0.0
 40
6.0
  0
LINE
  8
SIZE
  6
CONTINUOUS
 62
    30
 10
-179.50181500000011
 20
729.29827811069617
 30
0.0
 11
-191.50181500000011
 21
729.29827811069617
 31
0.0
  0
TEXT
  8
SIZE
  6
CONTINUOUS
 62
    30
 10
-325.85747467738031
 20
754.29827811069617
 30
0.0
 40
64.0
  1
26
 41
0.9
 72
     1
 11
-280.60033182023739
 21
754.29827811069617
 31
0.0
  0
POINT
  8
DEFPOINTS
  6
CONTINUOUS
 62
    30
 10
-153.5
 20
228.0
 30
0.0
  0
POINT
  8
DEFPOINTS
  6
CONTINUOUS
 62
    30
 10
-179.50181500000011
 20
207.28123000000011
 30
0.0
  0
POINT
  8
DEFPOINTS
  6
CONTINUOUS
 62
    30
 10
-179.50181500000011
 20
729.29827811069617
 30
0.0
  0
LINE
  8
SIZE
  6
CONTINUOUS
 62
    30
 10
-640.87211713925126
 20
510.07198911158412
 30
0.0
 11
-158.90617326395201
 21
184.28174002616521
 31
0.0
  0
LINE
  8
SIZE
  6
CONTINUOUS
 62
    30
 10
-13.09382673604739
 20
85.718259973835188
 30
0.0
 11
-3.1520758364175658
 21
78.998022697539909
 31
0.0
  0
TEXT
  8
SIZE
  6
CONTINUOUS
 62
    30
 10
-609.56824208118485
 20
519.08755717873714
 30
0.0
 40
64.0
  1
φ152
 50
325.94283481011081
 41
0.9
 72
     1
 11
-527.76183467851604
 21
463.78960473379328
 31
0.0
  0
LINE
  8
SIZE
  6
CONTINUOUS
 62
    30
 10
-23.035577635677331
 20
92.438497250130467
 30
0.0
 11
-148.96442236432219
 21
177.56150274986999
 31
0.0
  0
CIRCLE
  8
SIZE
  6
CONTINUOUS
 62
    30
 10
-23.035577635677331
 20
92.438497250130467
 30
0.0
 40
6.0
  0
LINE
  8
SIZE
  6
CONTINUOUS
 62
    30
 10
-23.035577635677331
 20
92.438497250130467
 30
0.0
 11
-13.09382673604739
 21
85.718259973835188
 31
0.0
  0
CIRCLE
  8
SIZE
  6
CONTINUOUS
 62
    30
 10
-148.96442236432219
 20
177.56150274986999
 30
0.0
 40
6.0
  0
LINE
  8
SIZE
  6
CONTINUOUS
 62
    30
 10
-148.96442236432219
 20
177.56150274986999
 30
0.0
 11
-158.90617326395201
 21
184.28174002616529
 31
0.0
  0
POINT
  8
DEFPOINTS
  6
CONTINUOUS
 62
    30
 10
-148.96442236432219
 20
177.56150274986999
 30
0.0
  0
POINT
  8
DEFPOINTS
  6
CONTINUOUS
 62
    30
 10
-23.035577635677331
 20
92.438497250130467
 30
0.0
  0
LINE
  8
SIZE
  6
CONTINUOUS
 62
    30
 10
-696.8075934953398
 20
382.84871726881619
 30
0.0
 11
-163.83615520549321
 21
166.58374491453489
 31
0.0
  0
LINE
  8
SIZE
  6
CONTINUOUS
 62
    30
 10
-8.163844794507213
 20
103.4162550854644
 30
0.0
 11
2.955605949134565
 21
98.904291526245061
 31
0.0
  0
TEXT
  8
SIZE
  6
CONTINUOUS
 62
    30
 10
-668.05453014315162
 20
398.16127450428598
 30
0.0
 40
64.0
  1
φ144
 50
337.91405533989359
 41
0.9
 72
     1
 11
-575.2865410819112
 21
360.51860709594212
 31
0.0
  0
LINE
  8
SIZE
  6
CONTINUOUS
 62
    30
 10
-19.283295538149101
 20
107.9282186446837
 30
0.0
 11
-152.71670446185141
 21
162.07178135531561
 31
0.0
  0
CIRCLE
  8
SIZE
  6
CONTINUOUS
 62
    30
 10
-19.283295538149101
 20
107.9282186446837
 30
0.0
 40
6.0
  0
LINE
  8
SIZE
  6
CONTINUOUS
 62
    30
 10
-19.283295538149101
 20
107.9282186446837
 30
0.0
 11
-8.163844794507213
 21
103.4162550854644
 31
0.0
  0
CIRCLE
  8
SIZE
  6
CONTINUOUS
 62
    30
 10
-152.71670446185141
 20
162.07178135531561
 30
0.0
 40
6.0
  0
LINE
  8
SIZE
  6
CONTINUOUS
 62
    30
 10
-152.71670446185141
 20
162.07178135531561
 30
0.0
 11
-163.83615520549321
 21
166.58374491453489
 31
0.0
  0
POINT
  8
DEFPOINTS
  6
CONTINUOUS
 62
    30
 10
-152.71670446185141
 20
162.07178135531561
 30
0.0
  0
POINT
  8
DEFPOINTS
  6
CONTINUOUS
 62
    30
 10
-19.283295538149101
 20
107.9282186446837
 30
0.0
  0
LINE
  8
DETAIL
  6
CONTINUOUS
 62
     5
 10
156.5
 20
8.0
 30
0.0
 11
153.5
 21
8.0
 31
0.0
  0
LINE
  8
DETAIL
  6
CONTINUOUS
 62
     5
 10
156.5
 20
20.0
 30
0.0
 11
153.5
 21
20.0
 31
0.0
  0
LINE
  8
DETAIL
  6
CONTINUOUS
 62
     5
 10
156.5
 20
8.0
 30
0.0
 11
156.5
 21
20.0
 31
0.0
  0
LINE
  8
DETAIL
  6
CONTINUOUS
 62
     5
 10
-156.5
 20
8.0
 30
0.0
 11
-153.5
 21
8.0
 31
0.0
  0
LINE
  8
DETAIL
  6
CONTINUOUS
 62
     5
 10
-156.5
 20
20.0
 30
0.0
 11
-153.5
 21
20.0
 31
0.0
  0
LINE
  8
DETAIL
  6
CONTINUOUS
 62
     5
 10
-156.5
 20
8.0
 30
0.0
 11
-156.5
 21
20.0
 31
0.0
  0
LINE
  8
SIZE
  6
CONTINUOUS
 62
    30
 10
-156.5
 20
-12.0
 30
0.0
 11
-156.5
 21
-358.61405049662147
 31
0.0
  0
LINE
  8
SIZE
  6
CONTINUOUS
 62
    30
 10
156.5
 20
-12.0
 30
0.0
 11
156.5
 21
-358.61405049662147
 31
0.0
  0
LINE
  8
SIZE
  6
CONTINUOUS
 62
    30
 10
-144.5
 20
-338.61405049662147
 30
0.0
 11
144.5
 21
-338.61405049662147
 31
0.0
  0
CIRCLE
  8
SIZE
  6
CONTINUOUS
 62
    30
 10
-156.5
 20
-338.61405049662147
 30
0.0
 40
6.0
  0
LINE
  8
SIZE
  6
CONTINUOUS
 62
    30
 10
-156.5
 20
-338.61405049662147
 30
0.0
 11
-144.5
 21
-338.61405049662147
 31
0.0
  0
CIRCLE
  8
SIZE
  6
CONTINUOUS
 62
    30
 10
156.5
 20
-338.61405049662147
 30
0.0
 40
6.0
  0
LINE
  8
SIZE
  6
CONTINUOUS
 62
    30
 10
156.5
 20
-338.61405049662147
 30
0.0
 11
144.5
 21
-338.61405049662147
 31
0.0
  0
TEXT
  8
SIZE
  6
CONTINUOUS
 62
    30
 10
-68.571428571428555
 20
-313.61405049662147
 30
0.0
 40
64.0
  1
313
 41
0.9
 72
     1
 11
0.0
 21
-313.61405049662147
 31
0.0
  0
POINT
  8
DEFPOINTS
  6
CONTINUOUS
 62
    30
 10
-156.5
 20
8.0
 30
0.0
  0
POINT
  8
DEFPOINTS
  6
CONTINUOUS
 62
    30
 10
156.5
 20
8.0
 30
0.0
  0
POINT
  8
DEFPOINTS
  6
CONTINUOUS
 62
    30
 10
156.5
 20
-338.61405049662147
 30
0.0
  0
LINE
  8
DETAIL
  6
CONTINUOUS
 62
     5
 10
-47.163842134974402
 20
180.24827262138959
 30
0.0
 11
-23.792489041228691
 21
166.75481562138981
 31
0.0
  0
LINE
  8
DETAIL
  6
CONTINUOUS
 62
     5
 10
-105.6638421349744
 20
78.923300378610293
 30
0.0
 11
-82.292489041228691
 21
65.429843378610258
 31
0.0
  0
ARC
  8
DETAIL
  6
CONTINUOUS
 62
     5
 10
-77.292489041228691
 20
74.090097416454682
 30
0.0
 40
10.0
 50
239.99999999999909
 51
277.94346200000541
  0
ARC
  8
DETAIL
  6
CONTINUOUS
 62
     5
 10
-77.292489041228691
 20
74.090097416454682
 30
0.0
 40
10.0
 50
239.99999999999909
 51
277.94346200000541
  0
ARC
  8
DETAIL
  6
CONTINUOUS
 62
     5
 10
-28.792489041228691
 20
158.0945615835453
 30
0.0
 40
10.0
 50
22.056538000001321
 51
59.999999999999098
  0
LINE
  8
DETAIL
  6
CONTINUOUS
 62
     5
 10
-109.7065239716167
 20
78.57802403871051
 30
0.0
 11
-79.296344471616521
 21
131.25
 31
0.0
  0
LINE
  8
DETAIL
  6
CONTINUOUS
 62
     5
 10
-141.45530981542521
 20
99.58751387861048
 30
0.0
 11
-151.39139767427699
 21
105.3241168786103
 31
0.0
  0
ARC
  8
DETAIL
  6
CONTINUOUS
 62
     5
 10
-149.873944081502
 20
110.7988675994247
 30
0.0
 40
3.0
 50
200.68936499999981
 51
239.99999999999909
  0
ARC
  8
DETAIL
  6
CONTINUOUS
 62
     5
 10
-139.97325900785651
 20
98.154501176717986
 30
0.0
 40
2.0
 50
150.0000000000077
 51
239.99999999999909
  0
LINE
  8
DETAIL
  6
CONTINUOUS
 62
     5
 10
-140.20530981542521
 20
101.7525773880716
 30
0.0
 11
-141.70530981542521
 21
99.154501176717986
 31
0.0
  0
LINE
  8
DETAIL
  6
CONTINUOUS
 62
     5
 10
-140.20530981542521
 20
101.7525773880716
 30
0.0
 11
-151.373944081502
 21
108.20079138807159
 31
0.0
  0
ARC
  8
DETAIL
  6
CONTINUOUS
 62
     5
 10
-109.51378329879751
 20
80.568714676718173
 30
0.0
 40
2.0
 50
239.99999999999909
 51
284.99999999999437
  0
ARC
  8
DETAIL
  6
CONTINUOUS
 62
     5
 10
-106.6638421349744
 20
77.191249571041453
 30
0.0
 40
2.0
 50
59.999999999999098
 51
104.9999999999945
  0
LINE
  8
DETAIL
  6
CONTINUOUS
 62
     5
 10
-108.9961459144351
 20
78.63686292633065
 30
0.0
 11
-107.1814795193368
 21
79.123101321429203
 31
0.0
  0
LINE
  8
DETAIL
  6
CONTINUOUS
 62
     5
 10
-140.97325900785651
 20
96.422450369149374
 30
0.0
 11
-110.51378329879751
 21
78.836663869149106
 31
0.0
  0
LINE
  8
DETAIL
  6
CONTINUOUS
 62
     5
 10
-48.886164971616381
 20
183.92197596128949
 30
0.0
 11
-79.296344471616521
 21
131.25
 31
0.0
  0
LINE
  8
DETAIL
  6
CONTINUOUS
 62
     5
 10
-82.955309815425153
 20
200.91248612138969
 30
0.0
 11
-92.891397674276959
 21
206.64908912138961
 31
0.0
  0
ARC
  8
DETAIL
  6
CONTINUOUS
 62
     5
 10
-96.873944081502032
 20
202.5975604005753
 30
0.0
 40
3.0
 50
59.999999999999098
 51
99.310634999990029
  0
ARC
  8
DETAIL
  6
CONTINUOUS
 62
     5
 10
-80.973259007856541
 20
200.34549882328201
 30
0.0
 40
2.0
 50
59.999999999999098
 51
150.0000000000077
  0
LINE
  8
DETAIL
  6
CONTINUOUS
 62
     5
 10
-84.205309815425153
 20
198.74742261192861
 30
0.0
 11
-95.373944081502032
 21
205.19563661192851
 31
0.0
  0
LINE
  8
DETAIL
  6
CONTINUOUS
 62
     5
 10
-84.205309815425153
 20
198.74742261192861
 30
0.0
 11
-82.705309815425153
 21
201.34549882328201
 31
0.0
  0
ARC
  8
DETAIL
  6
CONTINUOUS
 62
     5
 10
-50.513783298797527
 20
182.7597123232816
 30
0.0
 40
2.0
 50
15.00000000000116
 51
59.999999999999098
  0
ARC
  8
DETAIL
  6
CONTINUOUS
 62
     5
 10
-46.163842134974402
 20
181.9803234289584
 30
0.0
 40
2.0
 50
195.00000000000111
 51
239.99999999999909
  0
LINE
  8
DETAIL
  6
CONTINUOUS
 62
     5
 10
-48.581931914435238
 20
183.27735107366951
 30
0.0
 11
-48.095693519336692
 21
181.46268467857089
 31
0.0
  0
LINE
  8
DETAIL
  6
CONTINUOUS
 62
     5
 10
-79.973259007856541
 20
202.07754963085091
 30
0.0
 11
-49.513783298797527
 21
184.49176313085081
 31
0.0
  0
ENDSEC
  0
EOF
