  0
SECTION
  2
HEADER
  9
$ACADVER
  1
AC1009
  9
$INSBASE
 10
0.0
 20
0.0
 30
0.0
  9
$EXTMIN
 10
-1447.683798999999
 20
-592.24748999999997
 30
0.0
  9
$EXTMAX
 10
1386.91402907057
 20
1043.1836310000001
 30
50.0
  9
$LIMMIN
 10
-2970.0
 20
-2100.0
  9
$LIMMAX
 10
2970.0
 20
2100.0
  9
$ORTHOMODE
 70
     1
  9
$REGENMODE
 70
     0
  9
$FILLMODE
 70
     1
  9
$QTEXTMODE
 70
     0
  9
$MIRRTEXT
 70
     0
  9
$DRAGMODE
 70
     2
  9
$LTSCALE
 40
20.0
  9
$OSMODE
 70
    37
  9
$ATTMODE
 70
     1
  9
$TEXTSIZE
 40
64.0
  9
$TRACEWID
 40
0.05
  9
$TEXTSTYLE
  7
STANDARD
  9
$CLAYER
  8
SIZE
  9
$CELTYPE
  6
DASHED2
  9
$CECOLOR
 62
    30
  9
$DIMSCALE
 40
1.0
  9
$DIMASZ
 40
12.0
  9
$DIMEXO
 40
20.0
  9
$DIMDLI
 40
200.0
  9
$DIMRND
 40
0.0
  9
$DIMDLE
 40
0.0
  9
$DIMEXE
 40
20.0
  9
$DIMTP
 40
0.0
  9
$DIMTM
 40
0.0
  9
$DIMTXT
 40
64.0
  9
$DIMCEN
 40
0.09
  9
$DIMTSZ
 40
0.0
  9
$DIMTOL
 70
     0
  9
$DIMLIM
 70
     0
  9
$DIMTIH
 70
     0
  9
$DIMTOH
 70
     0
  9
$DIMSE1
 70
     0
  9
$DIMSE2
 70
     0
  9
$DIMTAD
 70
     1
  9
$DIMZIN
 70
     8
  9
$DIMBLK
  1
DOT1
  9
$DIMASO
 70
     1
  9
$DIMSHO
 70
     0
  9
$DIMPOST
  1

  9
$DIMAPOST
  1

  9
$DIMALT
 70
     0
  9
$DIMALTD
 70
     2
  9
$DIMALTF
 40
25.399999999999999
  9
$DIMLFAC
 40
1.0
  9
$DIMTOFL
 70
     1
  9
$DIMTVP
 40
0.0
  9
$DIMTIX
 70
     1
  9
$DIMSOXD
 70
     0
  9
$DIMSAH
 70
     1
  9
$DIMBLK1
  1
ORIGIN
  9
$DIMBLK2
  1
ORIGIN
  9
$DIMSTYLE
  2
STANDARD
  9
$DIMCLRD
 70
     7
  9
$DIMCLRE
 70
     7
  9
$DIMCLRT
 70
     7
  9
$DIMTFAC
 40
1.0
  9
$DIMGAP
 40
25.0
  9
$LUNITS
 70
     2
  9
$LUPREC
 70
     4
  9
$SKETCHINC
 40
0.1
  9
$FILLETRAD
 40
15.0
  9
$AUNITS
 70
     1
  9
$AUPREC
 70
     3
  9
$MENU
  1
ACAD
  9
$ELEVATION
 40
0.0
  9
$PELEVATION
 40
0.0
  9
$THICKNESS
 40
50.0
  9
$LIMCHECK
 70
     0
  9
$BLIPMODE
 70
     0
  9
$CHAMFERA
 40
0.0
  9
$CHAMFERB
 40
0.0
  9
$SKPOLY
 70
     0
  9
$TDCREATE
 40
2452912.6631658329
  9
$TDUPDATE
 40
2454155.6770630791
  9
$TDINDWG
 40
0.5366613542000001
  9
$TDUSRTIMER
 40
0.5366611690000001
  9
$USRTIMER
 70
     1
  9
$ANGBASE
 50
0.0
  9
$ANGDIR
 70
     0
  9
$PDMODE
 70
     3
  9
$PDSIZE
 40
-2.0
  9
$PLINEWID
 40
0.0
  9
$COORDS
 70
     0
  9
$SPLFRAME
 70
     0
  9
$SPLINETYPE
 70
     6
  9
$SPLINESEGS
 70
     8
  9
$ATTDIA
 70
     0
  9
$ATTREQ
 70
     1
  9
$HANDLING
 70
 22529
  9
$HANDSEED
  5
8F4
  9
$SURFTAB1
 70
     6
  9
$SURFTAB2
 70
     6
  9
$SURFTYPE
 70
     6
  9
$SURFU
 70
     6
  9
$SURFV
 70
     6
  9
$UCSNAME
  2

  9
$UCSORG
 10
0.0
 20
0.0
 30
0.0
  9
$UCSXDIR
 10
1.0
 20
0.0
 30
0.0
  9
$UCSYDIR
 10
0.0
 20
1.0
 30
0.0
  9
$PUCSNAME
  2

  9
$PUCSORG
 10
0.0
 20
0.0
 30
0.0
  9
$PUCSXDIR
 10
1.0
 20
0.0
 30
0.0
  9
$PUCSYDIR
 10
0.0
 20
1.0
 30
0.0
  9
$USERI1
 70
     0
  9
$USERI2
 70
     0
  9
$USERI3
 70
     0
  9
$USERI4
 70
     0
  9
$USERI5
 70
     0
  9
$USERR1
 40
20.0
  9
$USERR2
 40
0.0
  9
$USERR3
 40
0.0
  9
$USERR4
 40
0.0
  9
$USERR5
 40
0.0
  9
$WORLDVIEW
 70
     1
  9
$SHADEDGE
 70
     3
  9
$SHADEDIF
 70
    70
  9
$TILEMODE
 70
     1
  9
$MAXACTVP
 70
    48
  9
$PLIMCHECK
 70
     0
  9
$PEXTMIN
 10
1.0000000000000000E+020
 20
1.0000000000000000E+020
 30
1.0000000000000000E+020
  9
$PEXTMAX
 10
-1.0000000000000000E+020
 20
-1.0000000000000000E+020
 30
-1.0000000000000000E+020
  9
$PLIMMIN
 10
0.0
 20
0.0
  9
$PLIMMAX
 10
12.0
 20
9.0
  9
$UNITMODE
 70
     0
  9
$VISRETAIN
 70
     0
  9
$PLINEGEN
 70
     0
  9
$PSLTSCALE
 70
     0
  0
ENDSEC
  0
SECTION
  2
TABLES
  0
TABLE
  2
VPORT
 70
     3
  0
VPORT
  2
*ACTIVE
 70
     0
 10
0.0
 20
0.0
 11
1.0
 21
1.0
 12
-30.409546347802461
 22
227.2881507384154
 13
0.0
 23
0.0
 14
1.0
 24
1.0
 15
0.0
 25
0.0
 16
0.0
 26
0.0
 36
1.0
 17
0.0
 27
0.0
 37
0.0
 40
1678.696332943862
 41
1.710526315789473
 42
50.0
 43
0.0
 44
0.0
 50
0.0
 51
0.0
 71
     0
 72
  1000
 73
     1
 74
     0
 75
     0
 76
     0
 77
     0
 78
     0
  0
ENDTAB
  0
TABLE
  2
LTYPE
 70
     5
  0
LTYPE
  2
CONTINUOUS
 70
     0
  3
Ä└É³
 72
    65
 73
     0
 40
0.0
  0
LTYPE
  2
DASHDOT
 70
     0
  3
Dash dot __ . __ . __ . __ . __ . __ . __ . __
 72
    65
 73
     4
 40
1.0
 49
0.5
 49
-0.25
 49
0.0
 49
-0.25
  0
LTYPE
  2
DASHED
 70
     0
  3
-- -- -- -- -- -- -- -- -- -- -- -- -- -- --
 72
    65
 73
     2
 40
0.75
 49
0.5
 49
-0.25
  0
LTYPE
  2
DASHED2
 70
     0
  3
Dashed (.5x) _ _ _ _ _ _ _ _ _ _ _ _ _ _ _ _ _
 72
    65
 73
     2
 40
0.375
 49
0.25
 49
-0.125
  0
LTYPE
  2
DASHDOT1
 70
     0
  3
____ _ ____ _ ____ _ ____ _ ____ _ ____ _ ____
 72
    65
 73
     4
 40
2.0
 49
1.5
 49
-0.2
 49
0.1
 49
-0.2
  0
ENDTAB
  0
TABLE
  2
LAYER
 70
    12
  0
LAYER
  2
0
 70
     0
 62
     7
  6
CONTINUOUS
  0
LAYER
  2
SIZE
 70
     0
 62
    30
  6
CONTINUOUS
  0
LAYER
  2
BASIS
 70
     0
 62
     6
  6
DASHDOT
  0
LAYER
  2
OUTLINE
 70
     0
 62
     3
  6
CONTINUOUS
  0
LAYER
  2
DETAIL
 70
     0
 62
     5
  6
CONTINUOUS
  0
LAYER
  2
ARRANGE
 70
     0
 62
     1
  6
CONTINUOUS
  0
LAYER
  2
DEFPOINTS
 70
     0
 62
     7
  6
CONTINUOUS
  0
LAYER
  2
ETC
 70
     0
 62
    61
  6
CONTINUOUS
  0
LAYER
  2
FIX
 70
     0
 62
    11
  6
CONTINUOUS
  0
LAYER
  2
NOTE
 70
     0
 62
     4
  6
CONTINUOUS
  0
LAYER
  2
SERVICESPACE
 70
     0
 62
     2
  6
DASHDOT
  0
LAYER
  2
SYMBOLLINE
 70
     0
 62
    15
  6
CONTINUOUS
  0
ENDTAB
  0
TABLE
  2
STYLE
 70
     2
  0
STYLE
  2
STANDARD
 70
     0
 40
64.0
 41
0.9
 50
0.0
 71
     0
 42
64.0
  3
SIMPLEX.shx
  4
BIGFONT.shx
  0
STYLE
  2

 70
     1
 40
0.0
 41
1.0
 50
0.0
 71
     0
 42
64.0
  3
ltypeshp.shx
  4

  0
ENDTAB
  0
TABLE
  2
VIEW
 70
     1
  0
VIEW
  2
ALL
 70
     0
 40
4282.6198080000004
 10
0.0
 20
41.309904000000003
 41
5940.0
 11
0.0
 21
0.0
 31
1.0
 12
0.0
 22
0.0
 32
0.0
 42
50.0
 43
0.0
 44
0.0
 50
0.0
 71
     0
  0
ENDTAB
  0
TABLE
  2
UCS
 70
     0
  0
ENDTAB
  0
TABLE
  2
APPID
 70
     2
  0
APPID
  2
ACAD
 70
     0
  0
APPID
  2
AUTOCAD_POSTSCRIPT_FIGURE
 70
     0
  0
ENDTAB
  0
TABLE
  2
DIMSTYLE
 70
     2
  0
DIMSTYLE
  2
STANDARD
 70
     0
  3

  4

  5

  6

  7

 40
1.0
 41
0.18
 42
0.0625
 43
0.38
 44
0.18
 45
0.0
 46
0.0
 47
0.0
 48
0.0
140
0.18
141
0.09
142
0.0
143
25.399999999999999
144
1.0
145
0.0
146
1.0
147
0.09
 71
     0
 72
     0
 73
     1
 74
     1
 75
     0
 76
     0
 77
     0
 78
     0
170
     0
171
     2
172
     0
173
     0
174
     0
175
     0
176
     7
177
     7
178
     7
  0
DIMSTYLE
  2
ISO-25
 70
     0
  3

  4

  5

  6

  7

 40
1.0
 41
2.5
 42
0.625
 43
3.75
 44
1.25
 45
0.0
 46
0.0
 47
0.0
 48
0.0
140
2.5
141
2.5
142
0.0
143
0.03937007874016
144
1.0
145
0.0
146
1.0
147
0.625
 71
     0
 72
     0
 73
     0
 74
     0
 75
     0
 76
     0
 77
     1
 78
     8
170
     0
171
     3
172
     1
173
     0
174
     0
175
     0
176
     0
177
     0
178
     0
  0
ENDTAB
  0
ENDSEC
  0
SECTION
  2
BLOCKS
  0
BLOCK
  8
0
  2
$MODEL_SPACE
 70
     0
 10
0.0
 20
0.0
 30
0.0
  3
$MODEL_SPACE
  1

  0
ENDBLK
  5
4AC
  8
0
  0
BLOCK
 67
     1
  8
0
  2
$PAPER_SPACE
 70
     0
 10
0.0
 20
0.0
 30
0.0
  3
$PAPER_SPACE
  1

  0
ENDBLK
  5
4A8
 67
     1
  8
0
  0
BLOCK
  8
0
  6
CONTINUOUS
 62
     7
  2
DOT1
 70
     0
 10
0.0
 20
0.0
 30
0.0
  3
DOT1
  1

  0
CIRCLE
  5
4CA
  8
SIZE
  6
CONTINUOUS
 62
     7
 10
0.0
 20
0.0
 30
0.0
 40
3.0
  0
ENDBLK
  5
4CB
  8
0
  6
CONTINUOUS
 62
     7
  0
BLOCK
  8
0
  6
CONTINUOUS
 62
     7
  2
_ORIGIN
 70
     0
 10
0.0
 20
0.0
 30
0.0
  3
_ORIGIN
  1

  0
CIRCLE
  5
4CE
  8
0
  6
CONTINUOUS
 62
     7
 10
0.0
 20
0.0
 30
0.0
 40
0.5
  0
LINE
  5
4CF
  8
0
  6
CONTINUOUS
 62
     7
 10
0.0
 20
0.0
 30
0.0
 11
-1.0
 21
0.0
 31
0.0
  0
ENDBLK
  5
4D0
  8
0
  6
CONTINUOUS
 62
     7
  0
BLOCK
  8
0
 62
    30
  2
A$C39C65568
 70
     0
 10
0.0
 20
0.0
 30
0.0
  3
A$C39C65568
  1

  0
ARC
  5
84D
  8
DETAIL
  6
DASHDOT1
 62
     5
 10
92.075557602968686
 20
78.000000051812023
 30
0.0
 40
78.0
 50
189.59400000000119
 51
270.0
  0
LINE
  5
84E
  8
DETAIL
  6
DASHDOT1
 62
     5
 10
92.075557602968686
 20
88.000004051812013
 30
0.0
 11
92.075557602968686
 21
0.0000000518120871
 31
0.0
  0
LINE
  5
84F
  8
DETAIL
  6
DASHED2
 62
     5
 10
85.361519602968485
 20
74.300008051812114
 30
0.0
 11
62.22630960296857
 21
74.300035051812117
 31
0.0
  0
LINE
  5
850
  8
DETAIL
  6
DASHED2
 62
     5
 10
111.12532860296839
 20
72.999977051811996
 30
0.0
 11
62.495152602968489
 21
73.00003505181202
 31
0.0
  0
LINE
  5
851
  8
DETAIL
  6
DASHED2
 62
     5
 10
14.95516360296846
 20
66.282809051812251
 30
0.0
 11
62.30331160296867
 21
74.286049051812014
 31
0.0
  0
LINE
  5
852
  8
DETAIL
  6
DASHED2
 62
     5
 10
15.166505602968581
 20
65.000092051812018
 30
0.0
 11
62.495152602968489
 21
73.00003505181202
 31
0.0
  0
LINE
  5
853
  8
DETAIL
  6
DASHED2
 62
     5
 10
15.166505602968581
 20
65.000092051812018
 30
0.0
 11
14.95516360296846
 21
66.282809051812251
 31
0.0
  0
LINE
  5
854
  8
DETAIL
  6
DASHED2
 62
     5
 10
111.1253306029684
 20
74.299977051812022
 30
0.0
 11
98.629839602968445
 21
74.299992051812112
 31
0.0
  0
LINE
  5
855
  8
DETAIL
  6
DASHED2
 62
     5
 10
98.791769086278194
 20
73.827694756959517
 30
0.0
 11
98.507986288109095
 21
74.655397797586616
 31
0.0
  0
LINE
  5
856
  8
DETAIL
  6
DASHED2
 62
     5
 10
85.359346590459865
 20
73.827694756959517
 30
0.0
 11
85.643129388628878
 21
74.655397797586616
 31
0.0
  0
LINE
  5
857
  8
DETAIL
  6
DASHED2
 62
     5
 10
85.075563792291092
 20
72.999991716332516
 30
0.0
 11
85.359346590459865
 21
73.827694756959517
 31
0.0
  0
LINE
  5
858
  8
DETAIL
  6
DASHED2
 62
     5
 10
99.075551884446867
 20
72.999991716332516
 30
0.0
 11
98.791769086278194
 21
73.827694756959517
 31
0.0
  0
CIRCLE
  5
859
  8
DETAIL
  6
DASHED2
 62
     5
 10
92.075557602968686
 20
78.000000051812023
 30
0.0
 40
2.1000000000000001
  0
CIRCLE
  5
85A
  8
DETAIL
  6
DASHED2
 62
     5
 10
92.075557602968686
 20
78.000000051812023
 30
0.0
 40
2.1000000000000001
  0
LINE
  5
85B
  8
BASIS
  6
DASHED2
 62
     6
 10
82.075554602968595
 20
78.000000051812023
 30
0.0
 11
102.07556160296851
 21
78.000000051812023
 31
0.0
  0
ARC
  5
85C
  8
DETAIL
  6
DASHED2
 62
     5
 10
92.075557602968686
 20
78.000000051812023
 30
0.0
 40
5.0
 50
18.924576000001199
 51
161.0752869999971
  0
LINE
  5
85D
  8
DETAIL
  6
DASHED2
 62
     5
 10
86.494477783135693
 20
77.138506919467815
 30
0.0
 11
86.778260581304679
 21
77.966209960094815
 31
0.0
  0
LINE
  5
85E
  8
DETAIL
  6
DASHED2
 62
     5
 10
85.926912186798077
 20
75.48310083821373
 30
0.0
 11
86.210694984966935
 21
76.3108038788409
 31
0.0
  0
LINE
  5
85F
  8
DETAIL
  6
DASHED2
 62
     5
 10
85.643129388628878
 20
74.655397797586616
 30
0.0
 11
85.926912186798077
 21
75.48310083821373
 31
0.0
  0
LINE
  5
860
  8
DETAIL
  6
DASHED2
 62
     5
 10
86.210694984966935
 20
76.3108038788409
 30
0.0
 11
86.494477783135693
 21
77.138506919467815
 31
0.0
  0
LINE
  5
861
  8
DETAIL
  6
DASHED2
 62
     5
 10
86.778260581304679
 20
77.966209960094815
 30
0.0
 11
87.062043379473693
 21
78.793913000722029
 31
0.0
  0
LINE
  5
862
  8
DETAIL
  6
DASHED2
 62
     5
 10
87.062043379473693
 20
78.793913000722029
 30
0.0
 11
87.345826177642351
 21
79.621616041348915
 31
0.0
  0
LINE
  5
863
  8
DETAIL
  6
DASHED2
 62
     5
 10
98.507986288109095
 20
74.655397797586616
 30
0.0
 11
98.224203489940294
 21
75.48310083821373
 31
0.0
  0
LINE
  5
864
  8
DETAIL
  6
DASHED2
 62
     5
 10
98.224203489940294
 20
75.48310083821373
 30
0.0
 11
97.940420691771266
 21
76.3108038788409
 31
0.0
  0
LINE
  5
865
  8
DETAIL
  6
DASHED2
 62
     5
 10
97.940420691771266
 20
76.3108038788409
 30
0.0
 11
97.656637893602181
 21
77.138506919467815
 31
0.0
  0
LINE
  5
866
  8
DETAIL
  6
DASHED2
 62
     5
 10
97.656637893602181
 20
77.138506919467815
 30
0.0
 11
97.372855095433266
 21
77.966209960094815
 31
0.0
  0
LINE
  5
867
  8
DETAIL
  6
DASHED2
 62
     5
 10
97.372855095433266
 20
77.966209960094815
 30
0.0
 11
97.089072297264607
 21
78.793913000722029
 31
0.0
  0
LINE
  5
868
  8
DETAIL
  6
DASHED2
 62
     5
 10
97.089072297264607
 20
78.793913000722029
 30
0.0
 11
96.805289499095466
 21
79.621616041348915
 31
0.0
  0
LINE
  5
869
  8
DETAIL
  6
DASHED2
 62
     5
 10
110.9655806029684
 20
72.999977051811996
 30
0.0
 11
110.9655816029684
 21
74.299977051812022
 31
0.0
  0
LINE
  5
86A
  8
DETAIL
  6
DASHDOT1
 62
     5
 10
20.114808213187018
 20
133.8203788554716
 30
0.0
 11
20.114808213187018
 21
221.46211783712511
 31
0.0
  0
LINE
  5
86B
  8
DETAIL
  6
DASHED2
 62
     5
 10
72.590297213187
 20
160.81273885547159
 30
0.0
 11
0.5877842131870921
 21
213.12562685547169
 31
0.0
  0
LINE
  5
86C
  8
DETAIL
  6
DASHED2
 62
     5
 10
72.002512213186975
 20
160.0037218554715
 30
0.0
 11
-0.0000007868129046
 21
212.3166098554714
 31
0.0
  0
ARC
  5
86D
  8
DETAIL
  6
DASHDOT1
 62
     5
 10
20.114808213187018
 20
198.32037885547149
 30
0.0
 40
64.5
 50
270.0
 51
323.55584199999339
  0
LINE
  5
86E
  8
DETAIL
  6
DASHED
 62
     5
 10
23.35937821318716
 20
196.6093088554716
 30
0.0
 11
17.10986821318695
 21
201.14984385547149
 31
0.0
  0
LINE
  5
86F
  8
BASIS
  6
DASHDOT
 62
     6
 10
24.632005213187369
 20
198.9666268554717
 30
0.0
 11
15.397638213187291
 21
198.9666268554717
 31
0.0
  0
CIRCLE
  5
870
  8
DETAIL
  6
DASHED
 62
     5
 10
20.114808213187018
 20
198.9666268554717
 30
0.0
 40
2.0
  0
LINE
  5
871
  8
DETAIL
  6
DASHDOT
 62
     5
 10
72.002512213186975
 20
160.0037218554715
 30
0.0
 11
72.590297213187
 21
160.81273885547159
 31
0.0
  0
LINE
  5
872
  8
DETAIL
  6
DASHDOT
 62
     5
 10
0.5877842131870921
 20
213.12562685547169
 30
0.0
 11
-0.0000007868129046
 21
212.3166098554714
 31
0.0
  0
ARC
  5
873
  8
DETAIL
  6
DASHDOT1
 62
     5
 10
210.69609688325349
 20
78.000000051812023
 30
0.0
 40
78.0
 50
270.0
 51
350.4059999999987
  0
LINE
  5
874
  8
DETAIL
  6
DASHDOT1
 62
     5
 10
210.69609688325349
 20
88.000004051812013
 30
0.0
 11
210.69609688325349
 21
0.0000000518120871
 31
0.0
  0
LINE
  5
875
  8
DETAIL
  6
DASHED2
 62
     5
 10
287.60514888325253
 20
65.000092051812018
 30
0.0
 11
240.27650188325279
 21
73.00003505181202
 31
0.0
  0
LINE
  5
876
  8
DETAIL
  6
DASHED2
 62
     5
 10
287.8164908832527
 20
66.282809051812251
 30
0.0
 11
240.468342883253
 21
74.286049051812014
 31
0.0
  0
LINE
  5
877
  8
DETAIL
  6
DASHED2
 62
     5
 10
217.41013488325351
 20
74.300008051812114
 30
0.0
 11
240.54534488325299
 21
74.300035051812117
 31
0.0
  0
LINE
  5
878
  8
DETAIL
  6
DASHED2
 62
     5
 10
191.64632588325361
 20
72.999977051811996
 30
0.0
 11
240.27650188325279
 21
73.00003505181202
 31
0.0
  0
LINE
  5
879
  8
DETAIL
  6
DASHED2
 62
     5
 10
191.6463238832535
 20
74.299977051812022
 30
0.0
 11
204.1418148832534
 21
74.299992051812112
 31
0.0
  0
LINE
  5
87A
  8
DETAIL
  6
DASHED2
 62
     5
 10
191.8060738832535
 20
72.999977051811996
 30
0.0
 11
191.80607288325351
 21
74.299977051812022
 31
0.0
  0
LINE
  5
87B
  8
DETAIL
  6
DASHED2
 62
     5
 10
217.41230789576221
 20
73.827694756959517
 30
0.0
 11
217.1285250975931
 21
74.655397797586616
 31
0.0
  0
LINE
  5
87C
  8
DETAIL
  6
DASHED2
 62
     5
 10
203.97988539994401
 20
73.827694756959517
 30
0.0
 11
204.26366819811309
 21
74.655397797586616
 31
0.0
  0
LINE
  5
87D
  8
DETAIL
  6
DASHED2
 62
     5
 10
203.69610260177529
 20
72.999991716332516
 30
0.0
 11
203.97988539994401
 21
73.827694756959517
 31
0.0
  0
LINE
  5
87E
  8
DETAIL
  6
DASHED2
 62
     5
 10
217.6960906939313
 20
72.999991716332516
 30
0.0
 11
217.41230789576221
 21
73.827694756959517
 31
0.0
  0
CIRCLE
  5
87F
  8
DETAIL
  6
DASHED2
 62
     5
 10
210.69609688325349
 20
78.000000051812023
 30
0.0
 40
2.1000000000000001
  0
CIRCLE
  5
880
  8
DETAIL
  6
DASHED2
 62
     5
 10
210.69609688325349
 20
78.000000051812023
 30
0.0
 40
2.1000000000000001
  0
ARC
  5
881
  8
DETAIL
  6
DASHED2
 62
     5
 10
210.69609688325349
 20
78.000000051812023
 30
0.0
 40
5.0
 50
18.924713000002839
 51
161.07542399999841
  0
LINE
  5
882
  8
BASIS
  6
DASHED2
 62
     6
 10
220.69609988325359
 20
78.000000051812023
 30
0.0
 11
200.69609288325361
 21
78.000000051812023
 31
0.0
  0
LINE
  5
883
  8
DETAIL
  6
DASHED2
 62
     5
 10
205.6825821889577
 20
78.793913000722029
 30
0.0
 11
205.96636498712681
 21
79.621616041348915
 31
0.0
  0
LINE
  5
884
  8
DETAIL
  6
DASHED2
 62
     5
 10
204.54745099628209
 20
75.48310083821373
 30
0.0
 11
204.83123379445081
 21
76.3108038788409
 31
0.0
  0
LINE
  5
885
  8
DETAIL
  6
DASHED2
 62
     5
 10
204.26366819811309
 20
74.655397797586616
 30
0.0
 11
204.54745099628209
 21
75.48310083821373
 31
0.0
  0
LINE
  5
886
  8
DETAIL
  6
DASHED2
 62
     5
 10
205.39879939078861
 20
77.966209960094815
 30
0.0
 11
205.6825821889577
 21
78.793913000722029
 31
0.0
  0
LINE
  5
887
  8
DETAIL
  6
DASHED2
 62
     5
 10
205.11501659262009
 20
77.138506919467815
 30
0.0
 11
205.39879939078861
 21
77.966209960094815
 31
0.0
  0
LINE
  5
888
  8
DETAIL
  6
DASHED2
 62
     5
 10
204.83123379445081
 20
76.3108038788409
 30
0.0
 11
205.11501659262009
 21
77.138506919467815
 31
0.0
  0
LINE
  5
889
  8
DETAIL
  6
DASHED2
 62
     5
 10
216.8447422994239
 20
75.48310083821373
 30
0.0
 11
216.56095950125521
 21
76.3108038788409
 31
0.0
  0
LINE
  5
88A
  8
DETAIL
  6
DASHED2
 62
     5
 10
217.1285250975931
 20
74.655397797586616
 30
0.0
 11
216.8447422994239
 21
75.48310083821373
 31
0.0
  0
LINE
  5
88B
  8
DETAIL
  6
DASHED2
 62
     5
 10
215.70961110674821
 20
78.793913000722029
 30
0.0
 11
215.4258283085797
 21
79.621616041348915
 31
0.0
  0
LINE
  5
88C
  8
DETAIL
  6
DASHED2
 62
     5
 10
215.99339390491721
 20
77.966209960094815
 30
0.0
 11
215.70961110674821
 21
78.793913000722029
 31
0.0
  0
LINE
  5
88D
  8
DETAIL
  6
DASHED2
 62
     5
 10
216.2771767030865
 20
77.138506919467815
 30
0.0
 11
215.99339390491721
 21
77.966209960094815
 31
0.0
  0
LINE
  5
88E
  8
DETAIL
  6
DASHED2
 62
     5
 10
216.56095950125521
 20
76.3108038788409
 30
0.0
 11
216.2771767030865
 21
77.138506919467815
 31
0.0
  0
LINE
  5
88F
  8
DETAIL
  6
DASHED2
 62
     5
 10
287.60514888325253
 20
65.000092051812018
 30
0.0
 11
287.8164908832527
 21
66.282809051812251
 31
0.0
  0
ARC
  5
890
  8
DETAIL
  6
DASHDOT1
 62
     5
 10
421.27849226191501
 20
179.6688534037666
 30
0.0
 40
49.0
 50
88.830617000000714
 51
181.16938299999919
  0
LINE
  5
891
  8
DETAIL
  6
DASHDOT1
 62
     5
 10
261.98442911047721
 20
133.8203788554716
 30
0.0
 11
261.98442911047721
 21
221.46211783712511
 31
0.0
  0
LINE
  5
892
  8
DETAIL
  6
DASHED2
 62
     5
 10
210.09672511047751
 20
160.0037218554715
 30
0.0
 11
282.09923811047821
 21
212.3166098554714
 31
0.0
  0
LINE
  5
893
  8
DETAIL
  6
DASHED2
 62
     5
 10
209.5089401104776
 20
160.81273885547159
 30
0.0
 11
281.51145311047702
 21
213.12562685547169
 31
0.0
  0
ARC
  5
894
  8
DETAIL
  6
DASHDOT1
 62
     5
 10
261.98442911047721
 20
198.32037885547149
 30
0.0
 40
64.5
 50
216.4441580000065
 51
270.0
  0
LINE
  5
895
  8
DETAIL
  6
DASHDOT
 62
     5
 10
210.09672511047751
 20
160.0037218554715
 30
0.0
 11
209.5089401104776
 21
160.81273885547159
 31
0.0
  0
LINE
  5
896
  8
DETAIL
  6
DASHED
 62
     5
 10
258.7398591104768
 20
196.6093088554716
 30
0.0
 11
264.9893691104773
 21
201.14984385547149
 31
0.0
  0
LINE
  5
897
  8
BASIS
  6
DASHDOT
 62
     6
 10
257.4672321104772
 20
198.9666268554717
 30
0.0
 11
266.70159911047699
 21
198.9666268554717
 31
0.0
  0
CIRCLE
  5
898
  8
DETAIL
  6
DASHED
 62
     5
 10
261.98442911047721
 20
198.9666268554717
 30
0.0
 40
2.0
  0
LINE
  5
899
  8
DETAIL
  6
DASHDOT
 62
     5
 10
281.51145311047702
 20
213.12562685547169
 30
0.0
 11
282.09923811047821
 21
212.3166098554714
 31
0.0
  0
LINE
  5
89A
  8
DETAIL
  6
DASHED2
 62
     5
 10
422.27849234796452
 20
181.40090416165481
 30
0.0
 11
422.27849242812073
 21
228.6586482560374
 31
0.0
  0
LINE
  5
89B
  8
DETAIL
  6
DASHED2
 62
     5
 10
420.27849226191501
 20
181.40090440376659
 30
0.0
 11
420.27849226191501
 21
228.66885340376649
 31
0.0
  0
ARC
  5
89C
  8
DETAIL
  6
DASHDOT1
 62
     5
 10
421.27849226191501
 20
179.6688534037666
 30
0.0
 40
49.0
 50
268.8306170000007
 51
1.1693829999992731
  0
LINE
  5
89D
  8
DETAIL
  6
DASHED2
 62
     5
 10
423.01054326191502
 20
178.6688534037666
 30
0.0
 11
470.27849226191478
 21
178.6688534037666
 31
0.0
  0
LINE
  5
89E
  8
DETAIL
  6
DASHED2
 62
     5
 10
423.01054326191502
 20
180.6688534037666
 30
0.0
 11
470.27849226191478
 21
180.6688534037666
 31
0.0
  0
LINE
  5
89F
  8
DETAIL
  6
DASHED
 62
     5
 10
434.677472261915
 20
178.6688534037666
 30
0.0
 11
470.27849226191478
 21
178.6688534037666
 31
0.0
  0
LINE
  5
8A0
  8
DETAIL
  6
DASHED2
 62
     5
 10
422.27849226191501
 20
130.6688534037666
 30
0.0
 11
422.27849234208878
 21
177.9368026424861
 31
0.0
  0
LINE
  5
8A1
  8
DETAIL
  6
DASHED2
 62
     5
 10
420.27849226191501
 20
130.6688534037666
 30
0.0
 11
420.27849226191501
 21
177.93680240376659
 31
0.0
  0
LINE
  5
8A2
  8
DETAIL
  6
DASHED
 62
     5
 10
422.27849226191501
 20
130.6688534037666
 30
0.0
 11
420.27849226191501
 21
130.6688534037666
 31
0.0
  0
LINE
  5
8A3
  8
DETAIL
  6
DASHED2
 62
     5
 10
372.27849226191501
 20
180.6688534037666
 30
0.0
 11
419.54644126191499
 21
180.6688534037666
 31
0.0
  0
LINE
  5
8A4
  8
DETAIL
  6
DASHED2
 62
     5
 10
372.27849226191501
 20
178.6688534037666
 30
0.0
 11
419.54644126191499
 21
178.6688534037666
 31
0.0
  0
LINE
  5
8A5
  8
DETAIL
  6
DASHED
 62
     5
 10
372.27849226191501
 20
178.6688534037666
 30
0.0
 11
372.27849226191501
 21
180.6688534037666
 31
0.0
  0
LINE
  5
8A6
  8
BASIS
 62
     6
 10
421.27849226191501
 20
183.81616945821779
 30
0.0
 11
421.27849226191501
 21
174.61991727870279
 31
0.0
  0
CIRCLE
  5
8A7
  8
DETAIL
  6
DASHED
 62
     5
 10
421.27849226191501
 20
179.6688534037666
 30
0.0
 40
2.0
  0
CIRCLE
  5
8A8
  8
DETAIL
  6
DASHED
 62
     5
 10
421.27849226191501
 20
179.6688534037666
 30
0.0
 40
2.0
  0
CIRCLE
  5
8A9
  8
DETAIL
  6
DASHED
 62
     5
 10
421.27849226191501
 20
179.6688534037666
 30
0.0
 40
2.0
  0
CIRCLE
  5
8AA
  8
DETAIL
  6
DASHED
 62
     5
 10
421.27849226191501
 20
179.6688534037666
 30
0.0
 40
2.0
  0
CIRCLE
  5
8AB
  8
DETAIL
  6
DASHED
 62
     5
 10
421.27849226191501
 20
179.6688534037666
 30
0.0
 40
2.0
  0
CIRCLE
  5
8AC
  8
DETAIL
  6
DASHED
 62
     5
 10
421.27849226191501
 20
179.6688534037666
 30
0.0
 40
2.0
  0
LINE
  5
8AD
  8
BASIS
 62
     6
 10
415.60041785986391
 20
179.6688534037666
 30
0.0
 11
426.19830128889208
 21
179.6688534037666
 31
0.0
  0
LINE
  5
8AE
  8
DETAIL
  6
DASHED
 62
     5
 10
470.27849226191478
 20
178.6688534037666
 30
0.0
 11
470.27849226191478
 21
180.6688534037666
 31
0.0
  0
ENDBLK
  5
8B0
  8
0
 62
    30
  0
ENDSEC
  0
SECTION
  2
ENTITIES
  0
ARC
  5
4D1
  8
DETAIL
  6
CONTINUOUS
 62
     5
 10
166.29509200000001
 20
158.20506800000001
 30
0.0
 40
5.0
 50
0.0
 51
12.516546999999999
  0
LINE
  5
4D2
  8
DETAIL
  6
CONTINUOUS
 62
     5
 10
171.29509200000001
 20
157.0
 30
0.0
 11
171.29509200000001
 21
158.20506800000001
 31
0.0
  0
LINE
  5
4D3
  8
DETAIL
  6
CONTINUOUS
 62
     5
 10
-108.27595100000001
 20
164.0
 30
0.0
 11
-27.800000000000001
 21
164.0
 31
0.0
  0
LINE
  5
4D4
  8
DETAIL
  6
CONTINUOUS
 62
     5
 10
-23.0
 20
172.0
 30
0.0
 11
-28.878557000000001
 21
162.202405
 31
0.0
  0
LINE
  5
4D5
  8
DETAIL
  6
CONTINUOUS
 62
     5
 10
131.9842619999998
 20
175.79280900000001
 30
0.0
 11
132.52595400000001
 21
176.7310479999999
 31
0.0
  0
LINE
  5
4D6
  8
DETAIL
  6
CONTINUOUS
 62
     5
 10
-144.30573499999991
 20
182.5
 30
0.0
 11
-139.44537500000001
 21
193.0
 31
0.0
  0
LINE
  5
4D7
  8
DETAIL
  6
CONTINUOUS
 62
     5
 10
-132.44537500000001
 20
193.0
 30
0.0
 11
-126.6398189999998
 21
186.5649479999999
 31
0.0
  0
LINE
  5
4D8
  8
DETAIL
  6
CONTINUOUS
 62
     5
 10
-144.30573499999991
 20
182.5
 30
0.0
 11
-144.31446199999991
 21
182.0
 31
0.0
  0
LINE
  5
4D9
  8
DETAIL
  6
CONTINUOUS
 62
     5
 10
25.303162
 20
155.0
 30
0.0
 11
109.70740499999999
 21
155.0
 31
0.0
  0
ARC
  5
4DA
  8
DETAIL
  6
CONTINUOUS
 62
     5
 10
-130.21413200000001
 20
183.0686229999998
 30
0.0
 40
5.0
 50
5.0
 51
44.368068000000001
  0
LINE
  5
4DB
  8
DETAIL
  6
CONTINUOUS
 62
     5
 10
-19.5
 20
171.995
 30
0.0
 11
-19.5
 21
177.9810479999999
 31
0.0
  0
ARC
  5
4DC
  8
DETAIL
  6
CONTINUOUS
 62
     5
 10
134.69101800000001
 20
175.4810479999999
 30
0.0
 40
2.5
 50
9.2551410000000001
 51
150.0
  0
LINE
  5
4DD
  8
DETAIL
  6
CONTINUOUS
 62
     5
 10
-23.0
 20
177.9810479999999
 30
0.0
 11
-19.5
 21
177.9810479999999
 31
0.0
  0
LINE
  5
4DE
  8
DETAIL
  6
CONTINUOUS
 62
     5
 10
-23.0
 20
172.0
 30
0.0
 11
-23.0
 21
177.9810479999999
 31
0.0
  0
LINE
  5
4DF
  8
DETAIL
  6
CONTINUOUS
 62
     5
 10
95.5
 20
155.0
 30
0.0
 11
95.5
 21
158.75
 31
0.0
  0
LINE
  5
4E0
  8
DETAIL
  6
CONTINUOUS
 62
     5
 10
29.0
 20
160.0
 30
0.0
 11
94.25
 21
160.0
 31
0.0
  0
LINE
  5
4E1
  8
DETAIL
  6
CONTINUOUS
 62
     5
 10
-125.1015399999999
 20
182.0
 30
0.0
 11
-125.233158
 21
183.50440199999991
 31
0.0
  0
ARC
  5
4E2
  8
DETAIL
  6
CONTINUOUS
 62
     5
 10
94.25
 20
158.75
 30
0.0
 40
1.25
 50
0.0
 51
90.0
  0
LINE
  5
4E3
  8
DETAIL
  6
CONTINUOUS
 62
     5
 10
-108.27595100000001
 20
155.0
 30
0.0
 11
-108.27595100000001
 21
164.0
 31
0.0
  0
LINE
  5
4E4
  8
DETAIL
  6
CONTINUOUS
 62
     5
 10
-69.5
 20
164.0
 30
0.0
 11
-69.5
 21
155.0
 31
0.0
  0
LINE
  5
4E5
  8
DETAIL
  6
CONTINUOUS
 62
     5
 10
19.5
 20
171.995
 30
0.0
 11
19.5
 21
177.9810479999999
 31
0.0
  0
LINE
  5
4E6
  8
DETAIL
  6
CONTINUOUS
 62
     5
 10
23.0
 20
177.9810479999999
 30
0.0
 11
19.5
 21
177.9810479999999
 31
0.0
  0
LINE
  5
4E7
  8
DETAIL
  6
CONTINUOUS
 62
     5
 10
23.0
 20
172.0
 30
0.0
 11
23.0
 21
177.9810479999999
 31
0.0
  0
LINE
  5
4E8
  8
DETAIL
  6
CONTINUOUS
 62
     5
 10
23.0
 20
172.0
 30
0.0
 11
28.878557000000001
 21
162.202405
 31
0.0
  0
LINE
  5
4E9
  8
DETAIL
  6
CONTINUOUS
 62
     5
 10
-152.34285700000001
 20
155.0
 30
0.0
 11
-25.303162
 21
155.0
 31
0.0
  0
LINE
  5
4EA
  8
DETAIL
  6
CONTINUOUS
 62
     5
 10
-123.65362399999979
 20
175.39952199999999
 30
0.0
 11
-117.30350900000001
 21
155.0
 31
0.0
  0
ARC
  5
4EB
  8
DETAIL
  6
CONTINUOUS
 62
     5
 10
73.283682999999982
 20
165.5
 30
0.0
 40
3.5
 50
15.0
 51
90.0
  0
LINE
  5
4EC
  8
DETAIL
  6
CONTINUOUS
 62
     5
 10
78.105742000000006
 20
160.0
 30
0.0
 11
76.664423999999983
 21
166.405867
 31
0.0
  0
LINE
  5
4ED
  8
DETAIL
  6
CONTINUOUS
 62
     5
 10
-78.999968999999965
 20
155.0
 30
0.0
 11
-53.997973000000002
 21
155.0
 31
0.0
  0
LINE
  5
4EE
  8
DETAIL
  6
CONTINUOUS
 62
     5
 10
-24.797000000000001
 20
169.0
 30
0.0
 11
-47.383636999999993
 21
169.0
 31
0.0
  0
LINE
  5
4EF
  8
DETAIL
  6
CONTINUOUS
 62
     5
 10
24.797000000000001
 20
169.0
 30
0.0
 11
73.283682999999982
 21
169.0
 31
0.0
  0
LINE
  5
4F0
  8
DETAIL
  6
CONTINUOUS
 62
     5
 10
54.5
 20
169.0
 30
0.0
 11
54.900019999999998
 21
169.0
 31
0.0
  0
LINE
  5
4F1
  8
DETAIL
  6
CONTINUOUS
 62
     5
 10
-51.033945000000003
 20
164.0
 30
0.0
 11
-50.764429999999997
 21
166.4058149999999
 31
0.0
  0
ARC
  5
4F2
  8
DETAIL
  6
CONTINUOUS
 62
     5
 10
-47.383690000000001
 20
165.49994799999979
 30
0.0
 40
3.5
 50
90.0
 51
165.0
  0
ARC
  5
4F3
  8
DETAIL
  6
CONTINUOUS
 62
     5
 10
-150.0
 20
175.5
 30
0.0
 40
2.0
 50
90.0
 51
180.0
  0
ARC
  5
4F4
  8
DETAIL
  6
CONTINUOUS
 62
     5
 10
-145.9460439999998
 20
181.0
 30
0.0
 40
1.0
 50
90.0
 51
180.0
  0
ARC
  5
4F5
  8
DETAIL
  6
CONTINUOUS
 62
     5
 10
-145.9460439999998
 20
181.0
 30
0.0
 40
1.0
 50
0.0
 51
90.0
  0
LINE
  5
4F6
  8
DETAIL
  6
CONTINUOUS
 62
     5
 10
-146.9460439999998
 20
177.5
 30
0.0
 11
-150.0
 21
177.5
 31
0.0
  0
LINE
  5
4F7
  8
DETAIL
  6
CONTINUOUS
 62
     5
 10
-145.9460439999998
 20
182.0
 30
0.0
 11
-122.9460439999999
 21
182.0
 31
0.0
  0
LINE
  5
4F8
  8
DETAIL
  6
CONTINUOUS
 62
     5
 10
-146.9460439999998
 20
177.5
 30
0.0
 11
-146.9460439999998
 21
181.0
 31
0.0
  0
LINE
  5
4F9
  8
DETAIL
  6
CONTINUOUS
 62
     5
 10
-144.946044
 20
175.39952199999999
 30
0.0
 11
-144.946044
 21
181.0
 31
0.0
  0
LINE
  5
4FA
  8
DETAIL
  6
CONTINUOUS
 62
     5
 10
-145.44667200000001
 20
175.39952199999999
 30
0.0
 11
-145.80274700000001
 21
155.0
 31
0.0
  0
ARC
  5
4FB
  8
DETAIL
  6
CONTINUOUS
 62
     5
 10
-122.9460439999999
 20
181.0
 30
0.0
 40
1.0
 50
0.0
 51
90.0
  0
LINE
  5
4FC
  8
DETAIL
  6
CONTINUOUS
 62
     5
 10
-121.9460439999999
 20
175.39952199999999
 30
0.0
 11
-121.9460439999999
 21
181.0
 31
0.0
  0
LINE
  5
4FD
  8
DETAIL
  6
CONTINUOUS
 62
     5
 10
-141.5
 20
-17.0
 30
0.0
 11
-141.288206
 21
-19.541523000000002
 31
0.0
  0
LINE
  5
4FE
  8
DETAIL
  6
CONTINUOUS
 62
     5
 10
-141.5
 20
-17.0
 30
0.0
 11
-141.5
 21
-16.5
 31
0.0
  0
LINE
  5
4FF
  8
DETAIL
  6
CONTINUOUS
 62
     5
 10
-137.71179399999991
 20
-19.541523000000002
 30
0.0
 11
-137.5
 21
-17.0
 31
0.0
  0
LINE
  5
500
  8
DETAIL
  6
CONTINUOUS
 62
     5
 10
-137.5
 20
-17.0
 30
0.0
 11
-137.5
 21
-16.5
 31
0.0
  0
LINE
  5
501
  8
DETAIL
  6
CONTINUOUS
 62
     5
 10
-138.21006600000001
 20
-20.0
 30
0.0
 11
-140.7899339999999
 21
-20.0
 31
0.0
  0
ARC
  5
502
  8
DETAIL
  6
CONTINUOUS
 62
     5
 10
-138.21006600000001
 20
-19.5
 30
0.0
 40
0.5
 50
270.0
 51
355.236358
  0
ARC
  5
503
  8
DETAIL
  6
CONTINUOUS
 62
     5
 10
-140.7899339999999
 20
-19.5
 30
0.0
 40
0.5
 50
184.76364199999989
 51
270.0
  0
LINE
  5
504
  8
DETAIL
  6
CONTINUOUS
 62
     5
 10
-132.4999999999998
 20
-17.0
 30
0.0
 11
-132.2882059999998
 21
-19.541523000000002
 31
0.0
  0
LINE
  5
505
  8
DETAIL
  6
CONTINUOUS
 62
     5
 10
-132.4999999999998
 20
-17.0
 30
0.0
 11
-132.4999999999998
 21
-16.5
 31
0.0
  0
LINE
  5
506
  8
DETAIL
  6
CONTINUOUS
 62
     5
 10
-128.71179399999991
 20
-19.541523000000002
 30
0.0
 11
-128.4999999999998
 21
-17.0
 31
0.0
  0
LINE
  5
507
  8
DETAIL
  6
CONTINUOUS
 62
     5
 10
-128.4999999999998
 20
-17.0
 30
0.0
 11
-128.4999999999998
 21
-16.5
 31
0.0
  0
LINE
  5
508
  8
DETAIL
  6
CONTINUOUS
 62
     5
 10
-129.21006600000001
 20
-20.0
 30
0.0
 11
-131.78993399999979
 21
-20.0
 31
0.0
  0
ARC
  5
509
  8
DETAIL
  6
CONTINUOUS
 62
     5
 10
-129.21006600000001
 20
-19.5
 30
0.0
 40
0.5
 50
270.0
 51
355.236358
  0
ARC
  5
50A
  8
DETAIL
  6
CONTINUOUS
 62
     5
 10
-131.78993399999979
 20
-19.5
 30
0.0
 40
0.5
 50
184.76364199999989
 51
270.0
  0
LINE
  5
50B
  8
DETAIL
  6
CONTINUOUS
 62
     5
 10
-123.5
 20
-17.0
 30
0.0
 11
-123.288206
 21
-19.541523000000002
 31
0.0
  0
LINE
  5
50C
  8
DETAIL
  6
CONTINUOUS
 62
     5
 10
-123.5
 20
-17.0
 30
0.0
 11
-123.5
 21
-16.5
 31
0.0
  0
LINE
  5
50D
  8
DETAIL
  6
CONTINUOUS
 62
     5
 10
-119.711794
 20
-19.541523000000002
 30
0.0
 11
-119.5
 21
-17.0
 31
0.0
  0
LINE
  5
50E
  8
DETAIL
  6
CONTINUOUS
 62
     5
 10
-119.5
 20
-17.0
 30
0.0
 11
-119.5
 21
-16.5
 31
0.0
  0
LINE
  5
50F
  8
DETAIL
  6
CONTINUOUS
 62
     5
 10
-120.2100659999999
 20
-20.0
 30
0.0
 11
-122.789934
 21
-20.0
 31
0.0
  0
ARC
  5
510
  8
DETAIL
  6
CONTINUOUS
 62
     5
 10
-120.2100659999999
 20
-19.5
 30
0.0
 40
0.5
 50
270.0
 51
355.236358
  0
ARC
  5
511
  8
DETAIL
  6
CONTINUOUS
 62
     5
 10
-122.789934
 20
-19.5
 30
0.0
 40
0.5
 50
184.76364199999989
 51
270.0
  0
LINE
  5
512
  8
DETAIL
  6
CONTINUOUS
 62
     5
 10
-114.5
 20
-17.0
 30
0.0
 11
-114.288206
 21
-19.541523000000002
 31
0.0
  0
LINE
  5
513
  8
DETAIL
  6
CONTINUOUS
 62
     5
 10
-114.5
 20
-17.0
 30
0.0
 11
-114.5
 21
-16.5
 31
0.0
  0
LINE
  5
514
  8
DETAIL
  6
CONTINUOUS
 62
     5
 10
-110.7117939999999
 20
-19.541523000000002
 30
0.0
 11
-110.4999999999999
 21
-17.0
 31
0.0
  0
LINE
  5
515
  8
DETAIL
  6
CONTINUOUS
 62
     5
 10
-110.4999999999999
 20
-17.0
 30
0.0
 11
-110.4999999999999
 21
-16.5
 31
0.0
  0
LINE
  5
516
  8
DETAIL
  6
CONTINUOUS
 62
     5
 10
-111.210066
 20
-20.0
 30
0.0
 11
-113.789934
 21
-20.0
 31
0.0
  0
ARC
  5
517
  8
DETAIL
  6
CONTINUOUS
 62
     5
 10
-111.210066
 20
-19.5
 30
0.0
 40
0.5
 50
270.0
 51
355.236358
  0
ARC
  5
518
  8
DETAIL
  6
CONTINUOUS
 62
     5
 10
-113.789934
 20
-19.5
 30
0.0
 40
0.5
 50
184.76364199999989
 51
270.0
  0
LINE
  5
519
  8
DETAIL
  6
CONTINUOUS
 62
     5
 10
-105.4999999999999
 20
-17.0
 30
0.0
 11
-105.2882059999999
 21
-19.541523000000002
 31
0.0
  0
LINE
  5
51A
  8
DETAIL
  6
CONTINUOUS
 62
     5
 10
-105.4999999999999
 20
-17.0
 30
0.0
 11
-105.4999999999999
 21
-16.5
 31
0.0
  0
LINE
  5
51B
  8
DETAIL
  6
CONTINUOUS
 62
     5
 10
-101.7117939999998
 20
-19.541523000000002
 30
0.0
 11
-101.5
 21
-17.0
 31
0.0
  0
LINE
  5
51C
  8
DETAIL
  6
CONTINUOUS
 62
     5
 10
-101.5
 20
-17.0
 30
0.0
 11
-101.5
 21
-16.5
 31
0.0
  0
LINE
  5
51D
  8
DETAIL
  6
CONTINUOUS
 62
     5
 10
-102.2100659999999
 20
-20.0
 30
0.0
 11
-104.789934
 21
-20.0
 31
0.0
  0
ARC
  5
51E
  8
DETAIL
  6
CONTINUOUS
 62
     5
 10
-102.2100659999999
 20
-19.5
 30
0.0
 40
0.5
 50
270.0
 51
355.236358
  0
ARC
  5
51F
  8
DETAIL
  6
CONTINUOUS
 62
     5
 10
-104.789934
 20
-19.5
 30
0.0
 40
0.5
 50
184.76364199999989
 51
270.0
  0
LINE
  5
520
  8
DETAIL
  6
CONTINUOUS
 62
     5
 10
-96.5
 20
-17.0
 30
0.0
 11
-96.288206000000002
 21
-19.541523000000002
 31
0.0
  0
LINE
  5
521
  8
DETAIL
  6
CONTINUOUS
 62
     5
 10
-96.5
 20
-17.0
 30
0.0
 11
-96.5
 21
-16.5
 31
0.0
  0
LINE
  5
522
  8
DETAIL
  6
CONTINUOUS
 62
     5
 10
-92.711793999999983
 20
-19.541523000000002
 30
0.0
 11
-92.5
 21
-17.0
 31
0.0
  0
LINE
  5
523
  8
DETAIL
  6
CONTINUOUS
 62
     5
 10
-92.5
 20
-17.0
 30
0.0
 11
-92.5
 21
-16.5
 31
0.0
  0
LINE
  5
524
  8
DETAIL
  6
CONTINUOUS
 62
     5
 10
-93.210065999999998
 20
-20.0
 30
0.0
 11
-95.789933999999988
 21
-20.0
 31
0.0
  0
ARC
  5
525
  8
DETAIL
  6
CONTINUOUS
 62
     5
 10
-93.210065999999998
 20
-19.5
 30
0.0
 40
0.5
 50
270.0
 51
355.236358
  0
ARC
  5
526
  8
DETAIL
  6
CONTINUOUS
 62
     5
 10
-95.789933999999988
 20
-19.5
 30
0.0
 40
0.5
 50
184.76364199999989
 51
270.0
  0
LINE
  5
527
  8
DETAIL
  6
CONTINUOUS
 62
     5
 10
-87.5
 20
-17.0
 30
0.0
 11
-87.288206000000002
 21
-19.541523000000002
 31
0.0
  0
LINE
  5
528
  8
DETAIL
  6
CONTINUOUS
 62
     5
 10
-87.5
 20
-17.0
 30
0.0
 11
-87.5
 21
-16.5
 31
0.0
  0
LINE
  5
529
  8
DETAIL
  6
CONTINUOUS
 62
     5
 10
-83.711793999999998
 20
-19.541523000000002
 30
0.0
 11
-83.499999999999986
 21
-17.0
 31
0.0
  0
LINE
  5
52A
  8
DETAIL
  6
CONTINUOUS
 62
     5
 10
-83.499999999999986
 20
-17.0
 30
0.0
 11
-83.499999999999986
 21
-16.5
 31
0.0
  0
LINE
  5
52B
  8
DETAIL
  6
CONTINUOUS
 62
     5
 10
-84.210065999999998
 20
-20.0
 30
0.0
 11
-86.789934000000017
 21
-20.0
 31
0.0
  0
ARC
  5
52C
  8
DETAIL
  6
CONTINUOUS
 62
     5
 10
-84.210065999999998
 20
-19.5
 30
0.0
 40
0.5
 50
270.0
 51
355.236358
  0
ARC
  5
52D
  8
DETAIL
  6
CONTINUOUS
 62
     5
 10
-86.789934000000017
 20
-19.5
 30
0.0
 40
0.5
 50
184.76364199999989
 51
270.0
  0
LINE
  5
52E
  8
DETAIL
  6
CONTINUOUS
 62
     5
 10
-78.5
 20
-17.0
 30
0.0
 11
-78.288206000000002
 21
-19.541523000000002
 31
0.0
  0
LINE
  5
52F
  8
DETAIL
  6
CONTINUOUS
 62
     5
 10
-78.5
 20
-17.0
 30
0.0
 11
-78.5
 21
-16.5
 31
0.0
  0
LINE
  5
530
  8
DETAIL
  6
CONTINUOUS
 62
     5
 10
-74.711793999999998
 20
-19.541523000000002
 30
0.0
 11
-74.5
 21
-17.0
 31
0.0
  0
LINE
  5
531
  8
DETAIL
  6
CONTINUOUS
 62
     5
 10
-74.5
 20
-17.0
 30
0.0
 11
-74.5
 21
-16.5
 31
0.0
  0
LINE
  5
532
  8
DETAIL
  6
CONTINUOUS
 62
     5
 10
-75.210065999999983
 20
-20.0
 30
0.0
 11
-77.789934000000002
 21
-20.0
 31
0.0
  0
ARC
  5
533
  8
DETAIL
  6
CONTINUOUS
 62
     5
 10
-75.210065999999983
 20
-19.5
 30
0.0
 40
0.5
 50
270.0
 51
355.236358
  0
ARC
  5
534
  8
DETAIL
  6
CONTINUOUS
 62
     5
 10
-77.789934000000002
 20
-19.5
 30
0.0
 40
0.5
 50
184.76364199999989
 51
270.0
  0
LINE
  5
535
  8
DETAIL
  6
CONTINUOUS
 62
     5
 10
-69.5
 20
-17.0
 30
0.0
 11
-69.288206000000002
 21
-19.541523000000002
 31
0.0
  0
LINE
  5
536
  8
DETAIL
  6
CONTINUOUS
 62
     5
 10
-69.5
 20
-17.0
 30
0.0
 11
-69.5
 21
-16.5
 31
0.0
  0
LINE
  5
537
  8
DETAIL
  6
CONTINUOUS
 62
     5
 10
-65.711793999999998
 20
-19.541523000000002
 30
0.0
 11
-65.5
 21
-17.0
 31
0.0
  0
LINE
  5
538
  8
DETAIL
  6
CONTINUOUS
 62
     5
 10
-65.5
 20
-17.0
 30
0.0
 11
-65.5
 21
-16.5
 31
0.0
  0
LINE
  5
539
  8
DETAIL
  6
CONTINUOUS
 62
     5
 10
-66.210065999999998
 20
-20.0
 30
0.0
 11
-68.789934000000002
 21
-20.0
 31
0.0
  0
ARC
  5
53A
  8
DETAIL
  6
CONTINUOUS
 62
     5
 10
-66.210065999999998
 20
-19.5
 30
0.0
 40
0.5
 50
270.0
 51
355.236358
  0
ARC
  5
53B
  8
DETAIL
  6
CONTINUOUS
 62
     5
 10
-68.789934000000002
 20
-19.5
 30
0.0
 40
0.5
 50
184.76364199999989
 51
270.0
  0
LINE
  5
53C
  8
DETAIL
  6
CONTINUOUS
 62
     5
 10
-60.5
 20
-17.0
 30
0.0
 11
-60.288206000000002
 21
-19.541523000000002
 31
0.0
  0
LINE
  5
53D
  8
DETAIL
  6
CONTINUOUS
 62
     5
 10
-60.5
 20
-17.0
 30
0.0
 11
-60.5
 21
-16.5
 31
0.0
  0
LINE
  5
53E
  8
DETAIL
  6
CONTINUOUS
 62
     5
 10
-56.71179399999999
 20
-19.541523000000002
 30
0.0
 11
-56.5
 21
-17.0
 31
0.0
  0
LINE
  5
53F
  8
DETAIL
  6
CONTINUOUS
 62
     5
 10
-56.5
 20
-17.0
 30
0.0
 11
-56.5
 21
-16.5
 31
0.0
  0
LINE
  5
540
  8
DETAIL
  6
CONTINUOUS
 62
     5
 10
-57.210065999999991
 20
-20.0
 30
0.0
 11
-59.789934000000002
 21
-20.0
 31
0.0
  0
ARC
  5
541
  8
DETAIL
  6
CONTINUOUS
 62
     5
 10
-57.210065999999991
 20
-19.5
 30
0.0
 40
0.5
 50
270.0
 51
355.236358
  0
ARC
  5
542
  8
DETAIL
  6
CONTINUOUS
 62
     5
 10
-59.789934000000002
 20
-19.5
 30
0.0
 40
0.5
 50
184.76364199999989
 51
270.0
  0
LINE
  5
543
  8
DETAIL
  6
CONTINUOUS
 62
     5
 10
-51.5
 20
-17.0
 30
0.0
 11
-51.288206000000002
 21
-19.541523000000002
 31
0.0
  0
LINE
  5
544
  8
DETAIL
  6
CONTINUOUS
 62
     5
 10
-51.5
 20
-17.0
 30
0.0
 11
-51.5
 21
-16.5
 31
0.0
  0
LINE
  5
545
  8
DETAIL
  6
CONTINUOUS
 62
     5
 10
-47.711793999999998
 20
-19.541523000000002
 30
0.0
 11
-47.5
 21
-17.0
 31
0.0
  0
LINE
  5
546
  8
DETAIL
  6
CONTINUOUS
 62
     5
 10
-47.5
 20
-17.0
 30
0.0
 11
-47.5
 21
-16.5
 31
0.0
  0
LINE
  5
547
  8
DETAIL
  6
CONTINUOUS
 62
     5
 10
-48.210065999999998
 20
-20.0
 30
0.0
 11
-50.789934000000002
 21
-20.0
 31
0.0
  0
ARC
  5
548
  8
DETAIL
  6
CONTINUOUS
 62
     5
 10
-48.210065999999998
 20
-19.5
 30
0.0
 40
0.5
 50
270.0
 51
355.236358
  0
ARC
  5
549
  8
DETAIL
  6
CONTINUOUS
 62
     5
 10
-50.789934000000002
 20
-19.5
 30
0.0
 40
0.5
 50
184.76364199999989
 51
270.0
  0
LINE
  5
54A
  8
DETAIL
  6
CONTINUOUS
 62
     5
 10
-42.5
 20
-17.0
 30
0.0
 11
-42.288206000000002
 21
-19.541523000000002
 31
0.0
  0
LINE
  5
54B
  8
DETAIL
  6
CONTINUOUS
 62
     5
 10
-42.5
 20
-17.0
 30
0.0
 11
-42.5
 21
-16.5
 31
0.0
  0
LINE
  5
54C
  8
DETAIL
  6
CONTINUOUS
 62
     5
 10
-38.71179399999999
 20
-19.541523000000002
 30
0.0
 11
-38.5
 21
-17.0
 31
0.0
  0
LINE
  5
54D
  8
DETAIL
  6
CONTINUOUS
 62
     5
 10
-38.5
 20
-17.0
 30
0.0
 11
-38.5
 21
-16.5
 31
0.0
  0
LINE
  5
54E
  8
DETAIL
  6
CONTINUOUS
 62
     5
 10
-39.210065999999998
 20
-20.0
 30
0.0
 11
-41.789934000000002
 21
-20.0
 31
0.0
  0
ARC
  5
54F
  8
DETAIL
  6
CONTINUOUS
 62
     5
 10
-39.210065999999998
 20
-19.5
 30
0.0
 40
0.5
 50
270.0
 51
355.236358
  0
ARC
  5
550
  8
DETAIL
  6
CONTINUOUS
 62
     5
 10
-41.789934000000002
 20
-19.5
 30
0.0
 40
0.5
 50
184.76364199999989
 51
270.0
  0
LINE
  5
551
  8
DETAIL
  6
CONTINUOUS
 62
     5
 10
-33.5
 20
-17.0
 30
0.0
 11
-33.288206000000002
 21
-19.541523000000002
 31
0.0
  0
LINE
  5
552
  8
DETAIL
  6
CONTINUOUS
 62
     5
 10
-33.5
 20
-17.0
 30
0.0
 11
-33.5
 21
-16.5
 31
0.0
  0
LINE
  5
553
  8
DETAIL
  6
CONTINUOUS
 62
     5
 10
-29.711794000000001
 20
-19.541523000000002
 30
0.0
 11
-29.5
 21
-17.0
 31
0.0
  0
LINE
  5
554
  8
DETAIL
  6
CONTINUOUS
 62
     5
 10
-29.5
 20
-17.0
 30
0.0
 11
-29.5
 21
-16.5
 31
0.0
  0
LINE
  5
555
  8
DETAIL
  6
CONTINUOUS
 62
     5
 10
-30.210066000000001
 20
-20.0
 30
0.0
 11
-32.789934000000002
 21
-20.0
 31
0.0
  0
ARC
  5
556
  8
DETAIL
  6
CONTINUOUS
 62
     5
 10
-30.210066000000001
 20
-19.5
 30
0.0
 40
0.5
 50
270.0
 51
355.236358
  0
ARC
  5
557
  8
DETAIL
  6
CONTINUOUS
 62
     5
 10
-32.789934000000002
 20
-19.5
 30
0.0
 40
0.5
 50
184.76364199999989
 51
270.0
  0
LINE
  5
558
  8
DETAIL
  6
CONTINUOUS
 62
     5
 10
-24.5
 20
-17.0
 30
0.0
 11
-24.288205999999992
 21
-19.541523000000002
 31
0.0
  0
LINE
  5
559
  8
DETAIL
  6
CONTINUOUS
 62
     5
 10
-24.5
 20
-17.0
 30
0.0
 11
-24.5
 21
-16.5
 31
0.0
  0
LINE
  5
55A
  8
DETAIL
  6
CONTINUOUS
 62
     5
 10
-20.711794000000001
 20
-19.541523000000002
 30
0.0
 11
-20.5
 21
-17.0
 31
0.0
  0
LINE
  5
55B
  8
DETAIL
  6
CONTINUOUS
 62
     5
 10
-20.5
 20
-17.0
 30
0.0
 11
-20.5
 21
-16.5
 31
0.0
  0
LINE
  5
55C
  8
DETAIL
  6
CONTINUOUS
 62
     5
 10
-21.210066000000001
 20
-20.0
 30
0.0
 11
-23.789933999999999
 21
-20.0
 31
0.0
  0
ARC
  5
55D
  8
DETAIL
  6
CONTINUOUS
 62
     5
 10
-21.210066000000001
 20
-19.5
 30
0.0
 40
0.5
 50
270.0
 51
355.236358
  0
ARC
  5
55E
  8
DETAIL
  6
CONTINUOUS
 62
     5
 10
-23.789933999999999
 20
-19.5
 30
0.0
 40
0.5
 50
184.76364199999989
 51
270.0
  0
LINE
  5
55F
  8
DETAIL
  6
CONTINUOUS
 62
     5
 10
-15.5
 20
-17.0
 30
0.0
 11
-15.288206000000001
 21
-19.541523000000002
 31
0.0
  0
LINE
  5
560
  8
DETAIL
  6
CONTINUOUS
 62
     5
 10
-15.5
 20
-17.0
 30
0.0
 11
-15.5
 21
-16.5
 31
0.0
  0
LINE
  5
561
  8
DETAIL
  6
CONTINUOUS
 62
     5
 10
-11.71179399999999
 20
-19.541523000000002
 30
0.0
 11
-11.5
 21
-17.0
 31
0.0
  0
LINE
  5
562
  8
DETAIL
  6
CONTINUOUS
 62
     5
 10
-11.5
 20
-17.0
 30
0.0
 11
-11.5
 21
-16.5
 31
0.0
  0
LINE
  5
563
  8
DETAIL
  6
CONTINUOUS
 62
     5
 10
-12.210065999999991
 20
-20.0
 30
0.0
 11
-14.789934000000001
 21
-20.0
 31
0.0
  0
ARC
  5
564
  8
DETAIL
  6
CONTINUOUS
 62
     5
 10
-12.210065999999991
 20
-19.5
 30
0.0
 40
0.5
 50
270.0
 51
355.236358
  0
ARC
  5
565
  8
DETAIL
  6
CONTINUOUS
 62
     5
 10
-14.789934000000001
 20
-19.5
 30
0.0
 40
0.5
 50
184.76364199999989
 51
270.0
  0
LINE
  5
566
  8
DETAIL
  6
CONTINUOUS
 62
     5
 10
-3.2100659999999981
 20
-20.0
 30
0.0
 11
-5.7899339999999979
 21
-20.0
 31
0.0
  0
LINE
  5
567
  8
DETAIL
  6
CONTINUOUS
 62
     5
 10
-2.711793999999998
 20
-19.541523000000002
 30
0.0
 11
-2.5
 21
-17.0
 31
0.0
  0
LINE
  5
568
  8
DETAIL
  6
CONTINUOUS
 62
     5
 10
-6.5
 20
-17.0
 30
0.0
 11
-6.288205999999998
 21
-19.541523000000002
 31
0.0
  0
ARC
  5
569
  8
DETAIL
  6
CONTINUOUS
 62
     5
 10
-3.2100659999999981
 20
-19.5
 30
0.0
 40
0.5
 50
270.0
 51
355.236358
  0
ARC
  5
56A
  8
DETAIL
  6
CONTINUOUS
 62
     5
 10
-5.7899339999999979
 20
-19.5
 30
0.0
 40
0.5
 50
184.76364199999989
 51
270.0
  0
LINE
  5
56B
  8
DETAIL
  6
CONTINUOUS
 62
     5
 10
0.0
 20
-16.5
 30
0.0
 11
-2.5
 21
-16.5
 31
0.0
  0
LINE
  5
56C
  8
DETAIL
  6
CONTINUOUS
 62
     5
 10
-141.5
 20
-16.5
 30
0.0
 11
-146.5
 21
-16.5
 31
0.0
  0
LINE
  5
56D
  8
DETAIL
  6
CONTINUOUS
 62
     5
 10
-132.4999999999998
 20
-16.5
 30
0.0
 11
-137.5
 21
-16.5
 31
0.0
  0
LINE
  5
56E
  8
DETAIL
  6
CONTINUOUS
 62
     5
 10
-123.5
 20
-16.5
 30
0.0
 11
-128.4999999999998
 21
-16.5
 31
0.0
  0
LINE
  5
56F
  8
DETAIL
  6
CONTINUOUS
 62
     5
 10
-114.5
 20
-16.5
 30
0.0
 11
-119.5
 21
-16.5
 31
0.0
  0
LINE
  5
570
  8
DETAIL
  6
CONTINUOUS
 62
     5
 10
-105.4999999999999
 20
-16.5
 30
0.0
 11
-110.4999999999999
 21
-16.5
 31
0.0
  0
LINE
  5
571
  8
DETAIL
  6
CONTINUOUS
 62
     5
 10
-96.5
 20
-16.5
 30
0.0
 11
-101.5
 21
-16.5
 31
0.0
  0
LINE
  5
572
  8
DETAIL
  6
CONTINUOUS
 62
     5
 10
-87.5
 20
-16.5
 30
0.0
 11
-92.5
 21
-16.5
 31
0.0
  0
LINE
  5
573
  8
DETAIL
  6
CONTINUOUS
 62
     5
 10
-78.5
 20
-16.5
 30
0.0
 11
-83.499999999999986
 21
-16.5
 31
0.0
  0
LINE
  5
574
  8
DETAIL
  6
CONTINUOUS
 62
     5
 10
-69.5
 20
-16.5
 30
0.0
 11
-74.5
 21
-16.5
 31
0.0
  0
LINE
  5
575
  8
DETAIL
  6
CONTINUOUS
 62
     5
 10
-60.5
 20
-16.5
 30
0.0
 11
-65.5
 21
-16.5
 31
0.0
  0
LINE
  5
576
  8
DETAIL
  6
CONTINUOUS
 62
     5
 10
-51.5
 20
-16.5
 30
0.0
 11
-56.5
 21
-16.5
 31
0.0
  0
LINE
  5
577
  8
DETAIL
  6
CONTINUOUS
 62
     5
 10
-42.5
 20
-16.5
 30
0.0
 11
-47.5
 21
-16.5
 31
0.0
  0
LINE
  5
578
  8
DETAIL
  6
CONTINUOUS
 62
     5
 10
-33.5
 20
-16.5
 30
0.0
 11
-38.5
 21
-16.5
 31
0.0
  0
LINE
  5
579
  8
DETAIL
  6
CONTINUOUS
 62
     5
 10
-24.5
 20
-16.5
 30
0.0
 11
-29.5
 21
-16.5
 31
0.0
  0
LINE
  5
57A
  8
DETAIL
  6
CONTINUOUS
 62
     5
 10
-15.5
 20
-16.5
 30
0.0
 11
-20.5
 21
-16.5
 31
0.0
  0
LINE
  5
57B
  8
DETAIL
  6
CONTINUOUS
 62
     5
 10
-6.5
 20
-16.5
 30
0.0
 11
-11.5
 21
-16.5
 31
0.0
  0
LINE
  5
57C
  8
DETAIL
  6
CONTINUOUS
 62
     5
 10
-6.5
 20
-17.0
 30
0.0
 11
-6.5
 21
-16.5
 31
0.0
  0
LINE
  5
57D
  8
DETAIL
  6
CONTINUOUS
 62
     5
 10
-2.5
 20
-17.0
 30
0.0
 11
-2.5
 21
-16.5
 31
0.0
  0
LINE
  5
57E
  8
DETAIL
  6
CONTINUOUS
 62
     5
 10
-146.5
 20
-19.5
 30
0.0
 11
-146.5
 21
-16.5
 31
0.0
  0
LINE
  5
57F
  8
DETAIL
  6
CONTINUOUS
 62
     5
 10
-181.398608
 20
-15.0
 30
0.0
 11
0.0
 21
-15.0
 31
0.0
  0
LINE
  5
580
  8
DETAIL
  6
CONTINUOUS
 62
     5
 10
-181.398608
 20
-20.0
 30
0.0
 11
-147.0
 21
-20.0
 31
0.0
  0
ARC
  5
581
  8
DETAIL
  6
CONTINUOUS
 62
     5
 10
-147.0
 20
-19.5
 30
0.0
 40
0.5
 50
270.0
 51
0.0
  0
LINE
  5
582
  8
DETAIL
  6
CONTINUOUS
 62
     5
 10
-190.0
 20
0.0
 30
0.0
 11
-190.0
 21
-11.398607999999991
 31
0.0
  0
ARC
  5
583
  8
DETAIL
  6
CONTINUOUS
 62
     5
 10
-181.398608
 20
-10.0
 30
0.0
 40
5.0
 50
232.31524099999999
 51
270.0
  0
ARC
  5
584
  8
DETAIL
  6
CONTINUOUS
 62
     5
 10
-185.0
 20
-6.3986080000000003
 30
0.0
 40
5.0
 50
180.0
 51
217.68475900000001
  0
ARC
  5
585
  8
DETAIL
  6
CONTINUOUS
 62
     5
 10
-169.17227700000001
 20
5.827722999999998
 30
0.0
 40
25.0
 50
217.68475900000001
 51
232.31524099999999
  0
ARC
  5
586
  8
DETAIL
  6
CONTINUOUS
 62
     5
 10
-147.0
 20
-19.5
 30
0.0
 40
0.5
 50
270.0
 51
0.0
  0
ARC
  5
587
  8
DETAIL
  6
CONTINUOUS
 62
     5
 10
-181.398608
 20
-15.0
 30
0.0
 40
5.0
 50
232.31524099999999
 51
270.0
  0
ARC
  5
588
  8
DETAIL
  6
CONTINUOUS
 62
     5
 10
-169.17227700000001
 20
0.8277229999999999
 30
0.0
 40
25.0
 50
217.68475900000001
 51
232.31524099999999
  0
ARC
  5
589
  8
DETAIL
  6
CONTINUOUS
 62
     5
 10
-185.0
 20
-11.398607999999991
 30
0.0
 40
5.0
 50
180.0
 51
217.68475900000001
  0
LINE
  5
58A
  8
DETAIL
  6
CONTINUOUS
 62
     5
 10
141.5
 20
-17.0
 30
0.0
 11
141.288206
 21
-19.541523000000002
 31
0.0
  0
LINE
  5
58B
  8
DETAIL
  6
CONTINUOUS
 62
     5
 10
141.5
 20
-17.0
 30
0.0
 11
141.5
 21
-16.5
 31
0.0
  0
LINE
  5
58C
  8
DETAIL
  6
CONTINUOUS
 62
     5
 10
137.71179399999991
 20
-19.541523000000002
 30
0.0
 11
137.5
 21
-17.0
 31
0.0
  0
LINE
  5
58D
  8
DETAIL
  6
CONTINUOUS
 62
     5
 10
137.5
 20
-17.0
 30
0.0
 11
137.5
 21
-16.5
 31
0.0
  0
LINE
  5
58E
  8
DETAIL
  6
CONTINUOUS
 62
     5
 10
138.21006600000001
 20
-20.0
 30
0.0
 11
140.7899339999999
 21
-20.0
 31
0.0
  0
ARC
  5
58F
  8
DETAIL
  6
CONTINUOUS
 62
     5
 10
138.21006600000001
 20
-19.5
 30
0.0
 40
0.5
 50
184.76364199999989
 51
270.0
  0
ARC
  5
590
  8
DETAIL
  6
CONTINUOUS
 62
     5
 10
140.7899339999999
 20
-19.5
 30
0.0
 40
0.5
 50
270.0
 51
355.236358
  0
LINE
  5
591
  8
DETAIL
  6
CONTINUOUS
 62
     5
 10
132.4999999999998
 20
-17.0
 30
0.0
 11
132.2882059999998
 21
-19.541523000000002
 31
0.0
  0
LINE
  5
592
  8
DETAIL
  6
CONTINUOUS
 62
     5
 10
132.4999999999998
 20
-17.0
 30
0.0
 11
132.4999999999998
 21
-16.5
 31
0.0
  0
LINE
  5
593
  8
DETAIL
  6
CONTINUOUS
 62
     5
 10
128.71179399999991
 20
-19.541523000000002
 30
0.0
 11
128.4999999999998
 21
-17.0
 31
0.0
  0
LINE
  5
594
  8
DETAIL
  6
CONTINUOUS
 62
     5
 10
128.4999999999998
 20
-17.0
 30
0.0
 11
128.4999999999998
 21
-16.5
 31
0.0
  0
LINE
  5
595
  8
DETAIL
  6
CONTINUOUS
 62
     5
 10
129.21006600000001
 20
-20.0
 30
0.0
 11
131.78993399999979
 21
-20.0
 31
0.0
  0
ARC
  5
596
  8
DETAIL
  6
CONTINUOUS
 62
     5
 10
129.21006600000001
 20
-19.5
 30
0.0
 40
0.5
 50
184.76364199999989
 51
270.0
  0
ARC
  5
597
  8
DETAIL
  6
CONTINUOUS
 62
     5
 10
131.78993399999979
 20
-19.5
 30
0.0
 40
0.5
 50
270.0
 51
355.236358
  0
LINE
  5
598
  8
DETAIL
  6
CONTINUOUS
 62
     5
 10
123.5
 20
-17.0
 30
0.0
 11
123.288206
 21
-19.541523000000002
 31
0.0
  0
LINE
  5
599
  8
DETAIL
  6
CONTINUOUS
 62
     5
 10
123.5
 20
-17.0
 30
0.0
 11
123.5
 21
-16.5
 31
0.0
  0
LINE
  5
59A
  8
DETAIL
  6
CONTINUOUS
 62
     5
 10
119.711794
 20
-19.541523000000002
 30
0.0
 11
119.5
 21
-17.0
 31
0.0
  0
LINE
  5
59B
  8
DETAIL
  6
CONTINUOUS
 62
     5
 10
119.5
 20
-17.0
 30
0.0
 11
119.5
 21
-16.5
 31
0.0
  0
LINE
  5
59C
  8
DETAIL
  6
CONTINUOUS
 62
     5
 10
120.2100659999999
 20
-20.0
 30
0.0
 11
122.789934
 21
-20.0
 31
0.0
  0
ARC
  5
59D
  8
DETAIL
  6
CONTINUOUS
 62
     5
 10
120.2100659999999
 20
-19.5
 30
0.0
 40
0.5
 50
184.76364199999989
 51
270.0
  0
ARC
  5
59E
  8
DETAIL
  6
CONTINUOUS
 62
     5
 10
122.789934
 20
-19.5
 30
0.0
 40
0.5
 50
270.0
 51
355.236358
  0
LINE
  5
59F
  8
DETAIL
  6
CONTINUOUS
 62
     5
 10
114.5
 20
-17.0
 30
0.0
 11
114.288206
 21
-19.541523000000002
 31
0.0
  0
LINE
  5
5A0
  8
DETAIL
  6
CONTINUOUS
 62
     5
 10
114.5
 20
-17.0
 30
0.0
 11
114.5
 21
-16.5
 31
0.0
  0
LINE
  5
5A1
  8
DETAIL
  6
CONTINUOUS
 62
     5
 10
110.7117939999999
 20
-19.541523000000002
 30
0.0
 11
110.4999999999999
 21
-17.0
 31
0.0
  0
LINE
  5
5A2
  8
DETAIL
  6
CONTINUOUS
 62
     5
 10
110.4999999999999
 20
-17.0
 30
0.0
 11
110.4999999999999
 21
-16.5
 31
0.0
  0
LINE
  5
5A3
  8
DETAIL
  6
CONTINUOUS
 62
     5
 10
111.210066
 20
-20.0
 30
0.0
 11
113.789934
 21
-20.0
 31
0.0
  0
ARC
  5
5A4
  8
DETAIL
  6
CONTINUOUS
 62
     5
 10
111.210066
 20
-19.5
 30
0.0
 40
0.5
 50
184.76364199999989
 51
270.0
  0
ARC
  5
5A5
  8
DETAIL
  6
CONTINUOUS
 62
     5
 10
113.789934
 20
-19.5
 30
0.0
 40
0.5
 50
270.0
 51
355.236358
  0
LINE
  5
5A6
  8
DETAIL
  6
CONTINUOUS
 62
     5
 10
105.4999999999999
 20
-17.0
 30
0.0
 11
105.2882059999999
 21
-19.541523000000002
 31
0.0
  0
LINE
  5
5A7
  8
DETAIL
  6
CONTINUOUS
 62
     5
 10
105.4999999999999
 20
-17.0
 30
0.0
 11
105.4999999999999
 21
-16.5
 31
0.0
  0
LINE
  5
5A8
  8
DETAIL
  6
CONTINUOUS
 62
     5
 10
101.7117939999998
 20
-19.541523000000002
 30
0.0
 11
101.5
 21
-17.0
 31
0.0
  0
LINE
  5
5A9
  8
DETAIL
  6
CONTINUOUS
 62
     5
 10
101.5
 20
-17.0
 30
0.0
 11
101.5
 21
-16.5
 31
0.0
  0
LINE
  5
5AA
  8
DETAIL
  6
CONTINUOUS
 62
     5
 10
102.2100659999999
 20
-20.0
 30
0.0
 11
104.789934
 21
-20.0
 31
0.0
  0
ARC
  5
5AB
  8
DETAIL
  6
CONTINUOUS
 62
     5
 10
102.2100659999999
 20
-19.5
 30
0.0
 40
0.5
 50
184.76364199999989
 51
270.0
  0
ARC
  5
5AC
  8
DETAIL
  6
CONTINUOUS
 62
     5
 10
104.789934
 20
-19.5
 30
0.0
 40
0.5
 50
270.0
 51
355.236358
  0
LINE
  5
5AD
  8
DETAIL
  6
CONTINUOUS
 62
     5
 10
96.5
 20
-17.0
 30
0.0
 11
96.288206000000002
 21
-19.541523000000002
 31
0.0
  0
LINE
  5
5AE
  8
DETAIL
  6
CONTINUOUS
 62
     5
 10
96.5
 20
-17.0
 30
0.0
 11
96.5
 21
-16.5
 31
0.0
  0
LINE
  5
5AF
  8
DETAIL
  6
CONTINUOUS
 62
     5
 10
92.711793999999983
 20
-19.541523000000002
 30
0.0
 11
92.5
 21
-17.0
 31
0.0
  0
LINE
  5
5B0
  8
DETAIL
  6
CONTINUOUS
 62
     5
 10
92.5
 20
-17.0
 30
0.0
 11
92.5
 21
-16.5
 31
0.0
  0
LINE
  5
5B1
  8
DETAIL
  6
CONTINUOUS
 62
     5
 10
93.210065999999998
 20
-20.0
 30
0.0
 11
95.789933999999988
 21
-20.0
 31
0.0
  0
ARC
  5
5B2
  8
DETAIL
  6
CONTINUOUS
 62
     5
 10
93.210065999999998
 20
-19.5
 30
0.0
 40
0.5
 50
184.76364199999989
 51
270.0
  0
ARC
  5
5B3
  8
DETAIL
  6
CONTINUOUS
 62
     5
 10
95.789933999999988
 20
-19.5
 30
0.0
 40
0.5
 50
270.0
 51
355.236358
  0
LINE
  5
5B4
  8
DETAIL
  6
CONTINUOUS
 62
     5
 10
87.5
 20
-17.0
 30
0.0
 11
87.288206000000002
 21
-19.541523000000002
 31
0.0
  0
LINE
  5
5B5
  8
DETAIL
  6
CONTINUOUS
 62
     5
 10
87.5
 20
-17.0
 30
0.0
 11
87.5
 21
-16.5
 31
0.0
  0
LINE
  5
5B6
  8
DETAIL
  6
CONTINUOUS
 62
     5
 10
83.711793999999998
 20
-19.541523000000002
 30
0.0
 11
83.499999999999986
 21
-17.0
 31
0.0
  0
LINE
  5
5B7
  8
DETAIL
  6
CONTINUOUS
 62
     5
 10
83.499999999999986
 20
-17.0
 30
0.0
 11
83.499999999999986
 21
-16.5
 31
0.0
  0
LINE
  5
5B8
  8
DETAIL
  6
CONTINUOUS
 62
     5
 10
84.210065999999998
 20
-20.0
 30
0.0
 11
86.789934000000017
 21
-20.0
 31
0.0
  0
ARC
  5
5B9
  8
DETAIL
  6
CONTINUOUS
 62
     5
 10
84.210065999999998
 20
-19.5
 30
0.0
 40
0.5
 50
184.76364199999989
 51
270.0
  0
ARC
  5
5BA
  8
DETAIL
  6
CONTINUOUS
 62
     5
 10
86.789934000000017
 20
-19.5
 30
0.0
 40
0.5
 50
270.0
 51
355.236358
  0
LINE
  5
5BB
  8
DETAIL
  6
CONTINUOUS
 62
     5
 10
78.5
 20
-17.0
 30
0.0
 11
78.288206000000002
 21
-19.541523000000002
 31
0.0
  0
LINE
  5
5BC
  8
DETAIL
  6
CONTINUOUS
 62
     5
 10
78.5
 20
-17.0
 30
0.0
 11
78.5
 21
-16.5
 31
0.0
  0
LINE
  5
5BD
  8
DETAIL
  6
CONTINUOUS
 62
     5
 10
74.711793999999998
 20
-19.541523000000002
 30
0.0
 11
74.5
 21
-17.0
 31
0.0
  0
LINE
  5
5BE
  8
DETAIL
  6
CONTINUOUS
 62
     5
 10
74.5
 20
-17.0
 30
0.0
 11
74.5
 21
-16.5
 31
0.0
  0
LINE
  5
5BF
  8
DETAIL
  6
CONTINUOUS
 62
     5
 10
75.210065999999983
 20
-20.0
 30
0.0
 11
77.789934000000002
 21
-20.0
 31
0.0
  0
ARC
  5
5C0
  8
DETAIL
  6
CONTINUOUS
 62
     5
 10
75.210065999999983
 20
-19.5
 30
0.0
 40
0.5
 50
184.76364199999989
 51
270.0
  0
ARC
  5
5C1
  8
DETAIL
  6
CONTINUOUS
 62
     5
 10
77.789934000000002
 20
-19.5
 30
0.0
 40
0.5
 50
270.0
 51
355.236358
  0
LINE
  5
5C2
  8
DETAIL
  6
CONTINUOUS
 62
     5
 10
69.5
 20
-17.0
 30
0.0
 11
69.288206000000002
 21
-19.541523000000002
 31
0.0
  0
LINE
  5
5C3
  8
DETAIL
  6
CONTINUOUS
 62
     5
 10
69.5
 20
-17.0
 30
0.0
 11
69.5
 21
-16.5
 31
0.0
  0
LINE
  5
5C4
  8
DETAIL
  6
CONTINUOUS
 62
     5
 10
65.711793999999998
 20
-19.541523000000002
 30
0.0
 11
65.5
 21
-17.0
 31
0.0
  0
LINE
  5
5C5
  8
DETAIL
  6
CONTINUOUS
 62
     5
 10
65.5
 20
-17.0
 30
0.0
 11
65.5
 21
-16.5
 31
0.0
  0
LINE
  5
5C6
  8
DETAIL
  6
CONTINUOUS
 62
     5
 10
66.210065999999998
 20
-20.0
 30
0.0
 11
68.789934000000002
 21
-20.0
 31
0.0
  0
ARC
  5
5C7
  8
DETAIL
  6
CONTINUOUS
 62
     5
 10
66.210065999999998
 20
-19.5
 30
0.0
 40
0.5
 50
184.76364199999989
 51
270.0
  0
ARC
  5
5C8
  8
DETAIL
  6
CONTINUOUS
 62
     5
 10
68.789934000000002
 20
-19.5
 30
0.0
 40
0.5
 50
270.0
 51
355.236358
  0
LINE
  5
5C9
  8
DETAIL
  6
CONTINUOUS
 62
     5
 10
60.5
 20
-17.0
 30
0.0
 11
60.288206000000002
 21
-19.541523000000002
 31
0.0
  0
LINE
  5
5CA
  8
DETAIL
  6
CONTINUOUS
 62
     5
 10
60.5
 20
-17.0
 30
0.0
 11
60.5
 21
-16.5
 31
0.0
  0
LINE
  5
5CB
  8
DETAIL
  6
CONTINUOUS
 62
     5
 10
56.71179399999999
 20
-19.541523000000002
 30
0.0
 11
56.5
 21
-17.0
 31
0.0
  0
LINE
  5
5CC
  8
DETAIL
  6
CONTINUOUS
 62
     5
 10
56.5
 20
-17.0
 30
0.0
 11
56.5
 21
-16.5
 31
0.0
  0
LINE
  5
5CD
  8
DETAIL
  6
CONTINUOUS
 62
     5
 10
57.210065999999991
 20
-20.0
 30
0.0
 11
59.789934000000002
 21
-20.0
 31
0.0
  0
ARC
  5
5CE
  8
DETAIL
  6
CONTINUOUS
 62
     5
 10
57.210065999999991
 20
-19.5
 30
0.0
 40
0.5
 50
184.76364199999989
 51
270.0
  0
ARC
  5
5CF
  8
DETAIL
  6
CONTINUOUS
 62
     5
 10
59.789934000000002
 20
-19.5
 30
0.0
 40
0.5
 50
270.0
 51
355.236358
  0
LINE
  5
5D0
  8
DETAIL
  6
CONTINUOUS
 62
     5
 10
51.5
 20
-17.0
 30
0.0
 11
51.288206000000002
 21
-19.541523000000002
 31
0.0
  0
LINE
  5
5D1
  8
DETAIL
  6
CONTINUOUS
 62
     5
 10
51.5
 20
-17.0
 30
0.0
 11
51.5
 21
-16.5
 31
0.0
  0
LINE
  5
5D2
  8
DETAIL
  6
CONTINUOUS
 62
     5
 10
47.711793999999998
 20
-19.541523000000002
 30
0.0
 11
47.5
 21
-17.0
 31
0.0
  0
LINE
  5
5D3
  8
DETAIL
  6
CONTINUOUS
 62
     5
 10
47.5
 20
-17.0
 30
0.0
 11
47.5
 21
-16.5
 31
0.0
  0
LINE
  5
5D4
  8
DETAIL
  6
CONTINUOUS
 62
     5
 10
48.210065999999998
 20
-20.0
 30
0.0
 11
50.789934000000002
 21
-20.0
 31
0.0
  0
ARC
  5
5D5
  8
DETAIL
  6
CONTINUOUS
 62
     5
 10
48.210065999999998
 20
-19.5
 30
0.0
 40
0.5
 50
184.76364199999989
 51
270.0
  0
ARC
  5
5D6
  8
DETAIL
  6
CONTINUOUS
 62
     5
 10
50.789934000000002
 20
-19.5
 30
0.0
 40
0.5
 50
270.0
 51
355.236358
  0
LINE
  5
5D7
  8
DETAIL
  6
CONTINUOUS
 62
     5
 10
42.5
 20
-17.0
 30
0.0
 11
42.288206000000002
 21
-19.541523000000002
 31
0.0
  0
LINE
  5
5D8
  8
DETAIL
  6
CONTINUOUS
 62
     5
 10
42.5
 20
-17.0
 30
0.0
 11
42.5
 21
-16.5
 31
0.0
  0
LINE
  5
5D9
  8
DETAIL
  6
CONTINUOUS
 62
     5
 10
38.71179399999999
 20
-19.541523000000002
 30
0.0
 11
38.5
 21
-17.0
 31
0.0
  0
LINE
  5
5DA
  8
DETAIL
  6
CONTINUOUS
 62
     5
 10
38.5
 20
-17.0
 30
0.0
 11
38.5
 21
-16.5
 31
0.0
  0
LINE
  5
5DB
  8
DETAIL
  6
CONTINUOUS
 62
     5
 10
39.210065999999998
 20
-20.0
 30
0.0
 11
41.789934000000002
 21
-20.0
 31
0.0
  0
ARC
  5
5DC
  8
DETAIL
  6
CONTINUOUS
 62
     5
 10
39.210065999999998
 20
-19.5
 30
0.0
 40
0.5
 50
184.76364199999989
 51
270.0
  0
ARC
  5
5DD
  8
DETAIL
  6
CONTINUOUS
 62
     5
 10
41.789934000000002
 20
-19.5
 30
0.0
 40
0.5
 50
270.0
 51
355.236358
  0
LINE
  5
5DE
  8
DETAIL
  6
CONTINUOUS
 62
     5
 10
33.5
 20
-17.0
 30
0.0
 11
33.288206000000002
 21
-19.541523000000002
 31
0.0
  0
LINE
  5
5DF
  8
DETAIL
  6
CONTINUOUS
 62
     5
 10
33.5
 20
-17.0
 30
0.0
 11
33.5
 21
-16.5
 31
0.0
  0
LINE
  5
5E0
  8
DETAIL
  6
CONTINUOUS
 62
     5
 10
29.711794000000001
 20
-19.541523000000002
 30
0.0
 11
29.5
 21
-17.0
 31
0.0
  0
LINE
  5
5E1
  8
DETAIL
  6
CONTINUOUS
 62
     5
 10
29.5
 20
-17.0
 30
0.0
 11
29.5
 21
-16.5
 31
0.0
  0
LINE
  5
5E2
  8
DETAIL
  6
CONTINUOUS
 62
     5
 10
30.210066000000001
 20
-20.0
 30
0.0
 11
32.789934000000002
 21
-20.0
 31
0.0
  0
ARC
  5
5E3
  8
DETAIL
  6
CONTINUOUS
 62
     5
 10
30.210066000000001
 20
-19.5
 30
0.0
 40
0.5
 50
184.76364199999989
 51
270.0
  0
ARC
  5
5E4
  8
DETAIL
  6
CONTINUOUS
 62
     5
 10
32.789934000000002
 20
-19.5
 30
0.0
 40
0.5
 50
270.0
 51
355.236358
  0
LINE
  5
5E5
  8
DETAIL
  6
CONTINUOUS
 62
     5
 10
24.5
 20
-17.0
 30
0.0
 11
24.288205999999992
 21
-19.541523000000002
 31
0.0
  0
LINE
  5
5E6
  8
DETAIL
  6
CONTINUOUS
 62
     5
 10
24.5
 20
-17.0
 30
0.0
 11
24.5
 21
-16.5
 31
0.0
  0
LINE
  5
5E7
  8
DETAIL
  6
CONTINUOUS
 62
     5
 10
20.711794000000001
 20
-19.541523000000002
 30
0.0
 11
20.5
 21
-17.0
 31
0.0
  0
LINE
  5
5E8
  8
DETAIL
  6
CONTINUOUS
 62
     5
 10
20.5
 20
-17.0
 30
0.0
 11
20.5
 21
-16.5
 31
0.0
  0
LINE
  5
5E9
  8
DETAIL
  6
CONTINUOUS
 62
     5
 10
21.210066000000001
 20
-20.0
 30
0.0
 11
23.789933999999999
 21
-20.0
 31
0.0
  0
ARC
  5
5EA
  8
DETAIL
  6
CONTINUOUS
 62
     5
 10
21.210066000000001
 20
-19.5
 30
0.0
 40
0.5
 50
184.76364199999989
 51
270.0
  0
ARC
  5
5EB
  8
DETAIL
  6
CONTINUOUS
 62
     5
 10
23.789933999999999
 20
-19.5
 30
0.0
 40
0.5
 50
270.0
 51
355.236358
  0
LINE
  5
5EC
  8
DETAIL
  6
CONTINUOUS
 62
     5
 10
15.5
 20
-17.0
 30
0.0
 11
15.288206000000001
 21
-19.541523000000002
 31
0.0
  0
LINE
  5
5ED
  8
DETAIL
  6
CONTINUOUS
 62
     5
 10
15.5
 20
-17.0
 30
0.0
 11
15.5
 21
-16.5
 31
0.0
  0
LINE
  5
5EE
  8
DETAIL
  6
CONTINUOUS
 62
     5
 10
11.71179399999999
 20
-19.541523000000002
 30
0.0
 11
11.5
 21
-17.0
 31
0.0
  0
LINE
  5
5EF
  8
DETAIL
  6
CONTINUOUS
 62
     5
 10
11.5
 20
-17.0
 30
0.0
 11
11.5
 21
-16.5
 31
0.0
  0
LINE
  5
5F0
  8
DETAIL
  6
CONTINUOUS
 62
     5
 10
12.210065999999991
 20
-20.0
 30
0.0
 11
14.789934000000001
 21
-20.0
 31
0.0
  0
ARC
  5
5F1
  8
DETAIL
  6
CONTINUOUS
 62
     5
 10
12.210065999999991
 20
-19.5
 30
0.0
 40
0.5
 50
184.76364199999989
 51
270.0
  0
ARC
  5
5F2
  8
DETAIL
  6
CONTINUOUS
 62
     5
 10
14.789934000000001
 20
-19.5
 30
0.0
 40
0.5
 50
270.0
 51
355.236358
  0
LINE
  5
5F3
  8
DETAIL
  6
CONTINUOUS
 62
     5
 10
3.2100659999999981
 20
-20.0
 30
0.0
 11
5.7899339999999979
 21
-20.0
 31
0.0
  0
LINE
  5
5F4
  8
DETAIL
  6
CONTINUOUS
 62
     5
 10
2.711793999999998
 20
-19.541523000000002
 30
0.0
 11
2.5
 21
-17.0
 31
0.0
  0
LINE
  5
5F5
  8
DETAIL
  6
CONTINUOUS
 62
     5
 10
6.5
 20
-17.0
 30
0.0
 11
6.288205999999998
 21
-19.541523000000002
 31
0.0
  0
ARC
  5
5F6
  8
DETAIL
  6
CONTINUOUS
 62
     5
 10
3.2100659999999981
 20
-19.5
 30
0.0
 40
0.5
 50
184.76364199999989
 51
270.0
  0
ARC
  5
5F7
  8
DETAIL
  6
CONTINUOUS
 62
     5
 10
5.7899339999999979
 20
-19.5
 30
0.0
 40
0.5
 50
270.0
 51
355.236358
  0
LINE
  5
5F8
  8
DETAIL
  6
CONTINUOUS
 62
     5
 10
-190.0
 20
0.0
 30
0.0
 11
190.0
 21
0.0
 31
0.0
  0
LINE
  5
5F9
  8
DETAIL
  6
CONTINUOUS
 62
     5
 10
0.0
 20
-16.5
 30
0.0
 11
2.5
 21
-16.5
 31
0.0
  0
LINE
  5
5FA
  8
DETAIL
  6
CONTINUOUS
 62
     5
 10
141.5
 20
-16.5
 30
0.0
 11
146.5
 21
-16.5
 31
0.0
  0
LINE
  5
5FB
  8
DETAIL
  6
CONTINUOUS
 62
     5
 10
132.4999999999998
 20
-16.5
 30
0.0
 11
137.5
 21
-16.5
 31
0.0
  0
LINE
  5
5FC
  8
DETAIL
  6
CONTINUOUS
 62
     5
 10
123.5
 20
-16.5
 30
0.0
 11
128.4999999999998
 21
-16.5
 31
0.0
  0
LINE
  5
5FD
  8
DETAIL
  6
CONTINUOUS
 62
     5
 10
114.5
 20
-16.5
 30
0.0
 11
119.5
 21
-16.5
 31
0.0
  0
LINE
  5
5FE
  8
DETAIL
  6
CONTINUOUS
 62
     5
 10
105.4999999999999
 20
-16.5
 30
0.0
 11
110.4999999999999
 21
-16.5
 31
0.0
  0
LINE
  5
5FF
  8
DETAIL
  6
CONTINUOUS
 62
     5
 10
96.5
 20
-16.5
 30
0.0
 11
101.5
 21
-16.5
 31
0.0
  0
LINE
  5
600
  8
DETAIL
  6
CONTINUOUS
 62
     5
 10
87.5
 20
-16.5
 30
0.0
 11
92.5
 21
-16.5
 31
0.0
  0
LINE
  5
601
  8
DETAIL
  6
CONTINUOUS
 62
     5
 10
78.5
 20
-16.5
 30
0.0
 11
83.499999999999986
 21
-16.5
 31
0.0
  0
LINE
  5
602
  8
DETAIL
  6
CONTINUOUS
 62
     5
 10
69.5
 20
-16.5
 30
0.0
 11
74.5
 21
-16.5
 31
0.0
  0
LINE
  5
603
  8
DETAIL
  6
CONTINUOUS
 62
     5
 10
60.5
 20
-16.5
 30
0.0
 11
65.5
 21
-16.5
 31
0.0
  0
LINE
  5
604
  8
DETAIL
  6
CONTINUOUS
 62
     5
 10
51.5
 20
-16.5
 30
0.0
 11
56.5
 21
-16.5
 31
0.0
  0
LINE
  5
605
  8
DETAIL
  6
CONTINUOUS
 62
     5
 10
42.5
 20
-16.5
 30
0.0
 11
47.5
 21
-16.5
 31
0.0
  0
LINE
  5
606
  8
DETAIL
  6
CONTINUOUS
 62
     5
 10
33.5
 20
-16.5
 30
0.0
 11
38.5
 21
-16.5
 31
0.0
  0
LINE
  5
607
  8
DETAIL
  6
CONTINUOUS
 62
     5
 10
24.5
 20
-16.5
 30
0.0
 11
29.5
 21
-16.5
 31
0.0
  0
LINE
  5
608
  8
DETAIL
  6
CONTINUOUS
 62
     5
 10
15.5
 20
-16.5
 30
0.0
 11
20.5
 21
-16.5
 31
0.0
  0
LINE
  5
609
  8
DETAIL
  6
CONTINUOUS
 62
     5
 10
6.5
 20
-16.5
 30
0.0
 11
11.5
 21
-16.5
 31
0.0
  0
LINE
  5
60A
  8
DETAIL
  6
CONTINUOUS
 62
     5
 10
6.5
 20
-17.0
 30
0.0
 11
6.5
 21
-16.5
 31
0.0
  0
LINE
  5
60B
  8
DETAIL
  6
CONTINUOUS
 62
     5
 10
2.5
 20
-17.0
 30
0.0
 11
2.5
 21
-16.5
 31
0.0
  0
LINE
  5
60C
  8
DETAIL
  6
CONTINUOUS
 62
     5
 10
146.5
 20
-19.5
 30
0.0
 11
146.5
 21
-16.5
 31
0.0
  0
LINE
  5
60D
  8
DETAIL
  6
CONTINUOUS
 62
     5
 10
181.398608
 20
-15.0
 30
0.0
 11
0.0
 21
-15.0
 31
0.0
  0
LINE
  5
60E
  8
DETAIL
  6
CONTINUOUS
 62
     5
 10
181.398608
 20
-20.0
 30
0.0
 11
147.0
 21
-20.0
 31
0.0
  0
ARC
  5
60F
  8
DETAIL
  6
CONTINUOUS
 62
     5
 10
147.0
 20
-19.5
 30
0.0
 40
0.5
 50
180.0
 51
270.0
  0
LINE
  5
610
  8
DETAIL
  6
CONTINUOUS
 62
     5
 10
190.0
 20
0.0
 30
0.0
 11
190.0
 21
-11.398607999999991
 31
0.0
  0
ARC
  5
611
  8
DETAIL
  6
CONTINUOUS
 62
     5
 10
181.398608
 20
-10.0
 30
0.0
 40
5.0
 50
270.0
 51
307.68475899999981
  0
ARC
  5
612
  8
DETAIL
  6
CONTINUOUS
 62
     5
 10
185.0
 20
-6.3986080000000003
 30
0.0
 40
5.0
 50
322.31524100000001
 51
0.0
  0
ARC
  5
613
  8
DETAIL
  6
CONTINUOUS
 62
     5
 10
169.17227700000001
 20
5.827722999999998
 30
0.0
 40
25.0
 50
307.68475899999981
 51
322.31524100000001
  0
ARC
  5
614
  8
DETAIL
  6
CONTINUOUS
 62
     5
 10
147.0
 20
-19.5
 30
0.0
 40
0.5
 50
180.0
 51
270.0
  0
ARC
  5
615
  8
DETAIL
  6
CONTINUOUS
 62
     5
 10
181.398608
 20
-15.0
 30
0.0
 40
5.0
 50
270.0
 51
307.68475899999981
  0
ARC
  5
616
  8
DETAIL
  6
CONTINUOUS
 62
     5
 10
169.17227700000001
 20
0.8277229999999999
 30
0.0
 40
25.0
 50
307.68475899999981
 51
322.31524100000001
  0
ARC
  5
617
  8
DETAIL
  6
CONTINUOUS
 62
     5
 10
185.0
 20
-11.398607999999991
 30
0.0
 40
5.0
 50
322.31524100000001
 51
0.0
  0
LINE
  5
618
  8
DETAIL
  6
CONTINUOUS
 62
     5
 10
-26.0
 20
157.995
 30
0.0
 11
-18.861070000000002
 21
157.995
 31
0.0
  0
LINE
  5
619
  8
DETAIL
  6
CONTINUOUS
 62
     5
 10
29.0
 20
157.995
 30
0.0
 11
40.0
 21
157.995
 31
0.0
  0
LINE
  5
61A
  8
DETAIL
  6
CONTINUOUS
 62
     5
 10
-29.0
 20
157.995
 30
0.0
 11
-29.0
 21
161.71801600000001
 31
0.0
  0
LINE
  5
61B
  8
DETAIL
  6
CONTINUOUS
 62
     5
 10
-26.0
 20
157.995
 30
0.0
 11
-26.0
 21
161.16404800000001
 31
0.0
  0
LINE
  5
61C
  8
DETAIL
  6
CONTINUOUS
 62
     5
 10
26.0
 20
157.995
 30
0.0
 11
26.0
 21
161.16404800000001
 31
0.0
  0
LINE
  5
61D
  8
DETAIL
  6
CONTINUOUS
 62
     5
 10
29.0
 20
157.995
 30
0.0
 11
29.0
 21
161.71801600000001
 31
0.0
  0
LINE
  5
61E
  8
DETAIL
  6
CONTINUOUS
 62
     5
 10
-22.433810000000001
 20
171.995
 30
0.0
 11
22.433810000000001
 21
171.995
 31
0.0
  0
ARC
  5
61F
  8
DETAIL
  6
CONTINUOUS
 62
     5
 10
-22.433810000000001
 20
170.995
 30
0.0
 40
1.0
 50
90.0
 51
149.03624300000001
  0
ARC
  5
620
  8
DETAIL
  6
CONTINUOUS
 62
     5
 10
22.433810000000001
 20
170.995
 30
0.0
 40
1.0
 50
30.963757000000001
 51
90.0
  0
ARC
  5
621
  8
DETAIL
  6
CONTINUOUS
 62
     5
 10
28.0
 20
161.71801600000001
 30
0.0
 40
1.0
 50
0.0
 51
30.963757000000001
  0
ARC
  5
622
  8
DETAIL
  6
CONTINUOUS
 62
     5
 10
-28.0
 20
161.71801600000001
 30
0.0
 40
1.0
 50
149.03624300000001
 51
180.0
  0
LINE
  5
623
  8
DETAIL
  6
CONTINUOUS
 62
     5
 10
21.301428999999999
 20
168.995
 30
0.0
 11
-21.301428999999999
 21
168.995
 31
0.0
  0
LINE
  5
624
  8
DETAIL
  6
CONTINUOUS
 62
     5
 10
-21.301428999999999
 20
168.995
 30
0.0
 11
-26.0
 21
161.16404800000001
 31
0.0
  0
LINE
  5
625
  8
DETAIL
  6
CONTINUOUS
 62
     5
 10
21.301428999999999
 20
168.995
 30
0.0
 11
26.0
 21
161.16404800000001
 31
0.0
  0
LINE
  5
626
  8
DETAIL
  6
CONTINUOUS
 62
     5
 10
54.0
 20
170.82878700000001
 30
0.0
 11
23.699728
 21
170.82878700000001
 31
0.0
  0
LINE
  5
627
  8
DETAIL
  6
CONTINUOUS
 62
     5
 10
-28.0
 20
170.82878700000001
 30
0.0
 11
-23.699728
 21
170.82878700000001
 31
0.0
  0
LINE
  5
628
  8
SIZE
  6
CONTINUOUS
 62
    30
 10
-190.0
 20
-31.398607999999999
 30
0.0
 11
-190.0
 21
-592.24748999999997
 31
0.0
  0
LINE
  5
629
  8
SIZE
  6
CONTINUOUS
 62
    30
 10
190.0
 20
-31.398607999999999
 30
0.0
 11
190.0
 21
-592.24748999999997
 31
0.0
  0
LINE
  5
62A
  8
SIZE
  6
CONTINUOUS
 62
    30
 10
-178.0
 20
-572.24748999999986
 30
0.0
 11
178.0
 21
-572.24748999999986
 31
0.0
  0
CIRCLE
  5
62B
  8
SIZE
  6
CONTINUOUS
 62
    30
 10
-190.0
 20
-572.24748999999986
 30
0.0
 40
6.0
  0
LINE
  5
62C
  8
SIZE
  6
CONTINUOUS
 62
    30
 10
-190.0
 20
-572.24748999999986
 30
0.0
 11
-178.0
 21
-572.24748999999986
 31
0.0
  0
CIRCLE
  5
62D
  8
SIZE
  6
CONTINUOUS
 62
    30
 10
190.0
 20
-572.24748999999986
 30
0.0
 40
6.0
  0
LINE
  5
62E
  8
SIZE
  6
CONTINUOUS
 62
    30
 10
190.0
 20
-572.24748999999986
 30
0.0
 11
178.0
 21
-572.24748999999986
 31
0.0
  0
TEXT
  5
62F
  8
SIZE
  6
CONTINUOUS
 62
    30
 10
-110.5371428571428
 20
-547.24748999999986
 30
0.0
 40
64.0
  1
üá380
 41
0.9
 72
     1
 11
0.0
 21
-547.24748999999986
 31
0.0
  0
LINE
  5
630
  8
SIZE
  6
CONTINUOUS
 62
    30
 10
210.0
 20
0.0
 30
0.0
 11
1017.235442999999
 21
0.0
 31
0.0
  0
LINE
  5
631
  8
SIZE
  6
CONTINUOUS
 62
    30
 10
201.398608
 20
-20.0
 30
0.0
 11
1017.235442999999
 21
-20.0
 31
0.0
  0
LINE
  5
632
  8
SIZE
  6
CONTINUOUS
 62
    30
 10
997.23544300000015
 20
12.0
 30
0.0
 11
997.23544300000015
 21
24.0
 31
0.0
  0
LINE
  5
633
  8
SIZE
  6
CONTINUOUS
 62
    30
 10
997.23544300000015
 20
-32.0
 30
0.0
 11
997.23544300000015
 21
-44.0
 31
0.0
  0
LINE
  5
634
  8
SIZE
  6
CONTINUOUS
 62
    30
 10
997.23544300000015
 20
-205.740317
 30
0.0
 11
997.23544300000015
 21
-20.0
 31
0.0
  0
TEXT
  5
635
  8
SIZE
  6
CONTINUOUS
 62
    30
 10
972.23544300000015
 20
-180.74031642857139
 30
0.0
 40
64.0
  1
20
 50
90.0
 41
0.9
 72
     1
 11
972.23544300000015
 21
-134.11174500000001
 31
0.0
  0
LINE
  5
636
  8
SIZE
  6
CONTINUOUS
 62
    30
 10
997.23544300000015
 20
0.0
 30
0.0
 11
997.23544300000015
 21
-20.0
 31
0.0
  0
LINE
  5
637
  8
SIZE
  6
CONTINUOUS
 62
    30
 10
997.23544300000015
 20
0.0
 30
0.0
 11
997.23544300000015
 21
-20.0
 31
0.0
  0
CIRCLE
  5
638
  8
SIZE
  6
CONTINUOUS
 62
    30
 10
997.23544300000015
 20
0.0
 30
0.0
 40
6.0
  0
LINE
  5
639
  8
SIZE
  6
CONTINUOUS
 62
    30
 10
997.23544300000015
 20
0.0
 30
0.0
 11
997.23544300000015
 21
12.0
 31
0.0
  0
CIRCLE
  5
63A
  8
SIZE
  6
CONTINUOUS
 62
    30
 10
997.23544300000015
 20
-20.0
 30
0.0
 40
6.0
  0
LINE
  5
63B
  8
SIZE
  6
CONTINUOUS
 62
    30
 10
997.23544300000015
 20
-20.0
 30
0.0
 11
997.23544300000015
 21
-32.0
 31
0.0
  0
ARC
  5
63C
  8
DETAIL
  6
CONTINUOUS
 62
     5
 10
48.5
 20
192.7924949999998
 30
0.0
 40
5.5000020000000003
 50
0.000001
 51
90.0
  0
LINE
  5
63D
  8
DETAIL
  6
CONTINUOUS
 62
     5
 10
54.0
 20
169.0
 30
0.0
 11
54.0
 21
192.7924949999998
 31
0.0
  0
LINE
  5
63E
  8
DETAIL
  6
CONTINUOUS
 62
     5
 10
17.85999
 20
200.0
 30
0.0
 11
8.1400100000000002
 21
200.0
 31
0.0
  0
LINE
  5
63F
  8
DETAIL
  6
CONTINUOUS
 62
     5
 10
48.5
 20
198.292497
 30
0.0
 11
-22.5
 21
198.292497
 31
0.0
  0
ARC
  5
640
  8
DETAIL
  6
CONTINUOUS
 62
     5
 10
8.1400100000000002
 20
197.9999989999998
 30
0.0
 40
2.0000010000000001
 50
90.0
 51
171.59088899999981
  0
ARC
  5
641
  8
DETAIL
  6
CONTINUOUS
 62
     5
 10
17.85999
 20
197.9999989999998
 30
0.0
 40
2.0000010000000001
 50
8.4091109999999976
 51
90.0
  0
LINE
  5
642
  8
DETAIL
  6
CONTINUOUS
 62
     5
 10
-28.0
 20
169.0
 30
0.0
 11
-28.0
 21
192.7924949999998
 31
0.0
  0
ARC
  5
643
  8
DETAIL
  6
CONTINUOUS
 62
     5
 10
-22.5
 20
192.7924949999998
 30
0.0
 40
5.5000020000000003
 50
90.0
 51
179.999999
  0
LINE
  5
644
  8
DETAIL
  6
CONTINUOUS
 62
     5
 10
-139.44537500000001
 20
193.0
 30
0.0
 11
-132.44537500000001
 21
193.0
 31
0.0
  0
LINE
  5
645
  8
DETAIL
  6
CONTINUOUS
 62
     5
 10
-145.44667200000001
 20
175.39952199999999
 30
0.0
 11
-121.9460439999999
 21
175.39952199999999
 31
0.0
  0
LINE
  5
646
  8
DETAIL
  6
CONTINUOUS
 62
     5
 10
-152.00854699999991
 20
175.0
 30
0.0
 11
-152.0
 21
175.5
 31
0.0
  0
LINE
  5
647
  8
DETAIL
  6
CONTINUOUS
 62
     5
 10
-265.0
 20
158.0
 30
0.0
 11
-235.005324
 21
158.0
 31
0.0
  0
LINE
  5
648
  8
DETAIL
  6
DASHED2
 62
     5
 10
-278.0
 20
127.282809
 30
0.0
 11
-230.65185199999999
 21
135.28604899999991
 31
0.0
  0
LINE
  5
649
  8
DETAIL
  6
DASHED2
 62
     5
 10
-277.788658
 20
126.0000919999999
 30
0.0
 11
-230.46001099999989
 21
134.00003499999991
 31
0.0
  0
LINE
  5
64A
  8
DETAIL
  6
CONTINUOUS
 62
     5
 10
-265.0
 20
60.0
 30
0.0
 11
-235.0
 21
60.0
 31
0.0
  0
ARC
  5
64B
  8
DETAIL
  6
DASHDOT1
 62
     5
 10
-200.8796059999998
 20
139.0
 30
0.0
 40
78.0
 50
189.59399999999999
 51
270.0
  0
LINE
  5
64C
  8
DETAIL
  6
DASHDOT1
 62
     5
 10
-200.8796059999998
 20
149.0000039999999
 30
0.0
 11
-200.87960599999991
 21
61.0
 31
0.0
  0
LINE
  5
64D
  8
DETAIL
  6
CONTINUOUS
 62
     5
 10
-228.869573
 20
161.5
 30
0.0
 11
-228.869573
 21
56.5
 31
0.0
  0
LINE
  5
64E
  8
DETAIL
  6
CONTINUOUS
 62
     5
 10
-228.869573
 20
161.5
 30
0.0
 11
-228.869573
 21
56.506247999999999
 31
0.0
  0
LINE
  5
64F
  8
DETAIL
  6
CONTINUOUS
 62
     5
 10
-195.005324
 20
55.999839999999999
 30
0.0
 11
-195.005324
 21
152.0
 31
0.0
  0
LINE
  5
650
  8
DETAIL
  6
CONTINUOUS
 62
     5
 10
-195.005324
 20
55.999839999999999
 30
0.0
 11
-195.005324
 21
152.0
 31
0.0
  0
LINE
  5
651
  8
DETAIL
  6
CONTINUOUS
 62
     5
 10
-195.00540399999991
 20
55.993512000000003
 30
0.0
 11
-160.57536099999979
 21
52.632565
 31
0.0
  0
LINE
  5
652
  8
DETAIL
  6
DASHED2
 62
     5
 10
-160.57536099999979
 20
52.632565
 30
0.0
 11
-154.11389500000001
 21
52.0
 31
0.0
  0
LINE
  5
653
  8
DETAIL
  6
DASHED2
 62
     5
 10
-181.829835
 20
133.999977
 30
0.0
 11
-230.46001099999989
 21
134.00003499999991
 31
0.0
  0
LINE
  5
654
  8
DETAIL
  6
DASHED2
 62
     5
 10
-181.82983300000001
 20
135.29997700000001
 30
0.0
 11
-194.32532399999991
 21
135.299992
 31
0.0
  0
ARC
  5
655
  8
DETAIL
  6
CONTINUOUS
 62
     5
 10
-142.14826899999991
 20
67.111062000000004
 30
0.0
 40
100.0
 50
96.337260999999998
 51
121.908923
  0
ARC
  5
656
  8
DETAIL
  6
CONTINUOUS
 62
     5
 10
-142.14826899999991
 20
67.111062000000004
 30
0.0
 40
100.0
 50
96.337260999999998
 51
121.908923
  0
LINE
  5
657
  8
DETAIL
  6
CONTINUOUS
 62
     5
 10
-210.005324
 20
166.5
 30
0.0
 11
-153.18633800000001
 21
166.5
 31
0.0
  0
LINE
  5
658
  8
DETAIL
  6
CONTINUOUS
 62
     5
 10
-210.005324
 20
166.5
 30
0.0
 11
-152.151038
 21
166.5
 31
0.0
  0
LINE
  5
659
  8
DETAIL
  6
DASHED2
 62
     5
 10
-181.98958300000001
 20
133.999977
 30
0.0
 11
-181.98958200000001
 21
135.29997700000001
 31
0.0
  0
ARC
  5
65A
  8
DETAIL
  6
DASHED2
 62
     5
 10
-200.8796059999998
 20
139.0
 30
0.0
 40
5.0
 50
18.924575999999998
 51
161.0752869999998
  0
LINE
  5
65B
  8
BASIS
  6
DASHDOT1
 62
     6
 10
-210.8796089999999
 20
139.0
 30
0.0
 11
-190.87960200000001
 21
139.0
 31
0.0
  0
CIRCLE
  5
65C
  8
DETAIL
  6
DASHED2
 62
     5
 10
-200.8796059999998
 20
139.0
 30
0.0
 40
2.1000000000000001
  0
CIRCLE
  5
65D
  8
DETAIL
  6
DASHED2
 62
     5
 10
-200.8796059999998
 20
139.0
 30
0.0
 40
2.1000000000000001
  0
LINE
  5
65E
  8
DETAIL
  6
DASHED2
 62
     5
 10
-207.5936439999999
 20
135.30000799999991
 30
0.0
 11
-230.72885400000001
 21
135.30003500000001
 31
0.0
  0
LINE
  5
65F
  8
DETAIL
  6
DASHED2
 62
     5
 10
-193.87961171852149
 20
133.99999166452051
 30
0.0
 11
-194.1633945166906
 21
134.82769470514751
 31
0.0
  0
LINE
  5
660
  8
DETAIL
  6
DASHED2
 62
     5
 10
-194.1633945166906
 20
134.82769470514751
 30
0.0
 11
-194.44717731485949
 21
135.65539774577451
 31
0.0
  0
LINE
  5
661
  8
DETAIL
  6
DASHED2
 62
     5
 10
-194.44717731485949
 20
135.65539774577451
 30
0.0
 11
-194.7309601130284
 21
136.48310078640159
 31
0.0
  0
LINE
  5
662
  8
DETAIL
  6
DASHED2
 62
     5
 10
-194.7309601130284
 20
136.48310078640159
 30
0.0
 11
-195.01474291119729
 21
137.31080382702871
 31
0.0
  0
LINE
  5
663
  8
DETAIL
  6
DASHED2
 62
     5
 10
-195.01474291119729
 20
137.31080382702871
 30
0.0
 11
-195.2985257093664
 21
138.13850686765571
 31
0.0
  0
LINE
  5
664
  8
DETAIL
  6
DASHED2
 62
     5
 10
-195.2985257093664
 20
138.13850686765571
 30
0.0
 11
-195.5823085075352
 21
138.96620990828271
 31
0.0
  0
LINE
  5
665
  8
DETAIL
  6
DASHED2
 62
     5
 10
-195.5823085075352
 20
138.96620990828271
 30
0.0
 11
-195.86609130570409
 21
139.79391294890991
 31
0.0
  0
LINE
  5
666
  8
DETAIL
  6
DASHED2
 62
     5
 10
-195.86609130570409
 20
139.79391294890991
 30
0.0
 11
-196.14987410387309
 21
140.62161598953691
 31
0.0
  0
LINE
  5
667
  8
DETAIL
  6
DASHED2
 62
     5
 10
-207.8795998106776
 20
133.99999166452051
 30
0.0
 11
-207.59581701250849
 21
134.82769470514751
 31
0.0
  0
LINE
  5
668
  8
DETAIL
  6
DASHED2
 62
     5
 10
-207.59581701250849
 20
134.82769470514751
 30
0.0
 11
-207.3120342143396
 21
135.65539774577451
 31
0.0
  0
LINE
  5
669
  8
DETAIL
  6
DASHED2
 62
     5
 10
-207.3120342143396
 20
135.65539774577451
 30
0.0
 11
-207.02825141617049
 21
136.48310078640159
 31
0.0
  0
LINE
  5
66A
  8
DETAIL
  6
DASHED2
 62
     5
 10
-207.02825141617049
 20
136.48310078640159
 30
0.0
 11
-206.7444686180016
 21
137.31080382702871
 31
0.0
  0
LINE
  5
66B
  8
DETAIL
  6
DASHED2
 62
     5
 10
-206.7444686180016
 20
137.31080382702871
 30
0.0
 11
-206.46068581983269
 21
138.13850686765571
 31
0.0
  0
LINE
  5
66C
  8
DETAIL
  6
DASHED2
 62
     5
 10
-206.46068581983269
 20
138.13850686765571
 30
0.0
 11
-206.1769030216638
 21
138.96620990828271
 31
0.0
  0
LINE
  5
66D
  8
DETAIL
  6
DASHED2
 62
     5
 10
-206.1769030216638
 20
138.96620990828271
 30
0.0
 11
-205.89312022349489
 21
139.79391294890991
 31
0.0
  0
LINE
  5
66E
  8
DETAIL
  6
DASHED2
 62
     5
 10
-205.89312022349489
 20
139.79391294890991
 30
0.0
 11
-205.609337425326
 21
140.62161598953691
 31
0.0
  0
ARC
  5
66F
  8
DETAIL
  6
CONTINUOUS
 62
     5
 10
-210.005324
 20
164.5
 30
0.0
 40
2.0
 50
90.0
 51
175.818614
  0
LINE
  5
670
  8
DETAIL
  6
CONTINUOUS
 62
     5
 10
-210.005324
 20
152.0
 30
0.0
 11
-195.005324
 21
152.0
 31
0.0
  0
LINE
  5
671
  8
DETAIL
  6
CONTINUOUS
 62
     5
 10
-210.005324
 20
152.0
 30
0.0
 11
-195.005324
 21
152.0
 31
0.0
  0
LINE
  5
672
  8
DETAIL
  6
CONTINUOUS
 62
     5
 10
-211.005324
 20
157.0
 30
0.0
 11
-185.96583200000001
 21
157.0
 31
0.0
  0
LINE
  5
673
  8
DETAIL
  6
CONTINUOUS
 62
     5
 10
-211.005324
 20
157.0
 30
0.0
 11
-185.96583200000001
 21
157.0
 31
0.0
  0
ARC
  5
674
  8
DETAIL
  6
CONTINUOUS
 62
     5
 10
-211.005324
 20
156.0
 30
0.0
 40
1.0
 50
90.0
 51
174.08531300000001
  0
ARC
  5
675
  8
DETAIL
  6
CONTINUOUS
 62
     5
 10
-210.005324
 20
154.0
 30
0.0
 40
2.0
 50
184.181386
 51
270.0
  0
LINE
  5
676
  8
DETAIL
  6
CONTINUOUS
 62
     5
 10
-212.0
 20
153.85417200000001
 30
0.0
 11
-212.0
 21
164.64582799999999
 31
0.0
  0
LINE
  5
677
  8
DETAIL
  6
CONTINUOUS
 62
     5
 10
205.5
 20
56.5
 30
0.0
 11
205.5
 21
161.5
 31
0.0
  0
LINE
  5
678
  8
DETAIL
  6
CONTINUOUS
 62
     5
 10
210.0
 20
60.0
 30
0.0
 11
210.0
 21
158.0
 31
0.0
  0
LINE
  5
679
  8
DETAIL
  6
DASHED2
 62
     5
 10
211.90635700000001
 20
64.284367000000003
 30
0.0
 11
215.03554700000001
 21
124.5754629999999
 31
0.0
  0
LINE
  5
67A
  8
DETAIL
  6
DASHED2
 62
     5
 10
213.40837599999981
 20
64.284367000000003
 30
0.0
 11
216.55901700000001
 21
124.9887579999999
 31
0.0
  0
LINE
  5
67B
  8
DETAIL
  6
CONTINUOUS
 62
     5
 10
175.0
 20
56.051749999999998
 30
0.0
 11
174.9588985788599
 21
159.35470130355361
 31
0.0
  0
ARC
  5
67C
  8
DETAIL
  6
DASHDOT1
 62
     5
 10
215.03552999999999
 20
129.0
 30
0.0
 40
64.500484
 50
196.025105
 51
266.77792399999993
  0
LINE
  5
67D
  8
DETAIL
  6
CONTINUOUS
 62
     5
 10
235.0
 20
60.0
 30
0.0
 11
235.0
 21
158.0
 31
0.0
  0
LINE
  5
67E
  8
DETAIL
  6
DASHED2
 62
     5
 10
211.90635700000001
 20
64.284367000000003
 30
0.0
 11
213.40837599999981
 21
64.284367000000003
 31
0.0
  0
LINE
  5
67F
  8
DETAIL
  6
CONTINUOUS
 62
     5
 10
210.0
 20
60.0
 30
0.0
 11
235.0
 21
60.0
 31
0.0
  0
LINE
  5
680
  8
DETAIL
  6
DASHED
 62
     5
 10
208.75461200000001
 20
145.85181399999991
 30
0.0
 11
239.08713700000001
 21
144.26215300000001
 31
0.0
  0
LINE
  5
681
  8
BASIS
  6
DASHDOT1
 62
     6
 10
199.55329800000001
 20
129.0
 30
0.0
 11
230.70588599999999
 21
129.0
 31
0.0
  0
LINE
  5
682
  8
DETAIL
  6
DASHED
 62
     5
 10
220.83390199999991
 20
148.8797559999999
 30
0.0
 11
220.3990839999999
 21
140.582919
 31
0.0
  0
LINE
  5
683
  8
DETAIL
  6
DASHED2
 62
     5
 10
219.03554700000001
 20
126.95
 30
0.0
 11
219.03554700000001
 21
131.05000000000001
 31
0.0
  0
LINE
  5
684
  8
DETAIL
  6
DASHED2
 62
     5
 10
221.03554700000001
 20
125.019097
 30
0.0
 11
221.03554700000001
 21
126.9374999999999
 31
0.0
  0
LINE
  5
685
  8
DETAIL
  6
DASHED2
 62
     5
 10
219.03554700000001
 20
126.95
 30
0.0
 11
221.03554700000001
 21
126.9249999999999
 31
0.0
  0
LINE
  5
686
  8
DETAIL
  6
DASHED2
 62
     5
 10
221.03554700000001
 20
132.98090300000001
 30
0.0
 11
221.03554700000001
 21
131.0624999999998
 31
0.0
  0
LINE
  5
687
  8
DETAIL
  6
DASHED2
 62
     5
 10
219.03554700000001
 20
131.05000000000001
 30
0.0
 11
221.03554700000001
 21
131.07499999999979
 31
0.0
  0
LINE
  5
688
  8
DETAIL
  6
DASHED2
 62
     5
 10
232.257643
 20
147.123503
 30
0.0
 11
231.99596299999999
 21
142.13035500000001
 31
0.0
  0
LINE
  5
689
  8
DETAIL
  6
DASHED2
 62
     5
 10
215.03554700000001
 20
117.918797
 30
0.0
 11
215.03554700000001
 21
137.8232829999998
 31
0.0
  0
ARC
  5
68A
  8
DETAIL
  6
DASHED2
 62
     5
 10
215.03554700000001
 20
129.0
 30
0.0
 40
4.0
 50
180.0
 51
270.0
  0
CIRCLE
  5
68B
  8
DETAIL
  6
DASHED2
 62
     5
 10
215.03554700000001
 20
129.0
 30
0.0
 40
2.0
  0
LINE
  5
68C
  8
DETAIL
  6
DASHED2
 62
     5
 10
215.03554700000001
 20
124.5754629999999
 30
0.0
 11
215.16130299999989
 21
126.998428
 31
0.0
  0
LINE
  5
68D
  8
DETAIL
  6
DASHED2
 62
     5
 10
216.53554700000001
 20
133.011447
 30
0.0
 11
216.53554700000001
 21
151.84962300000001
 31
0.0
  0
LINE
  5
68E
  8
DETAIL
  6
DASHED2
 62
     5
 10
215.03554700000001
 20
133.0
 30
0.0
 11
215.03554700000001
 21
151.84962300000001
 31
0.0
  0
ARC
  5
68F
  8
DETAIL
  6
DASHED2
 62
     5
 10
215.03554700000001
 20
129.0
 30
0.0
 40
4.0
 50
90.0
 51
180.0
  0
ARC
  5
690
  8
DETAIL
  6
DASHED2
 62
     5
 10
212.15421199999989
 20
145.6736479999999
 30
0.0
 40
1.5
 50
146.89929000000001
 51
177.0
  0
ARC
  5
691
  8
DETAIL
  6
DASHED2
 62
     5
 10
214.519946
 20
143.046234
 30
0.0
 40
5.0
 50
87.0
 51
136.42397600000001
  0
ARC
  5
692
  8
DETAIL
  6
DASHED2
 62
     5
 10
214.7816259999999
 20
148.0393819999999
 30
0.0
 40
5.0
 50
217.57602399999979
 51
267.0
  0
ARC
  5
693
  8
DETAIL
  6
DASHED2
 62
     5
 10
212.15421199999989
 20
145.6736479999999
 30
0.0
 40
1.5
 50
177.0
 51
207.10070999999999
  0
LINE
  5
694
  8
DETAIL
  6
DASHED2
 62
     5
 10
215.03554700000001
 20
151.84962300000001
 30
0.0
 11
216.53554700000001
 21
151.84962300000001
 31
0.0
  0
LINE
  5
695
  8
DETAIL
  6
DASHED2
 62
     5
 10
214.519946
 20
143.046234
 30
0.0
 11
215.51857599999991
 21
142.993898
 31
0.0
  0
LINE
  5
696
  8
DETAIL
  6
DASHED2
 62
     5
 10
214.7816259999999
 20
148.0393819999999
 30
0.0
 11
215.78025599999989
 21
147.98704599999979
 31
0.0
  0
LINE
  5
697
  8
DETAIL
  6
CONTINUOUS
 62
     5
 10
210.0
 20
158.0
 30
0.0
 11
235.0
 21
158.0
 31
0.0
  0
LINE
  5
698
  8
DETAIL
  6
DASHED2
 62
     5
 10
221.03554700000001
 20
125.0278239999999
 30
0.0
 11
216.55901700000001
 21
124.9887579999999
 31
0.0
  0
LINE
  5
699
  8
DETAIL
  6
DASHED2
 62
     5
 10
221.03554700000001
 20
132.97217599999991
 30
0.0
 11
216.53554700000001
 21
133.011447
 31
0.0
  0
LINE
  5
69A
  8
DETAIL
  6
DASHED2
 62
     5
 10
216.27957000000001
 20
147.96087800000001
 30
0.0
 11
232.257643
 21
147.123503
 31
0.0
  0
LINE
  5
69B
  8
DETAIL
  6
DASHED2
 62
     5
 10
216.01789099999991
 20
142.9677299999999
 30
0.0
 11
231.99596299999999
 21
142.13035500000001
 31
0.0
  0
LINE
  5
69C
  8
DETAIL
  6
CONTINUOUS
 62
     5
 10
175.0
 20
56.051749999999998
 30
0.0
 11
154.22580599999981
 21
40.0
 31
0.0
  0
CIRCLE
  5
69D
  8
FIX
  6
CONTINUOUS
 62
    11
 39
50.0
 10
170.5
 20
170.0
 30
0.0
 40
7.5
  0
CIRCLE
  5
69E
  8
FIX
  6
CONTINUOUS
 62
    11
 39
50.0
 10
133.0
 20
169.24192099999991
 30
0.0
 40
7.5
  0
CIRCLE
  5
69F
  8
FIX
  6
DASHED2
 62
    11
 39
50.0
 10
-133.0
 20
169.24192099999991
 30
0.0
 40
7.5
  0
CIRCLE
  5
6A0
  8
FIX
  6
CONTINUOUS
 62
    11
 39
50.0
 10
-170.5
 20
170.0
 30
0.0
 40
7.5
  0
LINE
  5
6A1
  8
DETAIL
  6
CONTINUOUS
 62
     5
 10
160.57002399999999
 20
-0.013486
 30
0.0
 11
158.5223159999999
 21
167.62935100000001
 31
0.0
  0
LINE
  5
6A2
  8
DETAIL
  6
CONTINUOUS
 62
     5
 10
-155.0
 20
0.0
 30
0.0
 11
-152.09084899999999
 21
169.70048
 31
0.0
  0
ARC
  5
6A3
  8
DETAIL
  6
CONTINUOUS
 62
     5
 10
-158.546176
 20
169.812918
 30
0.0
 40
6.442549999999998
 50
359.0
 51
89.0
  0
LINE
  5
6A4
  8
NOTE
  6
CONTINUOUS
 62
     4
 10
170.5
 20
190.0
 30
0.0
 11
170.5
 21
150.0
 31
0.0
  0
LINE
  5
6A5
  8
NOTE
  6
CONTINUOUS
 62
     4
 10
150.5
 20
170.0
 30
0.0
 11
190.5
 21
170.0
 31
0.0
  0
LINE
  5
6A6
  8
DETAIL
  6
CONTINUOUS
 62
     5
 10
-183.4999999999998
 20
179.8161849999999
 30
0.0
 11
-183.37194600000001
 21
185.74110899999999
 31
0.0
  0
ARC
  5
6A7
  8
DETAIL
  6
CONTINUOUS
 62
     5
 10
-182.298351
 20
185.7223689999999
 30
0.0
 40
1.0737579999999991
 50
89.0
 51
179.0
  0
LINE
  5
6A8
  8
DETAIL
  6
CONTINUOUS
 62
     5
 10
-181.59522899999999
 20
176.65626700000001
 30
0.0
 11
-181.54056299999991
 21
179.78807499999999
 31
0.0
  0
LINE
  5
6A9
  8
DETAIL
  6
CONTINUOUS
 62
     5
 10
-157.5
 20
185.30114499999991
 30
0.0
 11
-157.62805399999991
 21
179.3762209999999
 31
0.0
  0
ARC
  5
6AA
  8
DETAIL
  6
CONTINUOUS
 62
     5
 10
-158.57359500000001
 20
185.319885
 30
0.0
 40
1.0737579999999991
 50
359.0
 51
89.0
  0
LINE
  5
6AB
  8
DETAIL
  6
CONTINUOUS
 62
     5
 10
-159.6104949999999
 20
176.27252200000001
 30
0.0
 11
-159.5558299999999
 21
179.40432999999999
 31
0.0
  0
LINE
  5
6AC
  8
DETAIL
  6
CONTINUOUS
 62
     5
 10
-182.2796109999999
 20
186.795964
 30
0.0
 11
-158.554855
 21
186.39347900000001
 31
0.0
  0
LINE
  5
6AD
  8
DETAIL
  6
CONTINUOUS
 62
     5
 10
-183.4999999999998
 20
179.8161849999999
 30
0.0
 11
-157.62805399999991
 21
179.3762209999999
 31
0.0
  0
LINE
  5
6AE
  8
DETAIL
  6
CONTINUOUS
 62
     5
 10
-188.0
 20
176.75933499999999
 30
0.0
 11
-158.4337339999999
 21
176.254749
 31
0.0
  0
LINE
  5
6AF
  8
DETAIL
  6
CONTINUOUS
 62
     5
 10
-183.56533400000001
 20
166.5
 30
0.0
 11
-183.4999999999998
 21
170.24300600000001
 31
0.0
  0
LINE
  5
6B0
  8
DETAIL
  6
CONTINUOUS
 62
     5
 10
-188.11222900000001
 20
170.32973799999991
 30
0.0
 11
-160.632046
 21
169.8129779999999
 31
0.0
  0
ARC
  5
6B1
  8
DETAIL
  6
CONTINUOUS
 62
     5
 10
-160.66950600000001
 20
167.666831
 30
0.0
 40
2.1475170000000001
 50
359.0
 51
89.0
  0
LINE
  5
6B2
  8
DETAIL
  6
CONTINUOUS
 62
     5
 10
-188.11222900000001
 20
170.32973799999991
 30
0.0
 11
-188.0
 21
176.75933499999999
 31
0.0
  0
LINE
  5
6B3
  8
DETAIL
  6
DASHED2
 62
     5
 10
155.0
 20
0.0
 30
0.0
 11
152.1098639999999
 21
168.591252
 31
0.0
  0
LINE
  5
6B4
  8
DETAIL
  6
CONTINUOUS
 62
     5
 10
-160.57002399999999
 20
-0.013486
 30
0.0
 11
-159.92774199999991
 21
52.569164000000001
 31
0.0
  0
LINE
  5
6B5
  8
DETAIL
  6
CONTINUOUS
 62
     5
 10
111.6416909999998
 20
0.0
 30
0.0
 11
109.452834
 21
175.39952199999999
 31
0.0
  0
LINE
  5
6B6
  8
DETAIL
  6
CONTINUOUS
 62
     5
 10
188.0
 20
176.75933499999999
 30
0.0
 11
158.4337339999999
 21
176.254749
 31
0.0
  0
LINE
  5
6B7
  8
DETAIL
  6
CONTINUOUS
 62
     5
 10
183.4999999999998
 20
179.8161849999999
 30
0.0
 11
157.62805399999991
 21
179.3762209999999
 31
0.0
  0
LINE
  5
6B8
  8
DETAIL
  6
CONTINUOUS
 62
     5
 10
182.2796109999999
 20
186.795964
 30
0.0
 11
158.554855
 21
186.39347900000001
 31
0.0
  0
LINE
  5
6B9
  8
DETAIL
  6
CONTINUOUS
 62
     5
 10
188.0
 20
176.75933499999999
 30
0.0
 11
158.4337339999999
 21
176.254749
 31
0.0
  0
LINE
  5
6BA
  8
DETAIL
  6
CONTINUOUS
 62
     5
 10
182.61380199999991
 20
159.48831799999999
 30
0.0
 11
158.6268709999998
 21
159.069625
 31
0.0
  0
LINE
  5
6BB
  8
DETAIL
  6
CONTINUOUS
 62
     5
 10
188.11222900000001
 20
170.32973799999991
 30
0.0
 11
160.632046
 21
169.8129779999999
 31
0.0
  0
LINE
  5
6BC
  8
DETAIL
  6
CONTINUOUS
 62
     5
 10
188.11222900000001
 20
170.32973799999991
 30
0.0
 11
160.632046
 21
169.8129779999999
 31
0.0
  0
LINE
  5
6BD
  8
NOTE
  6
CONTINUOUS
 62
     4
 10
-170.5
 20
190.0
 30
0.0
 11
-170.5
 21
150.0
 31
0.0
  0
LINE
  5
6BE
  8
NOTE
  6
CONTINUOUS
 62
     4
 10
-150.5
 20
170.0
 30
0.0
 11
-190.5
 21
170.0
 31
0.0
  0
LINE
  5
6BF
  8
DETAIL
  6
CONTINUOUS
 62
     5
 10
159.6104949999999
 20
176.27252200000001
 30
0.0
 11
159.5558299999999
 21
179.40432999999999
 31
0.0
  0
LINE
  5
6C0
  8
DETAIL
  6
CONTINUOUS
 62
     5
 10
157.5
 20
185.30114499999991
 30
0.0
 11
157.62805399999991
 21
179.3762209999999
 31
0.0
  0
ARC
  5
6C1
  8
DETAIL
  6
CONTINUOUS
 62
     5
 10
158.57359500000001
 20
185.319885
 30
0.0
 40
1.0737579999999991
 50
91.0
 51
181.0
  0
ARC
  5
6C2
  8
DETAIL
  6
CONTINUOUS
 62
     5
 10
160.66950600000001
 20
167.666831
 30
0.0
 40
2.1475170000000001
 50
91.0
 51
181.0
  0
LINE
  5
6C3
  8
DETAIL
  6
CONTINUOUS
 62
     5
 10
-152.10460800000001
 20
169.70048
 30
0.0
 11
-152.10460800000001
 21
168.591252
 31
0.0
  0
ARC
  5
6C4
  8
DETAIL
  6
CONTINUOUS
 62
     5
 10
158.546176
 20
169.812918
 30
0.0
 40
6.442549999999998
 50
91.0
 51
181.0
  0
LINE
  5
6C5
  8
DETAIL
  6
CONTINUOUS
 62
     5
 10
181.59522899999999
 20
176.65626700000001
 30
0.0
 11
181.54056299999991
 21
179.78807499999999
 31
0.0
  0
LINE
  5
6C6
  8
DETAIL
  6
CONTINUOUS
 62
     5
 10
183.4999999999998
 20
179.8161849999999
 30
0.0
 11
183.37194600000001
 21
185.74110899999999
 31
0.0
  0
ARC
  5
6C7
  8
DETAIL
  6
CONTINUOUS
 62
     5
 10
182.298351
 20
185.7223689999999
 30
0.0
 40
1.0737579999999991
 50
1.0
 51
91.0
  0
ARC
  5
6C8
  8
DETAIL
  6
CONTINUOUS
 62
     5
 10
182.59506200000001
 20
160.56191299999981
 30
0.0
 40
1.0737579999999991
 50
271.0
 51
1.0
  0
LINE
  5
6C9
  8
DETAIL
  6
CONTINUOUS
 62
     5
 10
183.66865699999991
 20
160.58065300000001
 30
0.0
 11
183.4999999999998
 21
170.24300600000001
 31
0.0
  0
LINE
  5
6CA
  8
DETAIL
  6
CONTINUOUS
 62
     5
 10
188.11222900000001
 20
170.32973799999991
 30
0.0
 11
188.0
 21
176.75933499999999
 31
0.0
  0
LINE
  5
6CB
  8
DETAIL
  6
CONTINUOUS
 62
     5
 10
188.11222900000001
 20
170.32973799999991
 30
0.0
 11
188.0
 21
176.75933499999999
 31
0.0
  0
LINE
  5
6CC
  8
DETAIL
  6
CONTINUOUS
 62
     5
 10
-152.0
 20
175.0
 30
0.0
 11
-152.00854699999991
 21
175.0
 31
0.0
  0
POINT
  5
6CD
  8
ARRANGE
  6
CONTINUOUS
 62
     1
 10
0.0
 20
0.0
 30
0.0
 39
50.0
  0
CIRCLE
  5
6CE
  8
ARRANGE
  6
CONTINUOUS
 62
     1
 39
50.0
 10
0.0
 20
0.0
 30
0.0
 40
40.0
  0
LINE
  5
6CF
  8
SIZE
  6
CONTINUOUS
 62
    30
 10
13.0
 20
234.99130400000001
 30
0.0
 11
13.0
 21
383.46891399999998
 31
0.0
  0
LINE
  5
6D0
  8
SIZE
  6
CONTINUOUS
 62
    30
 10
0.0
 20
253.64072200000001
 30
0.0
 11
0.0
 21
383.46891399999998
 31
0.0
  0
LINE
  5
6D1
  8
SIZE
  6
CONTINUOUS
 62
    30
 10
25.0
 20
363.46891399999993
 30
0.0
 11
37.0
 21
363.46891399999993
 31
0.0
  0
LINE
  5
6D2
  8
SIZE
  6
CONTINUOUS
 62
    30
 10
-12.0
 20
363.46891399999993
 30
0.0
 11
-24.0
 21
363.46891399999993
 31
0.0
  0
LINE
  5
6D3
  8
SIZE
  6
CONTINUOUS
 62
    30
 10
13.0
 20
363.46891399999993
 30
0.0
 11
0.0
 21
363.46891399999993
 31
0.0
  0
CIRCLE
  5
6D4
  8
SIZE
  6
CONTINUOUS
 62
    30
 10
13.0
 20
363.46891399999993
 30
0.0
 40
6.0
  0
LINE
  5
6D5
  8
SIZE
  6
CONTINUOUS
 62
    30
 10
13.0
 20
363.46891399999993
 30
0.0
 11
25.0
 21
363.46891399999993
 31
0.0
  0
CIRCLE
  5
6D6
  8
SIZE
  6
CONTINUOUS
 62
    30
 10
0.0
 20
363.46891399999993
 30
0.0
 40
6.0
  0
LINE
  5
6D7
  8
SIZE
  6
CONTINUOUS
 62
    30
 10
0.0
 20
363.46891399999993
 30
0.0
 11
-12.0
 21
363.46891399999993
 31
0.0
  0
TEXT
  5
6D8
  8
SIZE
  6
CONTINUOUS
 62
    30
 10
-34.642857142857132
 20
388.46891399999993
 30
0.0
 40
64.0
  1
13
 41
0.9
 72
     1
 11
6.5
 21
388.46891399999993
 31
0.0
  0
LINE
  5
6D9
  8
SIZE
  6
CONTINUOUS
 62
    30
 10
-28.0
 20
212.792495
 30
0.0
 11
-28.0
 21
512.07635200000004
 31
0.0
  0
LINE
  5
6DA
  8
SIZE
  6
CONTINUOUS
 62
    30
 10
54.0
 20
212.792495
 30
0.0
 11
54.0
 21
512.07635200000004
 31
0.0
  0
LINE
  5
6DB
  8
SIZE
  6
CONTINUOUS
 62
    30
 10
-40.499999999999993
 20
492.07635199999999
 30
0.0
 11
-52.5
 21
492.07635199999999
 31
0.0
  0
LINE
  5
6DC
  8
SIZE
  6
CONTINUOUS
 62
    30
 10
66.5
 20
492.07635199999999
 30
0.0
 11
78.5
 21
492.07635199999999
 31
0.0
  0
LINE
  5
6DD
  8
SIZE
  6
CONTINUOUS
 62
    30
 10
-28.5
 20
492.07635199999999
 30
0.0
 11
54.5
 21
492.07635199999999
 31
0.0
  0
CIRCLE
  5
6DE
  8
SIZE
  6
CONTINUOUS
 62
    30
 10
-28.0
 20
492.07635199999999
 30
0.0
 40
6.0
  0
LINE
  5
6DF
  8
SIZE
  6
CONTINUOUS
 62
    30
 10
-28.0
 20
492.07635199999999
 30
0.0
 11
-40.0
 21
492.07635199999999
 31
0.0
  0
CIRCLE
  5
6E0
  8
SIZE
  6
CONTINUOUS
 62
    30
 10
54.0
 20
492.07635199999999
 30
0.0
 40
6.0
  0
LINE
  5
6E1
  8
SIZE
  6
CONTINUOUS
 62
    30
 10
54.0
 20
492.07635199999999
 30
0.0
 11
66.0
 21
492.07635199999999
 31
0.0
  0
TEXT
  5
6E2
  8
SIZE
  6
CONTINUOUS
 62
    30
 10
-73.948571428571398
 20
517.07635200000004
 30
0.0
 40
64.0
  1
âË82
 41
0.9
 72
     1
 11
13.0
 21
517.07635200000004
 31
0.0
  0
LINE
  5
6E3
  8
DETAIL
  6
CONTINUOUS
 62
     5
 10
-121.9460439999999
 20
175.617592
 30
0.0
 11
-109.452834
 21
175.39952199999999
 31
0.0
  0
LINE
  5
6E4
  8
DETAIL
  6
CONTINUOUS
 62
     5
 10
-121.703407
 20
169.13451900000001
 30
0.0
 11
-109.5658889999999
 21
168.9226569999999
 31
0.0
  0
LINE
  5
6E5
  8
DETAIL
  6
CONTINUOUS
 62
     5
 10
-152.10460800000001
 20
169.70048
 30
0.0
 11
-152.10460800000001
 21
168.591252
 31
0.0
  0
LINE
  5
6E6
  8
DETAIL
  6
CONTINUOUS
 62
     5
 10
-109.70740499999999
 20
155.0
 30
0.0
 11
-109.452834
 21
175.39952199999999
 31
0.0
  0
LINE
  5
6E7
  8
NOTE
  6
CONTINUOUS
 62
     4
 10
133.0
 20
149.24192099999991
 30
0.0
 11
133.0
 21
189.24192099999991
 31
0.0
  0
LINE
  5
6E8
  8
NOTE
  6
CONTINUOUS
 62
     4
 10
153.0
 20
169.24192099999991
 30
0.0
 11
113.0
 21
169.24192099999991
 31
0.0
  0
LINE
  5
6E9
  8
NOTE
  6
CONTINUOUS
 62
     4
 10
100.0
 20
20.0
 30
0.0
 11
100.0
 21
-20.0
 31
0.0
  0
LINE
  5
6EA
  8
NOTE
  6
CONTINUOUS
 62
     4
 10
80.0
 20
0.0000000000000024
 30
0.0
 11
120.0
 21
-0.0000000000000024
 31
0.0
  0
LINE
  5
6EB
  8
NOTE
  6
CONTINUOUS
 62
     4
 10
165.0
 20
20.0
 30
0.0
 11
165.0
 21
-20.0
 31
0.0
  0
LINE
  5
6EC
  8
NOTE
  6
CONTINUOUS
 62
     4
 10
145.0
 20
0.0000000000000024
 30
0.0
 11
185.0
 21
-0.0000000000000024
 31
0.0
  0
CIRCLE
  5
6ED
  8
FIX
  6
CONTINUOUS
 62
    11
 39
50.0
 10
165.0
 20
0.0
 30
0.0
 40
2.5
  0
CIRCLE
  5
6EE
  8
FIX
  6
CONTINUOUS
 62
    11
 39
50.0
 10
100.0
 20
0.0
 30
0.0
 40
2.5
  0
CIRCLE
  5
6EF
  8
FIX
  6
CONTINUOUS
 62
    11
 39
50.0
 10
-165.0
 20
0.0
 30
0.0
 40
2.5
  0
LINE
  5
6F0
  8
NOTE
  6
CONTINUOUS
 62
     4
 10
-165.0
 20
20.0
 30
0.0
 11
-165.0
 21
-20.0
 31
0.0
  0
LINE
  5
6F1
  8
NOTE
  6
CONTINUOUS
 62
     4
 10
-145.0
 20
-0.0000000000000024
 30
0.0
 11
-185.0
 21
0.0000000000000024
 31
0.0
  0
CIRCLE
  5
6F2
  8
FIX
  6
CONTINUOUS
 62
    11
 39
50.0
 10
-100.0
 20
0.0
 30
0.0
 40
2.5
  0
LINE
  5
6F3
  8
NOTE
  6
CONTINUOUS
 62
     4
 10
-100.0
 20
20.0
 30
0.0
 11
-100.0
 21
-20.0
 31
0.0
  0
LINE
  5
6F4
  8
NOTE
  6
CONTINUOUS
 62
     4
 10
-80.0
 20
-0.0000000000000024
 30
0.0
 11
-120.0
 21
0.0000000000000024
 31
0.0
  0
LINE
  5
6F5
  8
SIZE
  6
CONTINUOUS
 62
    30
 10
210.0
 20
0.0
 30
0.0
 11
890.97820399999989
 21
0.0
 31
0.0
  0
LINE
  5
6F6
  8
SIZE
  6
CONTINUOUS
 62
    30
 10
172.0
 20
155.0
 30
0.0
 11
890.97820399999989
 21
155.0
 31
0.0
  0
LINE
  5
6F7
  8
SIZE
  6
CONTINUOUS
 62
    30
 10
870.97820400000001
 20
-12.0
 30
0.0
 11
870.97820400000001
 21
-24.0
 31
0.0
  0
LINE
  5
6F8
  8
SIZE
  6
CONTINUOUS
 62
    30
 10
870.97820400000001
 20
167.0
 30
0.0
 11
870.97820400000001
 21
179.0
 31
0.0
  0
LINE
  5
6F9
  8
SIZE
  6
CONTINUOUS
 62
    30
 10
870.97820400000001
 20
0.0
 30
0.0
 11
870.97820400000001
 21
155.0
 31
0.0
  0
CIRCLE
  5
6FA
  8
SIZE
  6
CONTINUOUS
 62
    30
 10
870.97820400000001
 20
0.0
 30
0.0
 40
6.0
  0
LINE
  5
6FB
  8
SIZE
  6
CONTINUOUS
 62
    30
 10
870.97820400000001
 20
0.0
 30
0.0
 11
870.97820400000001
 21
-12.0
 31
0.0
  0
CIRCLE
  5
6FC
  8
SIZE
  6
CONTINUOUS
 62
    30
 10
870.97820400000001
 20
155.0
 30
0.0
 40
6.0
  0
LINE
  5
6FD
  8
SIZE
  6
CONTINUOUS
 62
    30
 10
870.97820400000001
 20
155.0
 30
0.0
 11
870.97820400000001
 21
167.0
 31
0.0
  0
TEXT
  5
6FE
  8
SIZE
  6
CONTINUOUS
 62
    30
 10
845.97820400000001
 20
8.9285714285714306
 30
0.0
 40
64.0
  1
155
 50
90.0
 41
0.9
 72
     1
 11
845.97820400000001
 21
77.5
 31
0.0
  0
LINE
  5
6FF
  8
SIZE
  6
CONTINUOUS
 62
    30
 10
-133.0
 20
209.24192099999999
 30
0.0
 11
-133.0
 21
620.6839379999999
 31
0.0
  0
LINE
  5
700
  8
SIZE
  6
CONTINUOUS
 62
    30
 10
133.0
 20
209.24192099999999
 30
0.0
 11
133.0
 21
620.6839379999999
 31
0.0
  0
LINE
  5
701
  8
SIZE
  6
CONTINUOUS
 62
    30
 10
-121.0
 20
600.68393800000001
 30
0.0
 11
121.0
 21
600.68393800000001
 31
0.0
  0
CIRCLE
  5
702
  8
SIZE
  6
CONTINUOUS
 62
    30
 10
-133.0
 20
600.68393800000001
 30
0.0
 40
6.0
  0
LINE
  5
703
  8
SIZE
  6
CONTINUOUS
 62
    30
 10
-133.0
 20
600.68393800000001
 30
0.0
 11
-121.0
 21
600.68393800000001
 31
0.0
  0
CIRCLE
  5
704
  8
SIZE
  6
CONTINUOUS
 62
    30
 10
133.0
 20
600.68393800000001
 30
0.0
 40
6.0
  0
LINE
  5
705
  8
SIZE
  6
CONTINUOUS
 62
    30
 10
133.0
 20
600.68393800000001
 30
0.0
 11
121.0
 21
600.68393800000001
 31
0.0
  0
TEXT
  5
706
  8
SIZE
  6
CONTINUOUS
 62
    30
 10
-72.685714285714283
 20
625.68393800000001
 30
0.0
 40
64.0
  1
266
 41
0.9
 72
     1
 11
0.0
 21
625.68393800000001
 31
0.0
  0
LINE
  5
707
  8
SIZE
  6
CONTINUOUS
 62
    30
 10
-170.5
 20
210.0
 30
0.0
 11
-170.5
 21
849.20323800000006
 31
0.0
  0
LINE
  5
708
  8
SIZE
  6
CONTINUOUS
 62
    30
 10
170.5
 20
210.0
 30
0.0
 11
170.5
 21
849.20323800000006
 31
0.0
  0
LINE
  5
709
  8
SIZE
  6
CONTINUOUS
 62
    30
 10
-158.4999999999998
 20
829.20323800000006
 30
0.0
 11
158.4999999999998
 21
829.20323800000006
 31
0.0
  0
CIRCLE
  5
70A
  8
SIZE
  6
CONTINUOUS
 62
    30
 10
-170.5
 20
829.20323800000006
 30
0.0
 40
6.0
  0
LINE
  5
70B
  8
SIZE
  6
CONTINUOUS
 62
    30
 10
-170.5
 20
829.20323800000006
 30
0.0
 11
-158.4999999999998
 21
829.20323800000006
 31
0.0
  0
CIRCLE
  5
70C
  8
SIZE
  6
CONTINUOUS
 62
    30
 10
170.5
 20
829.20323800000006
 30
0.0
 40
6.0
  0
LINE
  5
70D
  8
SIZE
  6
CONTINUOUS
 62
    30
 10
170.5
 20
829.20323800000006
 30
0.0
 11
158.4999999999998
 21
829.20323800000006
 31
0.0
  0
TEXT
  5
70E
  8
SIZE
  6
CONTINUOUS
 62
    30
 10
-61.714285714285701
 20
854.20323800000006
 30
0.0
 40
64.0
  1
341
 41
0.9
 72
     1
 11
0.0
 21
854.20323800000006
 31
0.0
  0
LINE
  5
70F
  8
DETAIL
  6
CONTINUOUS
 62
     5
 10
-152.0
 20
175.0
 30
0.0
 11
-152.1098639999999
 21
168.591252
 31
0.0
  0
LINE
  5
710
  8
SIZE
  6
CONTINUOUS
 62
    30
 10
-152.0
 20
195.5
 30
0.0
 11
-152.0
 21
738.18042100000002
 31
0.0
  0
LINE
  5
711
  8
SIZE
  6
CONTINUOUS
 62
    30
 10
152.0
 20
175.0
 30
0.0
 11
152.0
 21
738.18042100000002
 31
0.0
  0
LINE
  5
712
  8
SIZE
  6
CONTINUOUS
 62
    30
 10
-140.0
 20
718.18042100000002
 30
0.0
 11
140.0
 21
718.18042100000002
 31
0.0
  0
CIRCLE
  5
713
  8
SIZE
  6
CONTINUOUS
 62
    30
 10
-152.0
 20
718.18042100000002
 30
0.0
 40
6.0
  0
LINE
  5
714
  8
SIZE
  6
CONTINUOUS
 62
    30
 10
-152.0
 20
718.18042100000002
 30
0.0
 11
-140.0
 21
718.18042100000002
 31
0.0
  0
CIRCLE
  5
715
  8
SIZE
  6
CONTINUOUS
 62
    30
 10
152.0
 20
718.18042100000002
 30
0.0
 40
6.0
  0
LINE
  5
716
  8
SIZE
  6
CONTINUOUS
 62
    30
 10
152.0
 20
718.18042100000002
 30
0.0
 11
140.0
 21
718.18042100000002
 31
0.0
  0
TEXT
  5
717
  8
SIZE
  6
CONTINUOUS
 62
    30
 10
-111.90857142857141
 20
743.18042100000002
 30
0.0
 40
64.0
  1
üá304
 41
0.9
 72
     1
 11
0.0
 21
743.18042100000002
 31
0.0
  0
LINE
  5
718
  8
SIZE
  6
CONTINUOUS
 62
    30
 10
-152.0
 20
195.5
 30
0.0
 11
-152.0
 21
738.18042100000002
 31
0.0
  0
LINE
  5
719
  8
SIZE
  6
CONTINUOUS
 62
    30
 10
-265.0
 20
176.0
 30
0.0
 11
-265.0
 21
738.18042100000002
 31
0.0
  0
LINE
  5
71A
  8
SIZE
  6
CONTINUOUS
 62
    30
 10
-164.0
 20
718.18042100000002
 30
0.0
 11
-253.0
 21
718.18042100000002
 31
0.0
  0
TEXT
  5
71B
  8
SIZE
  6
CONTINUOUS
 62
    30
 10
-271.52329128571421
 20
743.18042100000002
 30
0.0
 40
64.0
  1
113
 41
0.9
 72
     1
 11
-208.437577
 21
743.18042100000002
 31
0.0
  0
CIRCLE
  5
71C
  8
SIZE
  6
CONTINUOUS
 62
    30
 10
-152.0
 20
718.18042100000002
 30
0.0
 40
6.0
  0
LINE
  5
71D
  8
SIZE
  6
CONTINUOUS
 62
    30
 10
-152.0
 20
718.18042100000002
 30
0.0
 11
-164.0
 21
718.18042100000002
 31
0.0
  0
CIRCLE
  5
71E
  8
SIZE
  6
CONTINUOUS
 62
    30
 10
-265.0
 20
718.18042100000002
 30
0.0
 40
6.0
  0
LINE
  5
71F
  8
SIZE
  6
CONTINUOUS
 62
    30
 10
-265.0
 20
718.18042100000002
 30
0.0
 11
-253.0
 21
718.18042100000002
 31
0.0
  0
LINE
  5
720
  8
DETAIL
  6
CONTINUOUS
 62
     5
 10
-265.0
 20
158.0
 30
0.0
 11
-265.0
 21
60.0
 31
0.0
  0
LINE
  5
721
  8
DETAIL
  6
CONTINUOUS
 62
     5
 10
-235.0
 20
158.0
 30
0.0
 11
-235.0
 21
60.0
 31
0.0
  0
LINE
  5
722
  8
SIZE
  6
CONTINUOUS
 62
    30
 10
-265.0
 20
176.0
 30
0.0
 11
-265.0
 21
512.07635200000004
 31
0.0
  0
LINE
  5
723
  8
SIZE
  6
CONTINUOUS
 62
    30
 10
-235.0
 20
177.00000700000001
 30
0.0
 11
-235.0
 21
512.07635200000004
 31
0.0
  0
LINE
  5
724
  8
SIZE
  6
CONTINUOUS
 62
    30
 10
-277.0
 20
492.07635199999999
 30
0.0
 11
-289.0
 21
492.07635199999999
 31
0.0
  0
LINE
  5
725
  8
SIZE
  6
CONTINUOUS
 62
    30
 10
-228.0
 20
492.07635199999999
 30
0.0
 11
-216.0
 21
492.07635199999999
 31
0.0
  0
LINE
  5
726
  8
SIZE
  6
CONTINUOUS
 62
    30
 10
-435.30727399999989
 20
492.07635199999999
 30
0.0
 11
-265.0
 21
492.07635199999999
 31
0.0
  0
TEXT
  5
727
  8
SIZE
  6
CONTINUOUS
 62
    30
 10
-410.30727442857142
 20
517.07635200000004
 30
0.0
 40
64.0
  1
30
 41
0.9
 72
     1
 11
-363.67870299999993
 21
517.07635200000004
 31
0.0
  0
LINE
  5
728
  8
SIZE
  6
CONTINUOUS
 62
    30
 10
-265.0
 20
492.07635199999999
 30
0.0
 11
-240.0
 21
492.07635199999999
 31
0.0
  0
LINE
  5
729
  8
SIZE
  6
CONTINUOUS
 62
    30
 10
-265.0
 20
492.07635199999999
 30
0.0
 11
-240.0
 21
492.07635199999999
 31
0.0
  0
CIRCLE
  5
72A
  8
SIZE
  6
CONTINUOUS
 62
    30
 10
-265.0
 20
492.07635199999999
 30
0.0
 40
6.0
  0
LINE
  5
72B
  8
SIZE
  6
CONTINUOUS
 62
    30
 10
-265.0
 20
492.07635199999999
 30
0.0
 11
-277.0
 21
492.07635199999999
 31
0.0
  0
LINE
  5
72C
  8
SIZE
  6
CONTINUOUS
 62
    30
 10
-240.0
 20
492.07635199999999
 30
0.0
 11
-228.0
 21
492.07635199999999
 31
0.0
  0
LINE
  5
72D
  8
SIZE
  6
CONTINUOUS
 62
    30
 10
-265.0
 20
176.0
 30
0.0
 11
-265.0
 21
620.6839379999999
 31
0.0
  0
LINE
  5
72E
  8
SIZE
  6
CONTINUOUS
 62
    30
 10
-195.0
 20
184.64582799999999
 30
0.0
 11
-195.0
 21
620.6839379999999
 31
0.0
  0
LINE
  5
72F
  8
SIZE
  6
CONTINUOUS
 62
    30
 10
-277.0
 20
600.68393800000001
 30
0.0
 11
-289.0
 21
600.68393800000001
 31
0.0
  0
LINE
  5
730
  8
SIZE
  6
CONTINUOUS
 62
    30
 10
-433.20693199999999
 20
600.68393800000001
 30
0.0
 11
-265.0
 21
600.68393800000001
 31
0.0
  0
TEXT
  5
731
  8
SIZE
  6
CONTINUOUS
 62
    30
 10
-408.20693142857129
 20
625.68393800000001
 30
0.0
 40
64.0
  1
70
 41
0.9
 72
     1
 11
-361.57835999999992
 21
625.68393800000001
 31
0.0
  0
LINE
  5
732
  8
SIZE
  6
CONTINUOUS
 62
    30
 10
-265.0
 20
600.68393800000001
 30
0.0
 11
-212.0
 21
600.68393800000001
 31
0.0
  0
LINE
  5
733
  8
SIZE
  6
CONTINUOUS
 62
    30
 10
-265.0
 20
600.68393800000001
 30
0.0
 11
-179.17963679609591
 21
600.68393800000001
 31
0.0
  0
CIRCLE
  5
734
  8
SIZE
  6
CONTINUOUS
 62
    30
 10
-265.0
 20
600.68393800000001
 30
0.0
 40
6.0
  0
LINE
  5
735
  8
SIZE
  6
CONTINUOUS
 62
    30
 10
-265.0
 20
600.68393800000001
 30
0.0
 11
-277.0
 21
600.68393800000001
 31
0.0
  0
LINE
  5
736
  8
SIZE
  6
CONTINUOUS
 62
    30
 10
152.0
 20
175.0
 30
0.0
 11
152.0
 21
738.18042100000002
 31
0.0
  0
LINE
  5
737
  8
SIZE
  6
CONTINUOUS
 62
    30
 10
235.0
 20
176.0
 30
0.0
 11
235.0
 21
738.18042100000002
 31
0.0
  0
LINE
  5
738
  8
SIZE
  6
CONTINUOUS
 62
    30
 10
164.0
 20
718.18042100000002
 30
0.0
 11
223.0
 21
718.18042100000002
 31
0.0
  0
LINE
  5
739
  8
SIZE
  6
CONTINUOUS
 62
    30
 10
409.51929099999978
 20
718.18042100000002
 30
0.0
 11
235.0
 21
718.18042100000002
 31
0.0
  0
TEXT
  5
73A
  8
SIZE
  6
CONTINUOUS
 62
    30
 10
291.26214857142838
 20
743.18042100000002
 30
0.0
 40
64.0
  1
83
 41
0.9
 72
     1
 11
337.89071999999982
 21
743.18042100000002
 31
0.0
  0
CIRCLE
  5
73B
  8
SIZE
  6
CONTINUOUS
 62
    30
 10
152.0
 20
718.18042100000002
 30
0.0
 40
6.0
  0
LINE
  5
73C
  8
SIZE
  6
CONTINUOUS
 62
    30
 10
152.0
 20
718.18042100000002
 30
0.0
 11
164.0
 21
718.18042100000002
 31
0.0
  0
CIRCLE
  5
73D
  8
SIZE
  6
CONTINUOUS
 62
    30
 10
235.0
 20
718.18042100000002
 30
0.0
 40
6.0
  0
LINE
  5
73E
  8
SIZE
  6
CONTINUOUS
 62
    30
 10
235.0
 20
718.18042100000002
 30
0.0
 11
223.0
 21
718.18042100000002
 31
0.0
  0
LINE
  5
73F
  8
SIZE
  6
CONTINUOUS
 62
    30
 10
210.0
 20
177.0
 30
0.0
 11
210.0
 21
620.19630700000005
 31
0.0
  0
LINE
  5
740
  8
SIZE
  6
CONTINUOUS
 62
    30
 10
235.0
 20
176.0
 30
0.0
 11
235.0
 21
620.19630700000005
 31
0.0
  0
LINE
  5
741
  8
SIZE
  6
CONTINUOUS
 62
    30
 10
198.0
 20
600.19630700000016
 30
0.0
 11
186.0
 21
600.19630700000016
 31
0.0
  0
LINE
  5
742
  8
SIZE
  6
CONTINUOUS
 62
    30
 10
247.0
 20
600.19630700000016
 30
0.0
 11
259.0
 21
600.19630700000016
 31
0.0
  0
LINE
  5
743
  8
SIZE
  6
CONTINUOUS
 62
    30
 10
411.83915999999988
 20
600.19630700000016
 30
0.0
 11
235.0
 21
600.19630700000016
 31
0.0
  0
TEXT
  5
744
  8
SIZE
  6
CONTINUOUS
 62
    30
 10
293.58201757142859
 20
625.19630700000016
 30
0.0
 40
64.0
  1
25
 41
0.9
 72
     1
 11
340.21058900000003
 21
625.19630700000016
 31
0.0
  0
LINE
  5
745
  8
SIZE
  6
CONTINUOUS
 62
    30
 10
210.0
 20
600.19630700000016
 30
0.0
 11
235.0
 21
600.19630700000016
 31
0.0
  0
LINE
  5
746
  8
SIZE
  6
CONTINUOUS
 62
    30
 10
210.0
 20
600.19630700000016
 30
0.0
 11
235.0
 21
600.19630700000016
 31
0.0
  0
CIRCLE
  5
747
  8
SIZE
  6
CONTINUOUS
 62
    30
 10
210.0
 20
600.19630700000016
 30
0.0
 40
6.0
  0
LINE
  5
748
  8
SIZE
  6
CONTINUOUS
 62
    30
 10
210.0
 20
600.19630700000016
 30
0.0
 11
198.0
 21
600.19630700000016
 31
0.0
  0
CIRCLE
  5
749
  8
SIZE
  6
CONTINUOUS
 62
    30
 10
235.0
 20
600.19630700000016
 30
0.0
 40
6.0
  0
LINE
  5
74A
  8
SIZE
  6
CONTINUOUS
 62
    30
 10
235.0
 20
600.19630700000016
 30
0.0
 11
247.0
 21
600.19630700000016
 31
0.0
  0
LINE
  5
74B
  8
DETAIL
  6
DASHED2
 62
     5
 10
-277.788658
 20
126.0000919999999
 30
0.0
 11
-278.0
 21
127.282809
 31
0.0
  0
LINE
  5
74C
  8
SIZE
  6
CONTINUOUS
 62
    30
 10
-265.0
 20
176.0
 30
0.0
 11
-265.0
 21
738.18042100000002
 31
0.0
  0
LINE
  5
74D
  8
SIZE
  6
CONTINUOUS
 62
    30
 10
-278.0
 20
147.2828089999999
 30
0.0
 11
-278.0
 21
738.18042100000002
 31
0.0
  0
LINE
  5
74E
  8
SIZE
  6
CONTINUOUS
 62
    30
 10
-253.0
 20
718.18042100000002
 30
0.0
 11
-241.0
 21
718.18042100000002
 31
0.0
  0
LINE
  5
74F
  8
SIZE
  6
CONTINUOUS
 62
    30
 10
-292.0
 20
718.18042100000002
 30
0.0
 11
-304.0
 21
718.18042100000002
 31
0.0
  0
LINE
  5
750
  8
SIZE
  6
CONTINUOUS
 62
    30
 10
-436.97101900000001
 20
718.18042100000002
 30
0.0
 11
-280.0
 21
718.18042100000002
 31
0.0
  0
TEXT
  5
751
  8
SIZE
  6
CONTINUOUS
 62
    30
 10
-411.97101914285707
 20
743.18042100000002
 30
0.0
 40
64.0
  1
13
 41
0.9
 72
     1
 11
-370.82816200000002
 21
743.18042100000002
 31
0.0
  0
LINE
  5
752
  8
SIZE
  6
CONTINUOUS
 62
    30
 10
-265.0
 20
718.18042100000002
 30
0.0
 11
-280.0
 21
718.18042100000002
 31
0.0
  0
LINE
  5
753
  8
SIZE
  6
CONTINUOUS
 62
    30
 10
-265.0
 20
718.18042100000002
 30
0.0
 11
-280.0
 21
718.18042100000002
 31
0.0
  0
CIRCLE
  5
754
  8
SIZE
  6
CONTINUOUS
 62
    30
 10
-265.0
 20
718.18042100000002
 30
0.0
 40
6.0
  0
LINE
  5
755
  8
SIZE
  6
CONTINUOUS
 62
    30
 10
-265.0
 20
718.18042100000002
 30
0.0
 11
-253.0
 21
718.18042100000002
 31
0.0
  0
LINE
  5
756
  8
SIZE
  6
CONTINUOUS
 62
    30
 10
-280.0
 20
718.18042100000002
 30
0.0
 11
-292.0
 21
718.18042100000002
 31
0.0
  0
LINE
  5
757
  8
DETAIL
  6
CONTINUOUS
 62
     5
 10
-46.0
 20
109.0
 30
0.0
 11
46.0
 21
109.0
 31
0.0
  0
CIRCLE
  5
758
  8
DETAIL
  6
CONTINUOUS
 62
     5
 10
0.0
 20
109.0
 30
0.0
 40
46.0
  0
CIRCLE
  5
759
  8
DETAIL
  6
CONTINUOUS
 62
     5
 10
0.0
 20
109.0
 30
0.0
 40
49.0
  0
CIRCLE
  5
75A
  8
DETAIL
  6
CONTINUOUS
 62
     5
 10
0.0
 20
109.0
 30
0.0
 40
52.5
  0
LINE
  5
75B
  8
DETAIL
  6
CONTINUOUS
 62
     5
 10
24.699999999999999
 20
129.0
 30
0.0
 11
39.5
 21
129.0
 31
0.0
  0
LINE
  5
75C
  8
DETAIL
  6
CONTINUOUS
 62
     5
 10
28.0
 20
134.4999999999998
 30
0.0
 11
36.0
 21
134.4999999999998
 31
0.0
  0
LINE
  5
75D
  8
DETAIL
  6
CONTINUOUS
 62
     5
 10
28.0
 20
136.4999999999998
 30
0.0
 11
36.0
 21
136.4999999999998
 31
0.0
  0
LINE
  5
75E
  8
DETAIL
  6
CONTINUOUS
 62
     5
 10
40.121690000000001
 20
131.4999999999998
 30
0.0
 11
26.0
 21
131.4999999999998
 31
0.0
  0
ARC
  5
75F
  8
DETAIL
  6
CONTINUOUS
 62
     5
 10
39.5
 20
126.0
 30
0.0
 40
3.0
 50
0.0
 51
90.0
  0
LINE
  5
760
  8
DETAIL
  6
CONTINUOUS
 62
     5
 10
40.0
 20
104.6698729999999
 30
0.0
 11
42.5
 21
109.0
 31
0.0
  0
LINE
  5
761
  8
DETAIL
  6
CONTINUOUS
 62
     5
 10
42.5
 20
109.0
 30
0.0
 11
42.5
 21
126.0
 31
0.0
  0
LINE
  5
762
  8
DETAIL
  6
CONTINUOUS
 62
     5
 10
36.0
 20
134.4999999999998
 30
0.0
 11
36.0
 21
136.4999999999998
 31
0.0
  0
LINE
  5
763
  8
DETAIL
  6
CONTINUOUS
 62
     5
 10
40.0
 20
86.284366999999989
 30
0.0
 11
40.0
 21
104.6698729999999
 31
0.0
  0
LINE
  5
764
  8
DETAIL
  6
CONTINUOUS
 62
     5
 10
24.699999999999999
 20
129.0
 30
0.0
 11
24.699999999999999
 21
147.80605600000001
 31
0.0
  0
LINE
  5
765
  8
DETAIL
  6
CONTINUOUS
 62
     5
 10
28.0
 20
131.4999999999998
 30
0.0
 11
28.0
 21
145.49657500000001
 31
0.0
  0
ARC
  5
766
  8
DETAIL
  6
CONTINUOUS
 62
     5
 10
23.0
 20
139.0
 30
0.0
 40
2.0
 50
90.0
 51
270.0
  0
LINE
  5
767
  8
DETAIL
  6
CONTINUOUS
 62
     5
 10
26.0
 20
137.0
 30
0.0
 11
23.0
 21
137.0
 31
0.0
  0
LINE
  5
768
  8
DETAIL
  6
CONTINUOUS
 62
     5
 10
26.0
 20
141.0
 30
0.0
 11
23.0
 21
141.0
 31
0.0
  0
LINE
  5
769
  8
DETAIL
  6
CONTINUOUS
 62
     5
 10
26.0
 20
131.4999999999998
 30
0.0
 11
26.0
 21
146.94733199999979
 31
0.0
  0
LINE
  5
76A
  8
DETAIL
  6
CONTINUOUS
 62
     5
 10
-40.121690000000001
 20
131.4999999999998
 30
0.0
 11
-26.0
 21
131.4999999999998
 31
0.0
  0
LINE
  5
76B
  8
DETAIL
  6
CONTINUOUS
 62
     5
 10
-24.699999999999999
 20
129.0
 30
0.0
 11
-39.5
 21
129.0
 31
0.0
  0
LINE
  5
76C
  8
DETAIL
  6
CONTINUOUS
 62
     5
 10
-26.0
 20
131.4999999999998
 30
0.0
 11
-26.0
 21
146.94733199999979
 31
0.0
  0
LINE
  5
76D
  8
DETAIL
  6
CONTINUOUS
 62
     5
 10
-24.699999999999999
 20
129.0
 30
0.0
 11
-24.699999999999999
 21
147.80605600000001
 31
0.0
  0
ARC
  5
76E
  8
DETAIL
  6
CONTINUOUS
 62
     5
 10
-23.0
 20
139.0
 30
0.0
 40
2.0
 50
270.0
 51
90.0
  0
LINE
  5
76F
  8
DETAIL
  6
CONTINUOUS
 62
     5
 10
-26.0
 20
137.0
 30
0.0
 11
-23.0
 21
137.0
 31
0.0
  0
LINE
  5
770
  8
DETAIL
  6
CONTINUOUS
 62
     5
 10
-26.0
 20
141.0
 30
0.0
 11
-23.0
 21
141.0
 31
0.0
  0
ARC
  5
771
  8
DETAIL
  6
CONTINUOUS
 62
     5
 10
-39.5
 20
126.0
 30
0.0
 40
3.0
 50
90.0
 51
180.0
  0
LINE
  5
772
  8
DETAIL
  6
CONTINUOUS
 62
     5
 10
-40.0
 20
104.6698729999999
 30
0.0
 11
-42.5
 21
109.0
 31
0.0
  0
LINE
  5
773
  8
DETAIL
  6
CONTINUOUS
 62
     5
 10
-42.5
 20
109.0
 30
0.0
 11
-42.5
 21
126.0
 31
0.0
  0
LINE
  5
774
  8
DETAIL
  6
CONTINUOUS
 62
     5
 10
-28.0
 20
131.4999999999998
 30
0.0
 11
-28.0
 21
145.49657500000001
 31
0.0
  0
LINE
  5
775
  8
DETAIL
  6
CONTINUOUS
 62
     5
 10
-36.0
 20
134.4999999999998
 30
0.0
 11
-36.0
 21
136.4999999999998
 31
0.0
  0
LINE
  5
776
  8
DETAIL
  6
CONTINUOUS
 62
     5
 10
-28.0
 20
134.4999999999998
 30
0.0
 11
-36.0
 21
134.4999999999998
 31
0.0
  0
LINE
  5
777
  8
DETAIL
  6
CONTINUOUS
 62
     5
 10
-28.0
 20
136.4999999999998
 30
0.0
 11
-36.0
 21
136.4999999999998
 31
0.0
  0
LINE
  5
778
  8
DETAIL
  6
CONTINUOUS
 62
     5
 10
-40.0
 20
86.284366999999989
 30
0.0
 11
-40.0
 21
104.6698729999999
 31
0.0
  0
LINE
  5
779
  8
SIZE
  6
CONTINUOUS
 62
    30
 10
-283.0
 20
158.0
 30
0.0
 11
-522.55728399999975
 21
158.0
 31
0.0
  0
LINE
  5
77A
  8
SIZE
  6
CONTINUOUS
 62
    30
 10
-283.0
 20
60.0
 30
0.0
 11
-522.55728399999975
 21
60.0
 31
0.0
  0
LINE
  5
77B
  8
SIZE
  6
CONTINUOUS
 62
    30
 10
-502.55728399999992
 20
146.0
 30
0.0
 11
-502.55728399999992
 21
72.0
 31
0.0
  0
LINE
  5
77C
  8
SIZE
  6
CONTINUOUS
 62
    30
 10
-502.55728399999992
 20
395.08270099999987
 30
0.0
 11
-502.55728399999992
 21
158.0
 31
0.0
  0
TEXT
  5
77D
  8
SIZE
  6
CONTINUOUS
 62
    30
 10
-527.55728399999975
 20
210.4484155714286
 30
0.0
 40
64.0
  1
âË98
 50
90.0
 41
0.9
 72
     1
 11
-527.55728399999975
 21
297.39698700000002
 31
0.0
  0
CIRCLE
  5
77E
  8
SIZE
  6
CONTINUOUS
 62
    30
 10
-502.55728399999992
 20
158.0
 30
0.0
 40
6.0
  0
LINE
  5
77F
  8
SIZE
  6
CONTINUOUS
 62
    30
 10
-502.55728399999992
 20
158.0
 30
0.0
 11
-502.55728399999992
 21
146.0
 31
0.0
  0
CIRCLE
  5
780
  8
SIZE
  6
CONTINUOUS
 62
    30
 10
-502.55728399999992
 20
60.0
 30
0.0
 40
6.0
  0
LINE
  5
781
  8
SIZE
  6
CONTINUOUS
 62
    30
 10
-502.55728399999992
 20
60.0
 30
0.0
 11
-502.55728399999992
 21
72.0
 31
0.0
  0
LINE
  5
782
  8
SIZE
  6
CONTINUOUS
 62
    30
 10
-253.869573
 20
161.5
 30
0.0
 11
-638.68045099999995
 21
161.5
 31
0.0
  0
LINE
  5
783
  8
SIZE
  6
CONTINUOUS
 62
    30
 10
-253.869573
 20
56.5
 30
0.0
 11
-638.68045099999995
 21
56.5
 31
0.0
  0
LINE
  5
784
  8
SIZE
  6
CONTINUOUS
 62
    30
 10
-618.68045099999995
 20
149.5
 30
0.0
 11
-618.68045099999995
 21
68.5
 31
0.0
  0
LINE
  5
785
  8
SIZE
  6
CONTINUOUS
 62
    30
 10
-618.68045099999995
 20
431.97723300000001
 30
0.0
 11
-618.68045099999995
 21
161.5
 31
0.0
  0
TEXT
  5
786
  8
SIZE
  6
CONTINUOUS
 62
    30
 10
-643.68045099999995
 20
203.4572334285713
 30
0.0
 40
64.0
  1
âË105
 50
90.0
 41
0.9
 72
     1
 11
-643.68045099999995
 21
312.34866199999982
 31
0.0
  0
CIRCLE
  5
787
  8
SIZE
  6
CONTINUOUS
 62
    30
 10
-618.68045099999995
 20
161.5
 30
0.0
 40
6.0
  0
LINE
  5
788
  8
SIZE
  6
CONTINUOUS
 62
    30
 10
-618.68045099999995
 20
161.5
 30
0.0
 11
-618.68045099999995
 21
149.5
 31
0.0
  0
CIRCLE
  5
789
  8
SIZE
  6
CONTINUOUS
 62
    30
 10
-618.68045099999995
 20
56.5
 30
0.0
 40
6.0
  0
LINE
  5
78A
  8
SIZE
  6
CONTINUOUS
 62
    30
 10
-618.68045099999995
 20
56.5
 30
0.0
 11
-618.68045099999995
 21
68.5
 31
0.0
  0
LINE
  5
78B
  8
SIZE
  6
CONTINUOUS
 62
    30
 10
-210.0
 20
0.0
 30
0.0
 11
-625.28729599999986
 21
0.0
 31
0.0
  0
LINE
  5
78C
  8
SIZE
  6
CONTINUOUS
 62
    30
 10
-174.11389500000001
 20
52.0
 30
0.0
 11
-625.28729599999986
 21
52.0
 31
0.0
  0
LINE
  5
78D
  8
SIZE
  6
CONTINUOUS
 62
    30
 10
-605.28729599999997
 20
-12.0
 30
0.0
 11
-605.28729599999997
 21
-24.0
 31
0.0
  0
LINE
  5
78E
  8
SIZE
  6
CONTINUOUS
 62
    30
 10
-605.28729599999997
 20
64.0
 30
0.0
 11
-605.28729599999997
 21
76.0
 31
0.0
  0
LINE
  5
78F
  8
SIZE
  6
CONTINUOUS
 62
    30
 10
-605.28729599999997
 20
-173.32639199999991
 30
0.0
 11
-605.28729599999997
 21
0.0
 31
0.0
  0
TEXT
  5
790
  8
SIZE
  6
CONTINUOUS
 62
    30
 10
-630.28729599999997
 20
-148.32639142857141
 30
0.0
 40
64.0
  1
52
 50
90.0
 41
0.9
 72
     1
 11
-630.28729599999997
 21
-101.69781999999999
 31
0.0
  0
LINE
  5
791
  8
SIZE
  6
CONTINUOUS
 62
    30
 10
-605.28729599999997
 20
0.0
 30
0.0
 11
-605.28729599999997
 21
52.0
 31
0.0
  0
LINE
  5
792
  8
SIZE
  6
CONTINUOUS
 62
    30
 10
-605.28729599999997
 20
0.0
 30
0.0
 11
-605.28729599999997
 21
52.0
 31
0.0
  0
CIRCLE
  5
793
  8
SIZE
  6
CONTINUOUS
 62
    30
 10
-605.28729599999997
 20
0.0
 30
0.0
 40
6.0
  0
LINE
  5
794
  8
SIZE
  6
CONTINUOUS
 62
    30
 10
-605.28729599999997
 20
0.0
 30
0.0
 11
-605.28729599999997
 21
-12.0
 31
0.0
  0
CIRCLE
  5
795
  8
SIZE
  6
CONTINUOUS
 62
    30
 10
-605.28729599999997
 20
52.0
 30
0.0
 40
6.0
  0
LINE
  5
796
  8
SIZE
  6
CONTINUOUS
 62
    30
 10
-605.28729599999997
 20
52.0
 30
0.0
 11
-605.28729599999997
 21
64.0
 31
0.0
  0
LINE
  5
797
  8
SIZE
  6
CONTINUOUS
 62
    30
 10
-100.0
 20
-40.0
 30
0.0
 11
-100.0
 21
-202.21057799999991
 31
0.0
  0
LINE
  5
798
  8
SIZE
  6
CONTINUOUS
 62
    30
 10
100.0
 20
-40.0
 30
0.0
 11
100.0
 21
-202.21057799999991
 31
0.0
  0
LINE
  5
799
  8
SIZE
  6
CONTINUOUS
 62
    30
 10
-88.0
 20
-182.210578
 30
0.0
 11
88.0
 21
-182.210578
 31
0.0
  0
CIRCLE
  5
79A
  8
SIZE
  6
CONTINUOUS
 62
    30
 10
-100.0
 20
-182.210578
 30
0.0
 40
6.0
  0
LINE
  5
79B
  8
SIZE
  6
CONTINUOUS
 62
    30
 10
-100.0
 20
-182.210578
 30
0.0
 11
-88.0
 21
-182.210578
 31
0.0
  0
CIRCLE
  5
79C
  8
SIZE
  6
CONTINUOUS
 62
    30
 10
100.0
 20
-182.210578
 30
0.0
 40
6.0
  0
LINE
  5
79D
  8
SIZE
  6
CONTINUOUS
 62
    30
 10
100.0
 20
-182.210578
 30
0.0
 11
88.0
 21
-182.210578
 31
0.0
  0
TEXT
  5
79E
  8
SIZE
  6
CONTINUOUS
 62
    30
 10
-74.05714285714285
 20
-157.210578
 30
0.0
 40
64.0
  1
200
 41
0.9
 72
     1
 11
0.0
 21
-157.210578
 31
0.0
  0
LINE
  5
79F
  8
SIZE
  6
CONTINUOUS
 62
    30
 10
-155.0
 20
-20.0
 30
0.0
 11
-155.0
 21
-331.30202500000001
 31
0.0
  0
LINE
  5
7A0
  8
SIZE
  6
CONTINUOUS
 62
    30
 10
155.0
 20
-20.0
 30
0.0
 11
155.0
 21
-331.30202500000001
 31
0.0
  0
LINE
  5
7A1
  8
SIZE
  6
CONTINUOUS
 62
    30
 10
-143.0
 20
-311.30202500000001
 30
0.0
 11
143.0
 21
-311.30202500000001
 31
0.0
  0
CIRCLE
  5
7A2
  8
SIZE
  6
CONTINUOUS
 62
    30
 10
-155.0
 20
-311.30202500000001
 30
0.0
 40
6.0
  0
LINE
  5
7A3
  8
SIZE
  6
CONTINUOUS
 62
    30
 10
-155.0
 20
-311.30202500000001
 30
0.0
 11
-143.0
 21
-311.30202500000001
 31
0.0
  0
CIRCLE
  5
7A4
  8
SIZE
  6
CONTINUOUS
 62
    30
 10
155.0
 20
-311.30202500000001
 30
0.0
 40
6.0
  0
LINE
  5
7A5
  8
SIZE
  6
CONTINUOUS
 62
    30
 10
155.0
 20
-311.30202500000001
 30
0.0
 11
143.0
 21
-311.30202500000001
 31
0.0
  0
TEXT
  5
7A6
  8
SIZE
  6
CONTINUOUS
 62
    30
 10
-105.0514285714285
 20
-286.30202500000001
 30
0.0
 40
64.0
  1
üá310
 41
0.9
 72
     1
 11
0.0
 21
-286.30202500000001
 31
0.0
  0
LINE
  5
7A7
  8
SIZE
  6
CONTINUOUS
 62
    30
 10
-165.0
 20
-40.0
 30
0.0
 11
-165.0
 21
-460.86475799999999
 31
0.0
  0
LINE
  5
7A8
  8
SIZE
  6
CONTINUOUS
 62
    30
 10
165.0
 20
-40.0
 30
0.0
 11
165.0
 21
-460.86475799999999
 31
0.0
  0
LINE
  5
7A9
  8
SIZE
  6
CONTINUOUS
 62
    30
 10
-153.0
 20
-440.86475799999999
 30
0.0
 11
153.0
 21
-440.86475799999999
 31
0.0
  0
CIRCLE
  5
7AA
  8
SIZE
  6
CONTINUOUS
 62
    30
 10
-165.0
 20
-440.86475799999999
 30
0.0
 40
6.0
  0
LINE
  5
7AB
  8
SIZE
  6
CONTINUOUS
 62
    30
 10
-165.0
 20
-440.86475799999999
 30
0.0
 11
-153.0
 21
-440.86475799999999
 31
0.0
  0
CIRCLE
  5
7AC
  8
SIZE
  6
CONTINUOUS
 62
    30
 10
165.0
 20
-440.86475799999999
 30
0.0
 40
6.0
  0
LINE
  5
7AD
  8
SIZE
  6
CONTINUOUS
 62
    30
 10
165.0
 20
-440.86475799999999
 30
0.0
 11
153.0
 21
-440.86475799999999
 31
0.0
  0
TEXT
  5
7AE
  8
SIZE
  6
CONTINUOUS
 62
    30
 10
-74.057142857142864
 20
-415.86475799999999
 30
0.0
 40
64.0
  1
330
 41
0.9
 72
     1
 11
0.0
 21
-415.86475799999999
 31
0.0
  0
LINE
  5
7AF
  8
SIZE
  6
CONTINUOUS
 62
    30
 10
253.0
 20
158.0
 30
0.0
 11
652.10086699999999
 21
158.0
 31
0.0
  0
LINE
  5
7B0
  8
SIZE
  6
CONTINUOUS
 62
    30
 10
253.0
 20
60.0
 30
0.0
 11
652.10086699999999
 21
60.0
 31
0.0
  0
LINE
  5
7B1
  8
SIZE
  6
CONTINUOUS
 62
    30
 10
632.10086699999999
 20
146.0
 30
0.0
 11
632.10086699999999
 21
72.0
 31
0.0
  0
LINE
  5
7B2
  8
SIZE
  6
CONTINUOUS
 62
    30
 10
632.10086699999999
 20
400.33968700000003
 30
0.0
 11
632.10086699999999
 21
158.0
 31
0.0
  0
TEXT
  5
7B3
  8
SIZE
  6
CONTINUOUS
 62
    30
 10
607.10086699999999
 20
215.7054015714285
 30
0.0
 40
64.0
  1
âË98
 50
90.0
 41
0.9
 72
     1
 11
607.10086699999999
 21
302.65397300000001
 31
0.0
  0
CIRCLE
  5
7B4
  8
SIZE
  6
CONTINUOUS
 62
    30
 10
632.10086699999999
 20
158.0
 30
0.0
 40
6.0
  0
LINE
  5
7B5
  8
SIZE
  6
CONTINUOUS
 62
    30
 10
632.10086699999999
 20
158.0
 30
0.0
 11
632.10086699999999
 21
146.0
 31
0.0
  0
CIRCLE
  5
7B6
  8
SIZE
  6
CONTINUOUS
 62
    30
 10
632.10086699999999
 20
60.0
 30
0.0
 40
6.0
  0
LINE
  5
7B7
  8
SIZE
  6
CONTINUOUS
 62
    30
 10
632.10086699999999
 20
60.0
 30
0.0
 11
632.10086699999999
 21
72.0
 31
0.0
  0
LINE
  5
7B8
  8
SIZE
  6
CONTINUOUS
 62
    30
 10
225.49999999999989
 20
56.5
 30
0.0
 11
768.89979800000003
 21
56.5
 31
0.0
  0
LINE
  5
7B9
  8
SIZE
  6
CONTINUOUS
 62
    30
 10
225.49999999999989
 20
161.5
 30
0.0
 11
768.89979800000003
 21
161.5
 31
0.0
  0
LINE
  5
7BA
  8
SIZE
  6
CONTINUOUS
 62
    30
 10
748.89979800000003
 20
68.5
 30
0.0
 11
748.89979800000003
 21
149.5
 31
0.0
  0
LINE
  5
7BB
  8
SIZE
  6
CONTINUOUS
 62
    30
 10
748.89979800000003
 20
432.59937400000001
 30
0.0
 11
748.89979800000003
 21
161.5
 31
0.0
  0
TEXT
  5
7BC
  8
SIZE
  6
CONTINUOUS
 62
    30
 10
723.89979800000003
 20
201.33651642857151
 30
0.0
 40
64.0
  1
âË105
 50
90.0
 41
0.9
 72
     1
 11
723.89979800000003
 21
310.22794500000009
 31
0.0
  0
CIRCLE
  5
7BD
  8
SIZE
  6
CONTINUOUS
 62
    30
 10
748.89979800000003
 20
56.5
 30
0.0
 40
6.0
  0
LINE
  5
7BE
  8
SIZE
  6
CONTINUOUS
 62
    30
 10
748.89979800000003
 20
56.5
 30
0.0
 11
748.89979800000003
 21
68.5
 31
0.0
  0
CIRCLE
  5
7BF
  8
SIZE
  6
CONTINUOUS
 62
    30
 10
748.89979800000003
 20
161.5
 30
0.0
 40
6.0
  0
LINE
  5
7C0
  8
SIZE
  6
CONTINUOUS
 62
    30
 10
748.89979800000003
 20
161.5
 30
0.0
 11
748.89979800000003
 21
149.5
 31
0.0
  0
LINE
  5
7C1
  8
SIZE
  6
CONTINUOUS
 62
    30
 10
210.0
 20
0.0
 30
0.0
 11
595.53700300000003
 21
0.0
 31
0.0
  0
LINE
  5
7C2
  8
SIZE
  6
CONTINUOUS
 62
    30
 10
292.00119199999978
 20
109.0
 30
0.0
 11
595.53700300000003
 21
109.0
 31
0.0
  0
LINE
  5
7C3
  8
SIZE
  6
CONTINUOUS
 62
    30
 10
575.53700300000003
 20
12.0
 30
0.0
 11
575.53700300000003
 21
97.0
 31
0.0
  0
LINE
  5
7C4
  8
SIZE
  6
CONTINUOUS
 62
    30
 10
575.53700300000003
 20
-207.85096100000001
 30
0.0
 11
575.53700300000003
 21
0.0
 31
0.0
  0
TEXT
  5
7C5
  8
SIZE
  6
CONTINUOUS
 62
    30
 10
550.53700300000003
 20
-182.8509609999999
 30
0.0
 40
64.0
  1
109
 50
90.0
 41
0.9
 72
     1
 11
550.53700300000003
 21
-115.650961
 31
0.0
  0
CIRCLE
  5
7C6
  8
SIZE
  6
CONTINUOUS
 62
    30
 10
575.53700300000003
 20
0.0
 30
0.0
 40
6.0
  0
LINE
  5
7C7
  8
SIZE
  6
CONTINUOUS
 62
    30
 10
575.53700300000003
 20
0.0
 30
0.0
 11
575.53700300000003
 21
12.0
 31
0.0
  0
CIRCLE
  5
7C8
  8
SIZE
  6
CONTINUOUS
 62
    30
 10
575.53700300000003
 20
109.0
 30
0.0
 40
6.0
  0
LINE
  5
7C9
  8
SIZE
  6
CONTINUOUS
 62
    30
 10
575.53700300000003
 20
109.0
 30
0.0
 11
575.53700300000003
 21
97.0
 31
0.0
  0
LINE
  5
7CA
  8
SIZE
  6
CONTINUOUS
 62
    30
 10
210.0
 20
0.0
 30
0.0
 11
470.08221500000002
 21
0.0
 31
0.0
  0
LINE
  5
7CB
  8
SIZE
  6
CONTINUOUS
 62
    30
 10
174.22580600000001
 20
40.0
 30
0.0
 11
470.08221500000002
 21
40.0
 31
0.0
  0
LINE
  5
7CC
  8
SIZE
  6
CONTINUOUS
 62
    30
 10
450.08221500000002
 20
-12.0
 30
0.0
 11
450.08221500000002
 21
-24.0
 31
0.0
  0
LINE
  5
7CD
  8
SIZE
  6
CONTINUOUS
 62
    30
 10
450.08221500000002
 20
52.0
 30
0.0
 11
450.08221500000002
 21
64.0
 31
0.0
  0
LINE
  5
7CE
  8
SIZE
  6
CONTINUOUS
 62
    30
 10
450.08221500000002
 20
-182.77223900000001
 30
0.0
 11
450.08221500000002
 21
0.0
 31
0.0
  0
TEXT
  5
7CF
  8
SIZE
  6
CONTINUOUS
 62
    30
 10
425.08221500000002
 20
-157.7722384285714
 30
0.0
 40
64.0
  1
40
 50
90.0
 41
0.9
 72
     1
 11
425.08221500000002
 21
-111.14366699999999
 31
0.0
  0
LINE
  5
7D0
  8
SIZE
  6
CONTINUOUS
 62
    30
 10
450.08221500000002
 20
0.0
 30
0.0
 11
450.08221500000002
 21
40.0
 31
0.0
  0
LINE
  5
7D1
  8
SIZE
  6
CONTINUOUS
 62
    30
 10
450.08221500000002
 20
0.0
 30
0.0
 11
450.08221500000002
 21
40.0
 31
0.0
  0
CIRCLE
  5
7D2
  8
SIZE
  6
CONTINUOUS
 62
    30
 10
450.08221500000002
 20
0.0
 30
0.0
 40
6.0
  0
LINE
  5
7D3
  8
SIZE
  6
CONTINUOUS
 62
    30
 10
450.08221500000002
 20
0.0
 30
0.0
 11
450.08221500000002
 21
-12.0
 31
0.0
  0
CIRCLE
  5
7D4
  8
SIZE
  6
CONTINUOUS
 62
    30
 10
450.08221500000002
 20
40.0
 30
0.0
 40
6.0
  0
LINE
  5
7D5
  8
SIZE
  6
CONTINUOUS
 62
    30
 10
450.08221500000002
 20
40.0
 30
0.0
 11
450.08221500000002
 21
52.0
 31
0.0
  0
LINE
  5
7D6
  8
SIZE
  6
CONTINUOUS
 62
    30
 10
-210.0
 20
0.0
 30
0.0
 11
-885.69325100000003
 21
0.0
 31
0.0
  0
LINE
  5
7D7
  8
SIZE
  6
CONTINUOUS
 62
    30
 10
-159.44537500000001
 20
193.0
 30
0.0
 11
-885.69325100000003
 21
193.0
 31
0.0
  0
LINE
  5
7D8
  8
SIZE
  6
CONTINUOUS
 62
    30
 10
-865.69325100000003
 20
12.0
 30
0.0
 11
-865.69325100000003
 21
181.0
 31
0.0
  0
CIRCLE
  5
7D9
  8
SIZE
  6
CONTINUOUS
 62
    30
 10
-865.69325100000003
 20
0.0
 30
0.0
 40
6.0
  0
LINE
  5
7DA
  8
SIZE
  6
CONTINUOUS
 62
    30
 10
-865.69325100000003
 20
0.0
 30
0.0
 11
-865.69325100000003
 21
12.0
 31
0.0
  0
CIRCLE
  5
7DB
  8
SIZE
  6
CONTINUOUS
 62
    30
 10
-865.69325100000003
 20
193.0
 30
0.0
 40
6.0
  0
LINE
  5
7DC
  8
SIZE
  6
CONTINUOUS
 62
    30
 10
-865.69325100000003
 20
193.0
 30
0.0
 11
-865.69325100000003
 21
181.0
 31
0.0
  0
TEXT
  5
7DD
  8
SIZE
  6
CONTINUOUS
 62
    30
 10
-890.69325100000003
 20
27.928571428571441
 30
0.0
 40
64.0
  1
193
 50
90.0
 41
0.9
 72
     1
 11
-890.69325100000003
 21
96.5
 31
0.0
  0
LINE
  5
7DE
  8
SIZE
  6
CONTINUOUS
 62
    30
 10
-210.0
 20
0.0
 30
0.0
 11
-764.81389499999989
 21
0.0
 31
0.0
  0
LINE
  5
7DF
  8
SIZE
  6
CONTINUOUS
 62
    30
 10
-210.49999999999989
 20
170.0
 30
0.0
 11
-764.81389499999989
 21
170.0
 31
0.0
  0
LINE
  5
7E0
  8
SIZE
  6
CONTINUOUS
 62
    30
 10
-744.813895
 20
-12.0
 30
0.0
 11
-744.813895
 21
-24.0
 31
0.0
  0
LINE
  5
7E1
  8
SIZE
  6
CONTINUOUS
 62
    30
 10
-744.813895
 20
182.0
 30
0.0
 11
-744.813895
 21
194.0
 31
0.0
  0
LINE
  5
7E2
  8
SIZE
  6
CONTINUOUS
 62
    30
 10
-744.813895
 20
0.0
 30
0.0
 11
-744.813895
 21
170.0
 31
0.0
  0
CIRCLE
  5
7E3
  8
SIZE
  6
CONTINUOUS
 62
    30
 10
-744.813895
 20
0.0
 30
0.0
 40
6.0
  0
LINE
  5
7E4
  8
SIZE
  6
CONTINUOUS
 62
    30
 10
-744.813895
 20
0.0
 30
0.0
 11
-744.813895
 21
-12.0
 31
0.0
  0
CIRCLE
  5
7E5
  8
SIZE
  6
CONTINUOUS
 62
    30
 10
-744.813895
 20
170.0
 30
0.0
 40
6.0
  0
LINE
  5
7E6
  8
SIZE
  6
CONTINUOUS
 62
    30
 10
-744.813895
 20
170.0
 30
0.0
 11
-744.813895
 21
182.0
 31
0.0
  0
TEXT
  5
7E7
  8
SIZE
  6
CONTINUOUS
 62
    30
 10
-769.813895
 20
16.428571428571431
 30
0.0
 40
64.0
  1
170
 50
90.0
 41
0.9
 72
     1
 11
-769.813895
 21
85.0
 31
0.0
  0
LINE
  5
7E8
  8
SIZE
  6
CONTINUOUS
 62
    30
 10
172.0
 20
155.0
 30
0.0
 11
890.97820399999989
 21
155.0
 31
0.0
  0
LINE
  5
7E9
  8
SIZE
  6
CONTINUOUS
 62
    30
 10
93.283682999999996
 20
169.0
 30
0.0
 11
890.97820399999989
 21
169.0
 31
0.0
  0
LINE
  5
7EA
  8
SIZE
  6
CONTINUOUS
 62
    30
 10
870.97820400000001
 20
143.0
 30
0.0
 11
870.97820400000001
 21
131.0
 31
0.0
  0
LINE
  5
7EB
  8
SIZE
  6
CONTINUOUS
 62
    30
 10
870.97820400000001
 20
181.0
 30
0.0
 11
870.97820400000001
 21
193.0
 31
0.0
  0
LINE
  5
7EC
  8
SIZE
  6
CONTINUOUS
 62
    30
 10
870.97820400000001
 20
343.65936199999999
 30
0.0
 11
870.97820400000001
 21
169.0
 31
0.0
  0
TEXT
  5
7ED
  8
SIZE
  6
CONTINUOUS
 62
    30
 10
845.97820400000001
 20
233.6307902857142
 30
0.0
 40
64.0
  1
14
 50
90.0
 41
0.9
 72
     1
 11
845.97820400000001
 21
276.14507600000002
 31
0.0
  0
LINE
  5
7EE
  8
SIZE
  6
CONTINUOUS
 62
    30
 10
870.97820400000001
 20
155.0
 30
0.0
 11
870.97820400000001
 21
169.0
 31
0.0
  0
LINE
  5
7EF
  8
SIZE
  6
CONTINUOUS
 62
    30
 10
870.97820400000001
 20
155.0
 30
0.0
 11
870.97820400000001
 21
169.0
 31
0.0
  0
CIRCLE
  5
7F0
  8
SIZE
  6
CONTINUOUS
 62
    30
 10
870.97820400000001
 20
155.0
 30
0.0
 40
6.0
  0
LINE
  5
7F1
  8
SIZE
  6
CONTINUOUS
 62
    30
 10
870.97820400000001
 20
155.0
 30
0.0
 11
870.97820400000001
 21
143.0
 31
0.0
  0
CIRCLE
  5
7F2
  8
SIZE
  6
CONTINUOUS
 62
    30
 10
870.97820400000001
 20
169.0
 30
0.0
 40
6.0
  0
LINE
  5
7F3
  8
SIZE
  6
CONTINUOUS
 62
    30
 10
870.97820400000001
 20
169.0
 30
0.0
 11
870.97820400000001
 21
181.0
 31
0.0
  0
LINE
  5
7F4
  8
SIZE
  6
CONTINUOUS
 62
    30
 10
210.0
 20
0.0
 30
0.0
 11
1017.235442999999
 21
0.0
 31
0.0
  0
LINE
  5
7F5
  8
SIZE
  6
CONTINUOUS
 62
    30
 10
33.0
 20
200.0
 30
0.0
 11
1017.235442999999
 21
200.0
 31
0.0
  0
LINE
  5
7F6
  8
SIZE
  6
CONTINUOUS
 62
    30
 10
997.23544300000015
 20
12.0
 30
0.0
 11
997.23544300000015
 21
188.0
 31
0.0
  0
CIRCLE
  5
7F7
  8
SIZE
  6
CONTINUOUS
 62
    30
 10
997.23544300000015
 20
0.0
 30
0.0
 40
6.0
  0
LINE
  5
7F8
  8
SIZE
  6
CONTINUOUS
 62
    30
 10
997.23544300000015
 20
0.0
 30
0.0
 11
997.23544300000015
 21
12.0
 31
0.0
  0
CIRCLE
  5
7F9
  8
SIZE
  6
CONTINUOUS
 62
    30
 10
997.23544300000015
 20
200.0
 30
0.0
 40
6.0
  0
LINE
  5
7FA
  8
SIZE
  6
CONTINUOUS
 62
    30
 10
997.23544300000015
 20
200.0
 30
0.0
 11
997.23544300000015
 21
188.0
 31
0.0
  0
TEXT
  5
7FB
  8
SIZE
  6
CONTINUOUS
 62
    30
 10
972.23544300000015
 20
25.94285714285715
 30
0.0
 40
64.0
  1
200
 50
90.0
 41
0.9
 72
     1
 11
972.23544300000015
 21
100.0
 31
0.0
  0
LINE
  5
7FC
  8
SIZE
  6
CONTINUOUS
 62
    30
 10
-188.0
 20
196.75933499999991
 30
0.0
 11
-188.0
 21
974.18363099999999
 31
0.0
  0
LINE
  5
7FD
  8
SIZE
  6
CONTINUOUS
 62
    30
 10
188.0
 20
196.75933499999991
 30
0.0
 11
188.0
 21
974.18363099999999
 31
0.0
  0
LINE
  5
7FE
  8
SIZE
  6
CONTINUOUS
 62
    30
 10
-176.0
 20
954.18363099999999
 30
0.0
 11
176.0
 21
954.18363099999999
 31
0.0
  0
CIRCLE
  5
7FF
  8
SIZE
  6
CONTINUOUS
 62
    30
 10
-188.0
 20
954.18363099999999
 30
0.0
 40
6.0
  0
LINE
  5
800
  8
SIZE
  6
CONTINUOUS
 62
    30
 10
-188.0
 20
954.18363099999999
 30
0.0
 11
-176.0
 21
954.18363099999999
 31
0.0
  0
CIRCLE
  5
801
  8
SIZE
  6
CONTINUOUS
 62
    30
 10
188.0
 20
954.18363099999999
 30
0.0
 40
6.0
  0
LINE
  5
802
  8
SIZE
  6
CONTINUOUS
 62
    30
 10
188.0
 20
954.18363099999999
 30
0.0
 11
176.0
 21
954.18363099999999
 31
0.0
  0
TEXT
  5
803
  8
SIZE
  6
CONTINUOUS
 62
    30
 10
-72.685714285714283
 20
979.18363099999999
 30
0.0
 40
64.0
  1
376
 41
0.9
 72
     1
 11
0.0
 21
979.18363099999999
 31
0.0
  0
LINE
  5
804
  8
SIZE
  6
CONTINUOUS
 62
    30
 10
0.0
 20
253.64072200000001
 30
0.0
 11
0.0
 21
308.157489
 31
0.0
  0
LINE
  5
805
  8
SIZE
  6
CONTINUOUS
 62
    30
 10
235.0
 20
176.0
 30
0.0
 11
235.0
 21
308.157489
 31
0.0
  0
LINE
  5
806
  8
SIZE
  6
CONTINUOUS
 62
    30
 10
12.0
 20
288.15748899999988
 30
0.0
 11
223.0
 21
288.15748899999988
 31
0.0
  0
LINE
  5
807
  8
SIZE
  6
CONTINUOUS
 62
    30
 10
447.54693799999978
 20
288.15748899999988
 30
0.0
 11
235.0
 21
288.15748899999988
 31
0.0
  0
TEXT
  5
808
  8
SIZE
  6
CONTINUOUS
 62
    30
 10
274.43265314285708
 20
313.15748899999988
 30
0.0
 40
64.0
  1
235
 41
0.9
 72
     1
 11
348.48979600000001
 21
313.15748899999988
 31
0.0
  0
CIRCLE
  5
809
  8
SIZE
  6
CONTINUOUS
 62
    30
 10
0.0
 20
288.15748899999988
 30
0.0
 40
6.0
  0
LINE
  5
80A
  8
SIZE
  6
CONTINUOUS
 62
    30
 10
0.0
 20
288.15748899999988
 30
0.0
 11
12.0
 21
288.15748899999988
 31
0.0
  0
CIRCLE
  5
80B
  8
SIZE
  6
CONTINUOUS
 62
    30
 10
235.0
 20
288.15748899999988
 30
0.0
 40
6.0
  0
LINE
  5
80C
  8
SIZE
  6
CONTINUOUS
 62
    30
 10
235.0
 20
288.15748899999988
 30
0.0
 11
223.0
 21
288.15748899999988
 31
0.0
  0
TEXT
  5
80D
  8
NOTE
  6
CONTINUOUS
 62
     4
 10
-71.681686999999997
 20
26.854099000000001
 30
0.0
 40
64.0
  1
RA2
 41
0.9
  0
TEXT
  5
80E
  8
NOTE
  6
CONTINUOUS
 62
     4
 10
-424.76111300000002
 20
77.799372000000005
 30
0.0
 40
64.0
  1
EA
 41
0.9
  0
TEXT
  5
80F
  8
NOTE
  6
CONTINUOUS
 62
     4
 10
313.00866300000001
 20
62.846718999999993
 30
0.0
 40
64.0
  1
RA1
 41
0.9
  0
LINE
  5
810
  8
NOTE
  6
CONTINUOUS
 62
     4
 10
-1447.683798999999
 20
457.32744800000012
 30
0.0
 11
-466.65954199999999
 21
457.32744800000012
 31
0.0
  0
TEXT
  5
811
  8
NOTE
  6
CONTINUOUS
 62
     4
 10
-1433.3964880000001
 20
496.34024999999991
 30
0.0
 40
64.0
  1
AH 4-âË15ü~22(2ô_Æ¦éÞ)
 41
0.9
  0
TEXT
  5
812
  8
NOTE
  6
CONTINUOUS
 62
     4
 10
-495.39056999999991
 20
-136.420447
 30
0.0
 40
64.0
  1
8-âË5
 41
0.9
  0
LINE
  5
813
  8
NOTE
  6
CONTINUOUS
 62
     4
 10
-492.58401400000002
 20
-161.32306
 30
0.0
 11
-243.617627
 21
-161.32306
 31
0.0
  0
LINE
  5
814
  8
NOTE
  6
CONTINUOUS
 62
     4
 10
-165.0
 20
0.0
 30
0.0
 11
-243.617627
 21
-161.32306
 31
0.0
  0
LINE
  5
815
  8
NOTE
  6
CONTINUOUS
 62
     4
 10
-191.483905424466
 20
-29.97670351355637
 30
0.0
 11
-165.0
 21
0.0
 31
0.0
  0
LINE
  5
816
  8
NOTE
  6
CONTINUOUS
 62
     4
 10
-165.0
 20
0.0
 30
0.0
 11
-172.94738273517211
 21
-39.202539557182
 31
0.0
  0
LINE
  5
817
  8
NOTE
  6
CONTINUOUS
 62
     4
 39
50.0
 10
-170.57749000000001
 20
170.0
 30
0.0
 11
-466.65954199999999
 21
457.32744800000012
 31
0.0
  0
LINE
  5
818
  8
NOTE
  6
CONTINUOUS
 62
     4
 10
-205.5612331663074
 20
189.39427013696471
 30
0.0
 11
-170.57749000000001
 21
170.0
 31
0.0
  0
LINE
  5
819
  8
NOTE
  6
CONTINUOUS
 62
     4
 10
-170.57749000000001
 20
170.0
 30
0.0
 11
-191.177164885727
 21
204.28780241826649
 31
0.0
  0
LINE
  5
81A
  8
DETAIL
  6
CONTINUOUS
 62
     5
 10
-51.523755999999999
 20
0.0
 30
0.0
 11
-53.99447399999999
 21
155.65527
 31
0.0
  0
LINE
  5
81B
  8
DETAIL
  6
CONTINUOUS
 62
     5
 10
51.523755999999999
 20
0.0
 30
0.0
 11
53.99447399999999
 21
155.65527
 31
0.0
  0
ARC
  5
81C
  8
DETAIL
  6
CONTINUOUS
 62
     5
 10
-47.24848699999999
 20
44.999499999999998
 30
0.0
 40
4.9995000000000003
 50
180.90938
 51
270.0
  0
ARC
  5
81D
  8
DETAIL
  6
CONTINUOUS
 62
     5
 10
-47.503025999999998
 20
59.728779000000003
 30
0.0
 40
4.9995000000000003
 50
180.90938
 51
270.0
  0
ARC
  5
81E
  8
DETAIL
  6
CONTINUOUS
 62
     5
 10
47.24848699999999
 20
44.999499999999998
 30
0.0
 40
4.9995000000000003
 50
270.0
 51
359.09062
  0
LINE
  5
81F
  8
DETAIL
  6
CONTINUOUS
 62
     5
 10
47.503025999999998
 20
54.729278999999998
 30
0.0
 11
-47.503025999999998
 21
54.729278999999998
 31
0.0
  0
LINE
  5
820
  8
DETAIL
  6
CONTINUOUS
 62
     5
 10
-47.24848699999999
 20
40.0
 30
0.0
 11
47.24848699999999
 21
40.0
 31
0.0
  0
LINE
  5
821
  8
DETAIL
  6
CONTINUOUS
 62
     5
 10
53.99447399999999
 20
155.65527
 30
0.0
 11
53.99447399999999
 21
156.90821500000001
 31
0.0
  0
ARC
  5
822
  8
DETAIL
  6
CONTINUOUS
 62
     5
 10
52.994574
 20
156.90821500000001
 30
0.0
 40
0.9999
 50
0.0
 51
90.0
  0
LINE
  5
823
  8
DETAIL
  6
CONTINUOUS
 62
     5
 10
52.994574
 20
157.90811500000001
 30
0.0
 11
21.371058999999988
 21
157.90811500000001
 31
0.0
  0
LINE
  5
824
  8
DETAIL
  6
CONTINUOUS
 62
     5
 10
-52.994574
 20
157.90811500000001
 30
0.0
 11
-21.371058999999988
 21
157.90811500000001
 31
0.0
  0
ARC
  5
825
  8
DETAIL
  6
CONTINUOUS
 62
     5
 10
-52.994574
 20
156.90821500000001
 30
0.0
 40
0.9999
 50
90.0
 51
180.0
  0
LINE
  5
826
  8
DETAIL
  6
CONTINUOUS
 62
     5
 10
-53.99447399999999
 20
155.65527
 30
0.0
 11
-53.99447399999999
 21
156.90821500000001
 31
0.0
  0
ARC
  5
827
  8
DETAIL
  6
CONTINUOUS
 62
     5
 10
47.503025999999998
 20
59.728779000000003
 30
0.0
 40
4.9995000000000003
 50
270.0
 51
359.09062
  0
LINE
  5
828
  8
DETAIL
  6
CONTINUOUS
 62
     5
 10
149.55979600000001
 20
169.62075400000001
 30
0.0
 11
109.5658889999999
 21
168.9226569999999
 31
0.0
  0
LINE
  5
829
  8
DETAIL
  6
CONTINUOUS
 62
     5
 10
149.446742
 20
176.09761800000001
 30
0.0
 11
109.452834
 21
175.39952199999999
 31
0.0
  0
LINE
  5
82A
  8
DETAIL
  6
CONTINUOUS
 62
     5
 10
149.57853600000001
 20
168.54715899999979
 30
0.0
 11
149.446742
 21
176.09761800000001
 31
0.0
  0
LINE
  5
82B
  8
DETAIL
  6
CONTINUOUS
 62
     5
 10
152.10460800000001
 20
169.70048
 30
0.0
 11
152.10460800000001
 21
168.591252
 31
0.0
  0
LINE
  5
82C
  8
DETAIL
  6
CONTINUOUS
 62
     5
 10
152.10460800000001
 20
168.591252
 30
0.0
 11
149.57853600000001
 21
168.54715899999979
 31
0.0
  0
LINE
  5
82D
  8
DETAIL
  6
CONTINUOUS
 62
     5
 10
152.10460800000001
 20
169.70048
 30
0.0
 11
152.10460800000001
 21
168.591252
 31
0.0
  0
LINE
  5
82E
  8
DETAIL
  6
CONTINUOUS
 62
     5
 10
-158.53611100000001
 20
166.5
 30
0.0
 11
-158.5223159999999
 21
167.62935100000001
 31
0.0
  0
LINE
  5
82F
  8
NOTE
  6
DASHED2
 62
     4
 10
-133.0
 20
189.24192099999991
 30
0.0
 11
-133.0
 21
149.24192099999991
 31
0.0
  0
LINE
  5
830
  8
NOTE
  6
DASHED2
 62
     4
 10
-113.0
 20
169.24192099999991
 30
0.0
 11
-153.0
 21
169.24192099999991
 31
0.0
  0
LINE
  5
831
  8
DETAIL
  6
CONTINUOUS
 62
     5
 10
18.861070000000002
 20
157.995
 30
0.0
 11
26.0
 21
157.995
 31
0.0
  0
TEXT
  5
832
  8
ETC
  6
CONTINUOUS
 62
    61
 10
675.43577361464452
 20
753.15863764481094
 30
0.0
 40
50.0
  1
VD-18ZFLC7-CS
 41
0.9
  0
TEXT
  5
833
  8
ETC
  6
CONTINUOUS
 62
    61
 10
550.3426004991411
 20
947.1581193458403
 30
0.0
 40
64.0
  1
VD-18ZFLC7-CS_4
 41
0.9
  0
TEXT
  5
834
  8
ETC
  6
CONTINUOUS
 62
    61
 10
542.4268934991411
 20
844.97881034584066
 30
0.0
 40
64.0
  1
èÀïCÉ¯
 41
0.9
  0
LINE
  5
835
  8
DETAIL
  6
CONTINUOUS
 62
     5
 39
50.0
 10
210.0
 20
60.0
 30
0.0
 11
205.5
 21
56.5
 31
0.0
  0
LINE
  5
836
  8
DETAIL
  6
CONTINUOUS
 62
     5
 39
50.0
 10
210.0
 20
158.0
 30
0.0
 11
205.5
 21
161.5
 31
0.0
  0
LINE
  5
837
  8
DETAIL
  6
CONTINUOUS
 62
     5
 39
50.0
 10
205.5
 20
56.5
 30
0.0
 11
174.99982648183391
 21
56.487864814501442
 31
0.0
  0
LINE
  5
838
  8
DETAIL
  6
CONTINUOUS
 62
     5
 39
50.0
 10
205.5
 20
161.5
 30
0.0
 11
183.65260973832571
 21
161.5
 31
0.0
  0
LINE
  5
839
  8
DETAIL
  6
CONTINUOUS
 62
     5
 39
50.0
 10
-235.005324
 20
158.0
 30
0.0
 11
-228.869573
 21
161.5
 31
0.0
  0
LINE
  5
83A
  8
DETAIL
  6
CONTINUOUS
 62
     5
 39
50.0
 10
-235.0
 20
60.0
 30
0.0
 11
-228.869573
 21
56.506247999999999
 31
0.0
  0
LINE
  5
83B
  8
DETAIL
  6
CONTINUOUS
 62
     5
 39
50.0
 10
-228.869573
 20
161.5
 30
0.0
 11
-212.0
 21
161.5
 31
0.0
  0
LINE
  5
83C
  8
DETAIL
  6
CONTINUOUS
 62
     5
 39
50.0
 10
-228.869573
 20
56.5
 30
0.0
 11
-195.005324
 21
56.5
 31
0.0
  0
CIRCLE
  5
83D
  8
SIZE
  6
CONTINUOUS
 62
    30
 39
50.0
 10
-235.0
 20
492.07635199999987
 30
0.0
 40
6.0
  0
CIRCLE
  5
83E
  8
SIZE
  6
CONTINUOUS
 62
    30
 39
50.0
 10
-278.0
 20
718.18042100000002
 30
0.0
 40
6.0
  0
CIRCLE
  5
83F
  8
SIZE
  6
CONTINUOUS
 62
    30
 39
50.0
 10
-195.0
 20
600.68393800000001
 30
0.0
 40
6.0
  0
LINE
  5
840
  8
OUTLINE
  6
CONTINUOUS
 62
     3
 10
152.0
 20
155.0
 30
0.0
 11
155.0
 21
0.0
 31
0.0
  0
LINE
  5
841
  8
BASIS
  6
DASHDOT
 62
     6
 10
0.0
 20
-57.928465000000003
 30
0.0
 11
0.0
 21
233.64072200000001
 31
0.0
  0
LINE
  5
842
  8
OUTLINE
  6
CONTINUOUS
 62
     3
 10
-155.0
 20
0.0
 30
0.0
 11
-152.3428569999999
 21
155.0
 31
0.0
  0
LINE
  5
843
  8
OUTLINE
  6
CONTINUOUS
 62
     3
 10
-190.0
 20
0.0
 30
0.0
 11
190.0
 21
0.0
 31
0.0
  0
LINE
  5
844
  8
BASIS
  6
DASHDOT
 62
     6
 10
-309.93660199999999
 20
109.0
 30
0.0
 11
272.001192
 21
109.0
 31
0.0
  0
LINE
  5
845
  8
OUTLINE
  6
CONTINUOUS
 62
     3
 10
-152.3428569999999
 20
155.0
 30
0.0
 11
152.0
 21
155.0
 31
0.0
  0
LINE
  5
846
  8
BASIS
  6
DASHDOT
 62
     6
 10
13.0
 20
214.99130400000001
 30
0.0
 11
13.0
 21
163.61123699999999
 31
0.0
  0
ENDSEC
  0
EOF
