  0
SECTION
  2
HEADER
  9
$ACADVER
  1
AC1009
  9
$INSBASE
 10
0.0
 20
0.0
 30
0.0
  9
$EXTMIN
 10
-959.5443439999998
 20
-760.99384599999985
 30
0.0
  9
$EXTMAX
 10
1652.1268245714291
 20
1393.447763284883
 30
0.0
  9
$LIMMIN
 10
-2970.0
 20
-2100.0
  9
$LIMMAX
 10
2970.0
 20
2100.0
  9
$ORTHOMODE
 70
     1
  9
$REGENMODE
 70
     0
  9
$FILLMODE
 70
     1
  9
$QTEXTMODE
 70
     0
  9
$MIRRTEXT
 70
     0
  9
$DRAGMODE
 70
     2
  9
$LTSCALE
 40
20.0
  9
$OSMODE
 70
    39
  9
$ATTMODE
 70
     1
  9
$TEXTSIZE
 40
64.0
  9
$TRACEWID
 40
0.05
  9
$TEXTSTYLE
  7
STANDARD
  9
$CLAYER
  8
SIZE
  9
$CELTYPE
  6
CONTINUOUS
  9
$CECOLOR
 62
    30
  9
$DIMSCALE
 40
1.0
  9
$DIMASZ
 40
12.0
  9
$DIMEXO
 40
20.0
  9
$DIMDLI
 40
200.0
  9
$DIMRND
 40
0.0
  9
$DIMDLE
 40
0.0
  9
$DIMEXE
 40
30.0
  9
$DIMTP
 40
0.0
  9
$DIMTM
 40
0.0
  9
$DIMTXT
 40
64.0
  9
$DIMCEN
 40
0.09
  9
$DIMTSZ
 40
0.0
  9
$DIMTOL
 70
     0
  9
$DIMLIM
 70
     0
  9
$DIMTIH
 70
     0
  9
$DIMTOH
 70
     0
  9
$DIMSE1
 70
     0
  9
$DIMSE2
 70
     0
  9
$DIMTAD
 70
     1
  9
$DIMZIN
 70
     8
  9
$DIMBLK
  1
ORIGIN
  9
$DIMASO
 70
     1
  9
$DIMSHO
 70
     0
  9
$DIMPOST
  1

  9
$DIMAPOST
  1

  9
$DIMALT
 70
     0
  9
$DIMALTD
 70
     2
  9
$DIMALTF
 40
25.399999999999999
  9
$DIMLFAC
 40
1.0
  9
$DIMTOFL
 70
     1
  9
$DIMTVP
 40
0.0
  9
$DIMTIX
 70
     0
  9
$DIMSOXD
 70
     0
  9
$DIMSAH
 70
     0
  9
$DIMBLK1
  1

  9
$DIMBLK2
  1

  9
$DIMSTYLE
  2
STANDARD
  9
$DIMCLRD
 70
     0
  9
$DIMCLRE
 70
     0
  9
$DIMCLRT
 70
     0
  9
$DIMTFAC
 40
1.0
  9
$DIMGAP
 40
20.0
  9
$LUNITS
 70
     2
  9
$LUPREC
 70
     4
  9
$SKETCHINC
 40
0.1
  9
$FILLETRAD
 40
5.0
  9
$AUNITS
 70
     1
  9
$AUPREC
 70
     3
  9
$MENU
  1
ACAD
  9
$ELEVATION
 40
0.0
  9
$PELEVATION
 40
0.0
  9
$THICKNESS
 40
0.0
  9
$LIMCHECK
 70
     0
  9
$BLIPMODE
 70
     0
  9
$CHAMFERA
 40
0.0
  9
$CHAMFERB
 40
0.0
  9
$SKPOLY
 70
     0
  9
$TDCREATE
 40
2451372.6968171299
  9
$TDUPDATE
 40
2454150.398877488
  9
$TDINDWG
 40
0.091171169
  9
$TDUSRTIMER
 40
0.0911708102
  9
$USRTIMER
 70
     1
  9
$ANGBASE
 50
0.0
  9
$ANGDIR
 70
     0
  9
$PDMODE
 70
     3
  9
$PDSIZE
 40
-2.0
  9
$PLINEWID
 40
0.0
  9
$COORDS
 70
     1
  9
$SPLFRAME
 70
     0
  9
$SPLINETYPE
 70
     6
  9
$SPLINESEGS
 70
     8
  9
$ATTDIA
 70
     0
  9
$ATTREQ
 70
     1
  9
$HANDLING
 70
 22529
  9
$HANDSEED
  5
809
  9
$SURFTAB1
 70
     6
  9
$SURFTAB2
 70
     6
  9
$SURFTYPE
 70
     6
  9
$SURFU
 70
     6
  9
$SURFV
 70
     6
  9
$UCSNAME
  2

  9
$UCSORG
 10
0.0
 20
0.0
 30
0.0
  9
$UCSXDIR
 10
1.0
 20
0.0
 30
0.0
  9
$UCSYDIR
 10
0.0
 20
1.0
 30
0.0
  9
$PUCSNAME
  2

  9
$PUCSORG
 10
0.0
 20
0.0
 30
0.0
  9
$PUCSXDIR
 10
1.0
 20
0.0
 30
0.0
  9
$PUCSYDIR
 10
0.0
 20
1.0
 30
0.0
  9
$USERI1
 70
     0
  9
$USERI2
 70
     0
  9
$USERI3
 70
     0
  9
$USERI4
 70
     0
  9
$USERI5
 70
     0
  9
$USERR1
 40
20.0
  9
$USERR2
 40
0.0
  9
$USERR3
 40
0.0
  9
$USERR4
 40
0.0
  9
$USERR5
 40
0.0
  9
$WORLDVIEW
 70
     1
  9
$SHADEDGE
 70
     3
  9
$SHADEDIF
 70
    70
  9
$TILEMODE
 70
     1
  9
$MAXACTVP
 70
    48
  9
$PLIMCHECK
 70
     0
  9
$PEXTMIN
 10
1.0000000000000000E+020
 20
1.0000000000000000E+020
 30
1.0000000000000000E+020
  9
$PEXTMAX
 10
-1.0000000000000000E+020
 20
-1.0000000000000000E+020
 30
-1.0000000000000000E+020
  9
$PLIMMIN
 10
0.0
 20
0.0
  9
$PLIMMAX
 10
12.0
 20
9.0
  9
$UNITMODE
 70
     0
  9
$VISRETAIN
 70
     1
  9
$PLINEGEN
 70
     0
  9
$PSLTSCALE
 70
     1
  0
ENDSEC
  0
SECTION
  2
TABLES
  0
TABLE
  2
VPORT
 70
     3
  0
VPORT
  2
*ACTIVE
 70
     0
 10
0.0
 20
0.0
 11
1.0
 21
1.0
 12
311.31155296429432
 22
314.6350639449069
 13
0.0
 23
0.0
 14
50.0
 24
50.0
 15
400.0
 25
400.0
 16
0.0
 26
0.0
 36
1.0
 17
0.0
 27
0.0
 37
0.0
 40
2251.9448290582459
 41
1.710526315789473
 42
50.0
 43
0.0
 44
0.0
 50
0.0
 51
0.0
 71
     0
 72
   500
 73
     1
 74
     0
 75
     0
 76
     0
 77
     0
 78
     2
  0
ENDTAB
  0
TABLE
  2
LTYPE
 70
     7
  0
LTYPE
  2
CONTINUOUS
 70
     0
  3
実線
 72
    65
 73
     0
 40
0.0
  0
LTYPE
  2
DASHDOT
 70
     0
  3
____ _ ____ _ ____ _ ____ _ ____ _ ____ _ ____
 72
    65
 73
     4
 40
5.5
 49
4.0
 49
-0.6
 49
0.3
 49
-0.6
  0
LTYPE
  2
DASHED
 70
     0
  3
_ _ _ _ _ _ _ _ _ _ _ _ _ _ _ _ _ _ _ _ _ _ _
 72
    65
 73
     2
 40
2.0
 49
1.1999999999999991
 49
-0.8
  0
LTYPE
  2
DOT
 70
     0
  3
...............................................
 72
    65
 73
     2
 40
0.8
 49
0.5
 49
-0.3
  0
LTYPE
  2
DASHDOT1
 70
     0
  3
____ _ ____ _ ____ _ ____ _ ____ _ ____ _ ____
 72
    65
 73
     4
 40
2.0
 49
1.5
 49
-0.2
 49
0.1
 49
-0.2
  0
LTYPE
  2
DIVIDE
 70
     0
  3
_____ _ _ _____ _ _ _____ _ _ _____ _ _ ____
 72
    65
 73
     6
 40
6.4000000000000004
 49
4.0
 49
-0.6
 49
0.3
 49
-0.6
 49
0.3
 49
-0.6
  0
LTYPE
  2
DIVIDE1
 70
     0
  3
_____ _ _ _____ _ _ _____ _ _ _____ _ _ ____
 72
    65
 73
     6
 40
3.2000000000000002
 49
2.0
 49
-0.3
 49
0.15
 49
-0.3
 49
0.15
 49
-0.3
  0
ENDTAB
  0
TABLE
  2
LAYER
 70
    12
  0
LAYER
  2
0
 70
     0
 62
     7
  6
CONTINUOUS
  0
LAYER
  2
SIZE
 70
     0
 62
    30
  6
CONTINUOUS
  0
LAYER
  2
OUTLINE
 70
     0
 62
     3
  6
CONTINUOUS
  0
LAYER
  2
DETAIL
 70
     0
 62
     5
  6
CONTINUOUS
  0
LAYER
  2
BASIS
 70
     0
 62
     6
  6
DASHDOT
  0
LAYER
  2
NOTE
 70
     0
 62
     4
  6
CONTINUOUS
  0
LAYER
  2
DEFPOINTS
 70
     0
 62
     7
  6
CONTINUOUS
  0
LAYER
  2
FIX
 70
     0
 62
    11
  6
CONTINUOUS
  0
LAYER
  2
ARRANGE
 70
     0
 62
     1
  6
CONTINUOUS
  0
LAYER
  2
ETC
 70
     0
 62
    61
  6
CONTINUOUS
  0
LAYER
  2
SERVICESPACE
 70
     0
 62
     2
  6
DASHDOT
  0
LAYER
  2
SYMBOLLINE
 70
     0
 62
    15
  6
CONTINUOUS
  0
ENDTAB
  0
TABLE
  2
STYLE
 70
     1
  0
STYLE
  2
STANDARD
 70
     0
 40
0.0
 41
0.9
 50
0.0
 71
     0
 42
64.0
  3
SIMPLEX
  4
BIGFONT
  0
ENDTAB
  0
TABLE
  2
VIEW
 70
     1
  0
VIEW
  2
ALL
 70
     0
 40
4282.6198079999967
 10
0.0
 20
41.309903999999989
 41
5940.0
 11
0.0
 21
0.0
 31
1.0
 12
0.0
 22
0.0
 32
0.0
 42
50.0
 43
0.0
 44
0.0
 50
0.0
 71
     0
  0
ENDTAB
  0
TABLE
  2
UCS
 70
     0
  0
ENDTAB
  0
TABLE
  2
APPID
 70
     1
  0
APPID
  2
ACAD
 70
     0
  0
ENDTAB
  0
TABLE
  2
DIMSTYLE
 70
     1
  0
DIMSTYLE
  2
STANDARD
 70
     0
  3

  4

  5

  6

  7

 40
1.0
 41
0.18
 42
0.0625
 43
0.38
 44
0.18
 45
0.0
 46
0.0
 47
0.0
 48
0.0
140
0.18
141
0.09
142
0.0
143
25.399999999999999
144
1.0
145
0.0
146
1.0
147
0.09
 71
     0
 72
     0
 73
     1
 74
     1
 75
     0
 76
     0
 77
     0
 78
     0
170
     0
171
     2
172
     0
173
     0
174
     0
175
     0
176
     0
177
     0
178
     0
  0
ENDTAB
  0
ENDSEC
  0
SECTION
  2
BLOCKS
  0
BLOCK
  8
0
  2
$MODEL_SPACE
 70
     0
 10
0.0
 20
0.0
 30
0.0
  3
$MODEL_SPACE
  1

  0
ENDBLK
  5
5C7
  8
0
  0
BLOCK
 67
     1
  8
0
  2
$PAPER_SPACE
 70
     0
 10
0.0
 20
0.0
 30
0.0
  3
$PAPER_SPACE
  1

  0
ENDBLK
  5
5C3
 67
     1
  8
0
  0
BLOCK
  8
0
 62
     4
  2
_SMALL
 70
     0
 10
0.0
 20
0.0
 30
0.0
  3
_SMALL
  1

  0
CIRCLE
  5
5E7
  8
0
  6
BYBLOCK
 62
     0
 10
0.0
 20
0.0
 30
0.0
 40
0.25
  0
ENDBLK
  5
5E8
  8
0
 62
     4
  0
BLOCK
  8
0
 62
     4
  2
_OPEN30
 70
     0
 10
0.0
 20
0.0
 30
0.0
  3
_OPEN30
  1

  0
LINE
  5
5EB
  8
0
  6
BYBLOCK
 62
     0
 10
-1.0
 20
0.26794919
 30
0.0
 11
0.0
 21
0.0
 31
0.0
  0
LINE
  5
5EC
  8
0
  6
BYBLOCK
 62
     0
 10
0.0
 20
0.0
 30
0.0
 11
-1.0
 21
-0.26794919
 31
0.0
  0
LINE
  5
5ED
  8
0
  6
BYBLOCK
 62
     0
 10
0.0
 20
0.0
 30
0.0
 11
-1.0
 21
0.0
 31
0.0
  0
ENDBLK
  5
5EE
  8
0
 62
     4
  0
BLOCK
  8
0
 62
    30
  2
*D4
 70
     1
 10
0.0
 20
0.0
 30
0.0
  3
*D4
  1

  0
LINE
  5
5F1
  8
SIZE
  6
CONTINUOUS
 62
     0
 10
-115.0
 20
115.054428
 30
0.0
 11
-115.0
 21
-183.2909322914129
 31
0.0
  0
LINE
  5
5F2
  8
SIZE
  6
CONTINUOUS
 62
     0
 10
-0.0000000000000012
 20
-78.610778000000025
 30
0.0
 11
-0.0000000000000076
 21
-183.2909322914129
 31
0.0
  0
LINE
  5
5F3
  8
SIZE
  6
CONTINUOUS
 62
     0
 10
-0.0000000000000058
 20
-153.2909322914129
 30
0.0
 11
-115.0
 21
-153.2909322914129
 31
0.0
  0
LINE
  5
5F4
  8
SIZE
  6
CONTINUOUS
 62
     0
 10
-115.0
 20
-153.2909322914129
 30
0.0
 11
-381.51322798596209
 21
-153.2909322914129
 31
0.0
  0
INSERT
  5
5F5
  8
SIZE
  6
CONTINUOUS
 62
     0
  2
_SMALL
 10
-0.0000000000000058
 20
-153.2909322914129
 30
0.0
 41
40.0
 42
40.0
 43
40.0
  0
INSERT
  5
5F6
  8
SIZE
  6
CONTINUOUS
 62
     0
  2
_SMALL
 10
-115.0
 20
-153.2909322914129
 30
0.0
 41
40.0
 42
40.0
 43
40.0
 50
180.0
  0
TEXT
  5
5F7
  8
SIZE
  6
CONTINUOUS
 62
     0
 10
-361.51322798596192
 20
-133.2909322914129
 30
0.0
 40
64.0
  1
115
 41
0.9
  0
POINT
  5
5F8
  8
DEFPOINTS
  6
CONTINUOUS
 62
     0
 10
-115.0
 20
135.054428
 30
0.0
  0
POINT
  5
5F9
  8
DEFPOINTS
  6
CONTINUOUS
 62
     0
 10
0.0
 20
-58.610778000000003
 30
0.0
  0
POINT
  5
5FA
  8
DEFPOINTS
  6
CONTINUOUS
 62
     0
 10
-0.0000000000000058
 20
-153.2909322914129
 30
0.0
  0
ENDBLK
  5
5FB
  8
0
 62
    30
  0
BLOCK
  8
0
 62
    30
  2
*D5
 70
     1
 10
0.0
 20
0.0
 30
0.0
  3
*D5
  1

  0
LINE
  5
5FE
  8
SIZE
  6
CONTINUOUS
 62
     0
 10
-64.0
 20
210.4544139999999
 30
0.0
 11
-63.999999999999979
 21
590.32319523818467
 31
0.0
  0
LINE
  5
5FF
  8
SIZE
  6
CONTINUOUS
 62
     0
 10
18.0
 20
210.4544139999999
 30
0.0
 11
18.000000000000011
 21
590.32319523818467
 31
0.0
  0
LINE
  5
600
  8
SIZE
  6
CONTINUOUS
 62
     0
 10
18.000000000000011
 20
560.32319523818478
 30
0.0
 11
-63.999999999999979
 21
560.32319523818478
 31
0.0
  0
LINE
  5
601
  8
SIZE
  6
CONTINUOUS
 62
     0
 10
-63.999999999999979
 20
560.32319523818478
 30
0.0
 11
-419.23802784227058
 21
560.32319523818478
 31
0.0
  0
INSERT
  5
602
  8
SIZE
  6
CONTINUOUS
 62
     0
  2
_SMALL
 10
18.000000000000011
 20
560.32319523818478
 30
0.0
 41
40.0
 42
40.0
 43
40.0
  0
INSERT
  5
603
  8
SIZE
  6
CONTINUOUS
 62
     0
  2
_SMALL
 10
-63.999999999999979
 20
560.32319523818478
 30
0.0
 41
40.0
 42
40.0
 43
40.0
 50
180.0
  0
INSERT
  5
605
  8
SIZE
  6
CONTINUOUS
 62
    30
  2
*U6
 10
0.0
 20
0.0
 30
0.0
  0
POINT
  5
606
  8
DEFPOINTS
  6
CONTINUOUS
 62
     0
 10
-64.0
 20
190.4544139999999
 30
0.0
  0
POINT
  5
607
  8
DEFPOINTS
  6
CONTINUOUS
 62
     0
 10
18.0
 20
190.4544139999999
 30
0.0
  0
POINT
  5
608
  8
DEFPOINTS
  6
CONTINUOUS
 62
     0
 10
18.000000000000011
 20
560.32319523818478
 30
0.0
  0
ENDBLK
  5
609
  8
0
 62
    30
  0
BLOCK
  8
0
 62
    30
  2
*U6
 70
     1
 10
0.0
 20
0.0
 30
0.0
  3
*U6
  1

  0
TEXT
  5
60B
  8
SIZE
  6
CONTINUOUS
 62
     0
 10
-399.23802784227058
 20
580.32319523818478
 30
0.0
 40
64.0
  1
\U+2205
 41
0.9
  0
TEXT
  5
60C
  8
SIZE
  6
CONTINUOUS
 62
     0
 10
-347.12374212798483
 20
580.32319523818478
 30
0.0
 40
64.0
  1
82
 41
0.9
  0
ENDBLK
  5
60D
  8
0
 62
    30
  0
BLOCK
  8
0
 62
     4
  2
_ORIGIN
 70
     0
 10
0.0
 20
0.0
 30
0.0
  3
_ORIGIN
  1

  0
CIRCLE
  5
610
  8
0
  6
BYBLOCK
 62
     0
 10
0.0
 20
0.0
 30
0.0
 40
0.5
  0
LINE
  5
611
  8
0
  6
BYBLOCK
 62
     0
 10
0.0
 20
0.0
 30
0.0
 11
-1.0
 21
0.0
 31
0.0
  0
ENDBLK
  5
612
  8
0
 62
     4
  0
BLOCK
  8
0
 62
     4
  2
_NONE
 70
     0
 10
0.0
 20
0.0
 30
0.0
  3
_NONE
  1

  0
ENDBLK
  5
615
  8
0
 62
     4
  0
BLOCK
  8
0
 62
    30
  2
*D9
 70
     1
 10
0.0
 20
0.0
 30
0.0
  3
*D9
  1

  0
LINE
  5
618
  8
SIZE
  6
CONTINUOUS
 62
     0
 10
-64.0
 20
210.4544139999999
 30
0.0
 11
-63.999999999999979
 21
557.7981437321605
 31
0.0
  0
LINE
  5
619
  8
SIZE
  6
CONTINUOUS
 62
     0
 10
18.0
 20
210.4544139999999
 30
0.0
 11
18.000000000000011
 21
557.7981437321605
 31
0.0
  0
LINE
  5
61A
  8
SIZE
  6
CONTINUOUS
 62
     0
 10
-51.999999999999979
 20
527.7981437321605
 30
0.0
 11
6.0000000000000204
 21
527.7981437321605
 31
0.0
  0
INSERT
  5
61B
  8
SIZE
  6
CONTINUOUS
 62
     0
  2
_ORIGIN
 10
-63.999999999999979
 20
527.7981437321605
 30
0.0
 41
12.0
 42
12.0
 43
12.0
 50
180.0
  0
INSERT
  5
61C
  8
SIZE
  6
CONTINUOUS
 62
     0
  2
_ORIGIN
 10
18.000000000000011
 20
527.7981437321605
 30
0.0
 41
12.0
 42
12.0
 43
12.0
  0
INSERT
  5
61E
  8
SIZE
  6
CONTINUOUS
 62
    30
  2
*U10
 10
0.0
 20
0.0
 30
0.0
  0
POINT
  5
61F
  8
DEFPOINTS
  6
CONTINUOUS
 62
     0
 10
-64.0
 20
190.4544139999999
 30
0.0
  0
POINT
  5
620
  8
DEFPOINTS
  6
CONTINUOUS
 62
     0
 10
18.0
 20
190.4544139999999
 30
0.0
  0
POINT
  5
621
  8
DEFPOINTS
  6
CONTINUOUS
 62
     0
 10
18.000000000000011
 20
527.7981437321605
 30
0.0
  0
ENDBLK
  5
622
  8
0
 62
    30
  0
BLOCK
  8
0
 62
    30
  2
*U10
 70
     1
 10
0.0
 20
0.0
 30
0.0
  3
*U10
  1

  0
TEXT
  5
624
  8
SIZE
  6
CONTINUOUS
 62
     0
 10
-95.685714285714283
 20
547.7981437321605
 30
0.0
 40
64.0
  1
\U+2205
 41
0.9
  0
TEXT
  5
625
  8
SIZE
  6
CONTINUOUS
 62
     0
 10
-43.571428571428541
 20
547.7981437321605
 30
0.0
 40
64.0
  1
82
 41
0.9
  0
ENDBLK
  5
626
  8
0
 62
    30
  0
BLOCK
  8
0
 62
    30
  2
*D11
 70
     1
 10
0.0
 20
0.0
 30
0.0
  3
*D11
  1

  0
LINE
  5
629
  8
SIZE
  6
CONTINUOUS
 62
     0
 10
-0.0000000000000012
 20
-78.610778000000025
 30
0.0
 11
-0.0000000000000092
 21
-208.86595088425469
 31
0.0
  0
LINE
  5
62A
  8
SIZE
  6
CONTINUOUS
 62
     0
 10
-115.0
 20
115.054428
 30
0.0
 11
-115.0
 21
-208.86595088425469
 31
0.0
  0
LINE
  5
62B
  8
SIZE
  6
CONTINUOUS
 62
     0
 10
-12.0
 20
-178.8659508842546
 30
0.0
 11
-103.0
 21
-178.8659508842546
 31
0.0
  0
LINE
  5
62C
  8
SIZE
  6
CONTINUOUS
 62
     0
 10
-115.0
 20
-178.8659508842546
 30
0.0
 11
-375.62423522039109
 21
-178.8659508842546
 31
0.0
  0
INSERT
  5
62D
  8
SIZE
  6
CONTINUOUS
 62
     0
  2
_ORIGIN
 10
-0.0000000000000074
 20
-178.8659508842546
 30
0.0
 41
12.0
 42
12.0
 43
12.0
  0
INSERT
  5
62E
  8
SIZE
  6
CONTINUOUS
 62
     0
  2
_ORIGIN
 10
-115.0
 20
-178.8659508842546
 30
0.0
 41
12.0
 42
12.0
 43
12.0
 50
180.0
  0
TEXT
  5
62F
  8
SIZE
  6
CONTINUOUS
 62
     0
 10
-355.62423522039109
 20
-158.8659508842546
 30
0.0
 40
64.0
  1
115
 41
0.9
  0
POINT
  5
630
  8
DEFPOINTS
  6
CONTINUOUS
 62
     0
 10
0.0
 20
-58.610778000000003
 30
0.0
  0
POINT
  5
631
  8
DEFPOINTS
  6
CONTINUOUS
 62
     0
 10
-115.0
 20
135.054428
 30
0.0
  0
POINT
  5
632
  8
DEFPOINTS
  6
CONTINUOUS
 62
     0
 10
-115.0
 20
-178.8659508842546
 30
0.0
  0
ENDBLK
  5
633
  8
0
 62
    30
  0
BLOCK
  8
0
 62
    30
  2
*U12
 70
     1
 10
0.0
 20
0.0
 30
0.0
  3
*U12
  1

  0
TEXT
  5
636
  8
SIZE
  6
CONTINUOUS
 62
    30
 10
-95.685714285714283
 20
547.7981437321605
 30
0.0
 40
64.0
  1
\U+2205
 41
0.9
  0
TEXT
  5
637
  8
SIZE
  6
CONTINUOUS
 62
    30
 10
-43.571428571428541
 20
547.7981437321605
 30
0.0
 40
64.0
  1
82
 41
0.9
  0
ENDBLK
  5
638
  8
0
 62
    30
  0
ENDSEC
  0
SECTION
  2
ENTITIES
  0
LINE
  5
639
  8
BASIS
  6
DASHDOT
 62
     6
 10
0.0
 20
222.01639
 30
0.0
 11
0.0
 21
-58.610778000000003
 31
0.0
  0
LINE
  5
63A
  8
BASIS
  6
DASHDOT
 62
     6
 10
-23.0
 20
213.7921979999999
 30
0.0
 11
-23.0
 21
170.008061
 31
0.0
  0
LINE
  5
63B
  8
DETAIL
  6
CONTINUOUS
 62
     5
 10
-53.63747
 20
195.4544139999999
 30
0.0
 11
-52.468961999999998
 21
197.47831599999989
 31
0.0
  0
LINE
  5
63C
  8
DETAIL
  6
CONTINUOUS
 62
     5
 10
-59.0
 20
195.4544139999999
 30
0.0
 11
-23.0
 21
195.4544139999999
 31
0.0
  0
LINE
  5
63D
  8
DETAIL
  6
CONTINUOUS
 62
     5
 10
-23.0
 20
197.47833
 30
0.0
 11
-52.468953000000013
 21
197.47833
 31
0.0
  0
LINE
  5
63E
  8
DETAIL
  6
CONTINUOUS
 62
     5
 10
-29.672234
 20
198.48349999999991
 30
0.0
 11
-29.820820999999992
 21
197.47833
 31
0.0
  0
LINE
  5
63F
  8
DETAIL
  6
CONTINUOUS
 62
     5
 10
-27.852011999999991
 20
200.054428
 30
0.0
 11
-23.0
 21
200.054428
 31
0.0
  0
ARC
  5
640
  8
DETAIL
  6
CONTINUOUS
 62
     5
 10
-27.852011999999991
 20
198.21441399999989
 30
0.0
 40
1.8400009999999991
 50
90.0
 51
171.59088899999981
  0
ARC
  5
641
  8
DETAIL
  6
CONTINUOUS
 62
     5
 10
-18.147988000000002
 20
198.21441399999989
 30
0.0
 40
1.8400009999999991
 50
8.4091109999999976
 51
90.0
  0
LINE
  5
642
  8
DETAIL
  6
CONTINUOUS
 62
     5
 10
-18.147988000000002
 20
200.054428
 30
0.0
 11
-23.0
 21
200.054428
 31
0.0
  0
LINE
  5
643
  8
DETAIL
  6
CONTINUOUS
 62
     5
 10
-16.327766
 20
198.48349999999991
 30
0.0
 11
-16.179179000000001
 21
197.47833
 31
0.0
  0
LINE
  5
644
  8
DETAIL
  6
CONTINUOUS
 62
     5
 10
-23.0
 20
197.47833
 30
0.0
 11
-0.9200000000000002
 21
197.47833
 31
0.0
  0
LINE
  5
645
  8
DETAIL
  6
CONTINUOUS
 62
     5
 10
-0.9200000000000002
 20
195.4544139999999
 30
0.0
 11
-23.0
 21
195.4544139999999
 31
0.0
  0
LINE
  5
646
  8
DETAIL
  6
CONTINUOUS
 62
     5
 10
13.0
 20
195.4544139999999
 30
0.0
 11
-23.0
 21
195.4544139999999
 31
0.0
  0
LINE
  5
647
  8
DETAIL
  6
CONTINUOUS
 62
     5
 10
-23.0
 20
197.47833
 30
0.0
 11
6.4689529999999991
 21
197.47833
 31
0.0
  0
LINE
  5
648
  8
DETAIL
  6
CONTINUOUS
 62
     5
 10
7.637469999999996
 20
195.4544139999999
 30
0.0
 11
6.4689620000000003
 21
197.47831599999989
 31
0.0
  0
CIRCLE
  5
649
  8
FIX
  6
CONTINUOUS
 62
    11
 10
-165.0
 20
0.054428
 30
0.0
 40
2.5
  0
CIRCLE
  5
64A
  8
FIX
  6
CONTINUOUS
 62
    11
 10
165.0
 20
0.054428
 30
0.0
 40
2.5
  0
LINE
  5
64B
  8
DETAIL
  6
CONTINUOUS
 62
     5
 10
188.0
 20
170.054428
 30
0.0
 11
188.0
 21
166.55442799999969
 31
0.0
  0
LINE
  5
64C
  8
DETAIL
  6
CONTINUOUS
 62
     5
 10
-115.5
 20
166.55442799999969
 30
0.0
 11
-150.5
 21
166.55442799999969
 31
0.0
  0
LINE
  5
64D
  8
DETAIL
  6
CONTINUOUS
 62
     5
 10
-115.5
 20
170.054428
 30
0.0
 11
-150.5
 21
170.054428
 31
0.0
  0
LINE
  5
64E
  8
DETAIL
  6
CONTINUOUS
 62
     5
 10
155.67846900000001
 20
166.55442799999969
 30
0.0
 11
188.0
 21
166.55442799999969
 31
0.0
  0
CIRCLE
  5
64F
  8
FIX
  6
CONTINUOUS
 62
    11
 10
133.0
 20
170.054428
 30
0.0
 40
7.5
  0
CIRCLE
  5
650
  8
FIX
  6
CONTINUOUS
 62
    11
 10
-170.5
 20
170.054428
 30
0.0
 40
7.5
  0
TEXT
  5
651
  8
NOTE
  6
CONTINUOUS
 62
     4
 10
-577.22146299999963
 20
269.09087099999982
 30
0.0
 40
64.0
  1
EL
 41
0.9
  0
LINE
  5
652
  8
NOTE
  6
CONTINUOUS
 62
     4
 10
-478.93530800000002
 20
244.8391079999999
 30
0.0
 11
-597.74072000000001
 21
244.8391079999999
 31
0.0
  0
POINT
  5
653
  8
ARRANGE
  6
CONTINUOUS
 62
     1
 10
0.0
 20
0.0
 30
0.0
  0
CIRCLE
  5
654
  8
ARRANGE
  6
CONTINUOUS
 62
     1
 10
0.0
 20
0.0
 30
0.0
 40
40.0
  0
LINE
  5
655
  8
SIZE
  6
CONTINUOUS
 62
    30
 10
-863.54434399999968
 20
-19.048832000000001
 30
0.0
 11
-863.54434399999968
 21
-154.520285
 31
0.0
  0
CIRCLE
  5
656
  8
FIX
  6
CONTINUOUS
 62
    11
 10
170.5
 20
170.054428
 30
0.0
 40
7.5
  0
LINE
  5
657
  8
DETAIL
  6
CONTINUOUS
 62
     5
 10
-155.67846900000001
 20
166.55442799999969
 30
0.0
 11
-188.0
 21
166.55442799999969
 31
0.0
  0
LINE
  5
658
  8
DETAIL
  6
CONTINUOUS
 62
     5
 10
-188.0
 20
170.054428
 30
0.0
 11
-188.0
 21
166.55442799999969
 31
0.0
  0
LINE
  5
659
  8
DETAIL
  6
CONTINUOUS
 62
     5
 10
-165.13491299999981
 20
-19.945571999999999
 30
0.0
 11
165.13491299999981
 21
-19.945571999999999
 31
0.0
  0
LINE
  5
65A
  8
DETAIL
  6
CONTINUOUS
 62
     5
 10
195.0
 20
-8.4994510000000005
 30
0.0
 11
195.0
 21
0.054428
 31
0.0
  0
LINE
  5
662
  8
DETAIL
  6
CONTINUOUS
 62
     5
 10
-195.0
 20
-8.4994510000000005
 30
0.0
 11
-195.0
 21
0.054428
 31
0.0
  0
LINE
  5
66A
  8
DETAIL
  6
CONTINUOUS
 62
     5
 10
156.49999999999969
 20
-19.945571999999999
 30
0.0
 11
156.49999999999969
 21
0.054428
 31
0.0
  0
LINE
  5
66B
  8
DETAIL
  6
CONTINUOUS
 62
     5
 10
-156.49999999999969
 20
-19.945571999999999
 30
0.0
 11
-156.49999999999969
 21
0.054428
 31
0.0
  0
LINE
  5
66C
  8
DETAIL
  6
CONTINUOUS
 62
     5
 10
-195.00000700000001
 20
0.054428
 30
0.0
 11
195.00000700000001
 21
0.054428
 31
0.0
  0
LINE
  5
66D
  8
DETAIL
  6
CONTINUOUS
 62
     5
 10
188.0
 20
170.054428
 30
0.0
 11
152.0
 21
170.054428
 31
0.0
  0
CIRCLE
  5
66E
  8
FIX
  6
CONTINUOUS
 62
    11
 10
-100.0
 20
0.054428
 30
0.0
 40
2.5
  0
LINE
  5
66F
  8
DETAIL
  6
CONTINUOUS
 62
     5
 10
-150.5
 20
170.054428
 30
0.0
 11
-150.5
 21
161.5544279999998
 31
0.0
  0
LINE
  5
670
  8
SIZE
  6
CONTINUOUS
 62
    30
 10
-718.89590700000008
 20
-1.0488319999999991
 30
0.0
 11
-718.89590700000008
 21
-203.42235099999991
 31
0.0
  0
LINE
  5
671
  8
SIZE
  6
CONTINUOUS
 62
    30
 10
1088.454
 20
165.5544279999998
 30
0.0
 11
1088.454
 21
412.63480199999998
 31
0.0
  0
LINE
  5
672
  8
NOTE
  6
CONTINUOUS
 62
     4
 10
172.3572639999999
 20
169.521004
 30
0.0
 11
693.16354599999966
 21
441.59176399999978
 31
0.0
  0
LINE
  5
673
  8
DETAIL
  6
CONTINUOUS
 62
     5
 10
-194.75239999999991
 20
-9.9455720000000003
 30
0.0
 11
-156.49999999999969
 21
-9.9455720000000003
 31
0.0
  0
LINE
  5
674
  8
DETAIL
  6
CONTINUOUS
 62
     5
 10
153.5
 20
-19.945571999999999
 30
0.0
 11
153.5
 21
0.054428
 31
0.0
  0
LINE
  5
675
  8
DETAIL
  6
CONTINUOUS
 62
     5
 10
-153.5
 20
-19.945571999999999
 30
0.0
 11
-153.5
 21
0.054428
 31
0.0
  0
CIRCLE
  5
676
  8
DETAIL
  6
CONTINUOUS
 62
     5
 10
0.0
 20
109.054428
 30
0.0
 40
49.0
  0
ARC
  5
677
  8
DETAIL
  6
CONTINUOUS
 62
     5
 10
-34.086956999999991
 20
156.70430699999969
 30
0.0
 40
2.1304349999999981
 50
305.5785259999999
 51
0.0
  0
ARC
  5
678
  8
DETAIL
  6
CONTINUOUS
 62
     5
 10
-29.826087000000001
 20
160.09879699999999
 30
0.0
 40
2.1304349999999981
 50
120.298466
 51
180.0
  0
LINE
  5
679
  8
DETAIL
  6
CONTINUOUS
 62
     5
 10
0.0
 20
48.131005000000002
 30
0.0
 11
-46.891303999999977
 21
48.131005000000002
 31
0.0
  0
ARC
  5
67A
  8
DETAIL
  6
CONTINUOUS
 62
     5
 10
-46.891303999999977
 20
66.239700999999997
 30
0.0
 40
18.108695999999998
 50
180.0
 51
270.0
  0
LINE
  5
67B
  8
DETAIL
  6
CONTINUOUS
 62
     5
 10
0.0
 20
170.304429
 30
0.0
 11
-47.722155999999998
 21
170.304429
 31
0.0
  0
ARC
  5
67C
  8
DETAIL
  6
CONTINUOUS
 62
     5
 10
-46.891303999999977
 20
152.21480299999979
 30
0.0
 40
18.108695999999998
 50
90.0
 51
180.0
  0
LINE
  5
67D
  8
DETAIL
  6
CONTINUOUS
 62
     5
 10
-65.0
 20
66.445731999999992
 30
0.0
 11
-65.0
 21
151.66312400000001
 31
0.0
  0
LINE
  5
67E
  8
DETAIL
  6
CONTINUOUS
 62
     5
 10
-31.956521999999989
 20
156.70430699999969
 30
0.0
 11
-31.956521999999989
 21
160.09879699999999
 31
0.0
  0
ARC
  5
67F
  8
DETAIL
  6
CONTINUOUS
 62
     5
 10
0.0
 20
109.054428
 30
0.0
 40
55.928227999999997
 50
90.0
 51
270.0
  0
ARC
  5
680
  8
DETAIL
  6
CONTINUOUS
 62
     5
 10
0.0
 20
109.054428
 30
0.0
 40
61.25
 50
90.0
 51
120.298466
  0
ARC
  5
681
  8
DETAIL
  6
CONTINUOUS
 62
     5
 10
0.0
 20
109.054428
 30
0.0
 40
61.25
 50
59.701534000000002
 51
90.0
  0
ARC
  5
682
  8
DETAIL
  6
CONTINUOUS
 62
     5
 10
0.0
 20
109.054428
 30
0.0
 40
55.928227999999997
 50
270.0
 51
90.0
  0
LINE
  5
683
  8
DETAIL
  6
CONTINUOUS
 62
     5
 10
31.956521999999989
 20
156.70430699999969
 30
0.0
 11
31.956521999999989
 21
160.09879699999999
 31
0.0
  0
LINE
  5
684
  8
DETAIL
  6
CONTINUOUS
 62
     5
 10
65.0
 20
66.445731999999992
 30
0.0
 11
65.0
 21
151.66312400000001
 31
0.0
  0
ARC
  5
685
  8
DETAIL
  6
CONTINUOUS
 62
     5
 10
46.891303999999977
 20
152.21480299999979
 30
0.0
 40
18.108695999999998
 50
0.0
 51
90.0
  0
LINE
  5
686
  8
DETAIL
  6
CONTINUOUS
 62
     5
 10
0.0
 20
170.304429
 30
0.0
 11
47.722155999999998
 21
170.304429
 31
0.0
  0
ARC
  5
687
  8
DETAIL
  6
CONTINUOUS
 62
     5
 10
46.891303999999977
 20
66.239700999999997
 30
0.0
 40
18.108695999999998
 50
270.0
 51
0.0
  0
LINE
  5
688
  8
DETAIL
  6
CONTINUOUS
 62
     5
 10
0.0
 20
48.131005000000002
 30
0.0
 11
46.891303999999977
 21
48.131005000000002
 31
0.0
  0
ARC
  5
689
  8
DETAIL
  6
CONTINUOUS
 62
     5
 10
29.826087000000001
 20
160.09879699999999
 30
0.0
 40
2.1304349999999981
 50
0.0
 51
59.701534000000002
  0
ARC
  5
68A
  8
DETAIL
  6
CONTINUOUS
 62
     5
 10
34.086956999999991
 20
156.70430699999969
 30
0.0
 40
2.1304349999999981
 50
180.0
 51
234.4214739999999
  0
LINE
  5
68B
  8
DETAIL
  6
CONTINUOUS
 62
     5
 10
-124.0
 20
185.054428
 30
0.0
 11
124.0
 21
185.054428
 31
0.0
  0
LINE
  5
68C
  8
DETAIL
  6
CONTINUOUS
 62
     5
 10
-152.0
 20
177.054428
 30
0.0
 11
152.0
 21
177.054428
 31
0.0
  0
LINE
  5
68D
  8
DETAIL
  6
CONTINUOUS
 62
     5
 10
-124.0
 20
185.054428
 30
0.0
 11
-124.0
 21
170.054428
 31
0.0
  0
LINE
  5
68E
  8
DETAIL
  6
CONTINUOUS
 62
     5
 10
124.0
 20
185.054428
 30
0.0
 11
124.0
 21
0.054428
 31
0.0
  0
LINE
  5
68F
  8
DETAIL
  6
CONTINUOUS
 62
     5
 10
155.0
 20
0.054428
 30
0.0
 11
152.0
 21
177.054428
 31
0.0
  0
LINE
  5
690
  8
DETAIL
  6
CONTINUOUS
 62
     5
 10
-155.0
 20
0.054428
 30
0.0
 11
-152.0
 21
177.054428
 31
0.0
  0
LINE
  5
691
  8
DETAIL
  6
CONTINUOUS
 62
     5
 10
-115.5
 20
170.054428
 30
0.0
 11
-115.5
 21
166.55442799999969
 31
0.0
  0
LINE
  5
692
  8
DETAIL
  6
CONTINUOUS
 62
     5
 10
-188.0
 20
170.054428
 30
0.0
 11
-152.1186439999999
 21
170.054428
 31
0.0
  0
LINE
  5
693
  8
DETAIL
  6
CONTINUOUS
 62
     5
 10
-158.49949699999991
 20
0.113742
 30
0.0
 11
-155.67846900000001
 21
166.55442799999969
 31
0.0
  0
LINE
  5
694
  8
DETAIL
  6
CONTINUOUS
 62
     5
 10
152.26271199999991
 20
161.5544279999998
 30
0.0
 11
150.5
 21
161.5544279999998
 31
0.0
  0
LINE
  5
695
  8
DETAIL
  6
CONTINUOUS
 62
     5
 10
-115.5
 20
166.55442799999969
 30
0.0
 11
-115.5
 21
0.054428
 31
0.0
  0
CIRCLE
  5
696
  8
FIX
  6
CONTINUOUS
 62
    11
 10
100.0
 20
0.054428
 30
0.0
 40
2.5
  0
CIRCLE
  5
697
  8
DETAIL
  6
CONTINUOUS
 62
     5
 10
0.0
 20
109.054428
 30
0.0
 40
52.5
  0
LINE
  5
698
  8
SIZE
  6
CONTINUOUS
 62
    30
 10
951.79953899999987
 20
158.0544279999998
 30
0.0
 11
951.79953899999987
 21
373.91879399999988
 31
0.0
  0
LINE
  5
699
  8
DETAIL
  6
CONTINUOUS
 62
     5
 10
-153.5
 20
-9.9455720000000003
 30
0.0
 11
153.5
 21
-9.9455720000000003
 31
0.0
  0
LINE
  5
69A
  8
DETAIL
  6
CONTINUOUS
 62
     5
 10
156.49999999999969
 20
-9.9455720000000003
 30
0.0
 11
194.75239999999991
 21
-9.9455720000000003
 31
0.0
  0
LINE
  5
69B
  8
OUTLINE
  6
CONTINUOUS
 62
     3
 10
-195.00000700000001
 20
0.054428
 30
0.0
 11
195.00000700000001
 21
0.054428
 31
0.0
  0
LINE
  5
69C
  8
OUTLINE
  6
CONTINUOUS
 62
     3
 10
-155.0
 20
0.054428
 30
0.0
 11
-152.0
 21
177.054428
 31
0.0
  0
LINE
  5
69D
  8
OUTLINE
  6
CONTINUOUS
 62
     3
 10
-152.0
 20
177.054428
 30
0.0
 11
-124.0
 21
177.054428
 31
0.0
  0
LINE
  5
69E
  8
OUTLINE
  6
CONTINUOUS
 62
     3
 10
-124.0
 20
185.054428
 30
0.0
 11
124.0
 21
185.054428
 31
0.0
  0
LINE
  5
69F
  8
OUTLINE
  6
CONTINUOUS
 62
     3
 10
-124.0
 20
185.054428
 30
0.0
 11
-124.0
 21
177.054428
 31
0.0
  0
LINE
  5
6A0
  8
OUTLINE
  6
CONTINUOUS
 62
     3
 10
124.0
 20
185.054428
 30
0.0
 11
124.0
 21
177.054428
 31
0.0
  0
LINE
  5
6A1
  8
OUTLINE
  6
CONTINUOUS
 62
     3
 10
155.0
 20
0.054428
 30
0.0
 11
152.0
 21
177.054428
 31
0.0
  0
LINE
  5
6A2
  8
OUTLINE
  6
CONTINUOUS
 62
     3
 10
124.0
 20
177.054428
 30
0.0
 11
152.0
 21
177.054428
 31
0.0
  0
LINE
  5
6A3
  8
DETAIL
  6
CONTINUOUS
 62
     5
 10
158.49949699999991
 20
0.113742
 30
0.0
 11
155.67846900000001
 21
166.55442799999969
 31
0.0
  0
LINE
  5
6A4
  8
DETAIL
  6
CONTINUOUS
 62
     5
 10
-150.5
 20
161.5544279999998
 30
0.0
 11
-152.26220599999991
 21
161.58429599999991
 31
0.0
  0
LINE
  5
6A5
  8
SIZE
  6
CONTINUOUS
 62
    30
 10
-23.0
 20
437.67542199999991
 30
0.0
 11
-335.29004199999991
 21
437.67542199999991
 31
0.0
  0
TEXT
  5
6A6
  8
NOTE
  6
CONTINUOUS
 62
     4
 10
-45.290615000000003
 20
69.588600999999997
 30
0.0
 40
64.0
  1
RA
 41
0.9
  0
TEXT
  5
6A7
  8
NOTE
  6
CONTINUOUS
 62
     4
 10
-384.20526599999999
 20
80.792255999999995
 30
0.0
 40
64.0
  1
RA
 41
0.9
  0
LINE
  5
6A8
  8
SIZE
  6
CONTINUOUS
 62
    30
 10
-233.0
 20
311.89907299999999
 30
0.0
 11
-419.22335899999979
 21
311.89907299999999
 31
0.0
  0
LINE
  5
6A9
  8
DETAIL
  6
CONTINUOUS
 62
     5
 10
-175.0
 20
56.554428000000001
 30
0.0
 11
-175.0
 21
161.5544279999998
 31
0.0
  0
LINE
  5
6AA
  8
DETAIL
  6
CONTINUOUS
 62
     5
 10
-210.0
 20
161.5544279999998
 30
0.0
 11
-152.26271199999991
 21
161.5544279999998
 31
0.0
  0
LINE
  5
6AB
  8
DETAIL
  6
CONTINUOUS
 62
     5
 10
-210.0
 20
56.554428000000001
 30
0.0
 11
-210.0
 21
161.5544279999998
 31
0.0
  0
LINE
  5
6AC
  8
DETAIL
  6
CONTINUOUS
 62
     5
 10
-235.0
 20
60.054428000000001
 30
0.0
 11
-235.0
 21
158.0544279999998
 31
0.0
  0
LINE
  5
6AD
  8
DETAIL
  6
CONTINUOUS
 62
     5
 10
-235.0
 20
158.0544279999998
 30
0.0
 11
-210.0
 21
158.0544279999998
 31
0.0
  0
LINE
  5
6AE
  8
DETAIL
  6
CONTINUOUS
 62
     5
 10
-235.0
 20
60.054428000000001
 30
0.0
 11
-210.0
 21
60.054428000000001
 31
0.0
  0
LINE
  5
6AF
  8
DETAIL
  6
CONTINUOUS
 62
     5
 10
-210.0
 20
56.554428000000001
 30
0.0
 11
-175.0
 21
56.554428000000001
 31
0.0
  0
LINE
  5
6B0
  8
DETAIL
  6
CONTINUOUS
 62
     5
 10
-175.0
 20
56.554428000000001
 30
0.0
 11
-154.32878099999991
 21
39.656365999999991
 31
0.0
  0
LINE
  5
6B1
  8
DETAIL
  6
CONTINUOUS
 62
     5
 10
175.0
 20
56.554428000000001
 30
0.0
 11
154.32878099999991
 21
39.656365999999991
 31
0.0
  0
LINE
  5
6B2
  8
DETAIL
  6
CONTINUOUS
 62
     5
 10
175.0
 20
56.554428000000001
 30
0.0
 11
175.0
 21
161.5544279999998
 31
0.0
  0
LINE
  5
6B3
  8
DETAIL
  6
CONTINUOUS
 62
     5
 10
210.0
 20
56.554428000000001
 30
0.0
 11
210.0
 21
161.5544279999998
 31
0.0
  0
LINE
  5
6B4
  8
DETAIL
  6
CONTINUOUS
 62
     5
 10
235.0
 20
60.054428000000001
 30
0.0
 11
235.0
 21
158.0544279999998
 31
0.0
  0
LINE
  5
6B5
  8
DETAIL
  6
CONTINUOUS
 62
     5
 10
235.0
 20
60.054428000000001
 30
0.0
 11
210.0
 21
60.054428000000001
 31
0.0
  0
LINE
  5
6B6
  8
DETAIL
  6
CONTINUOUS
 62
     5
 10
210.0
 20
56.554428000000001
 30
0.0
 11
175.0
 21
56.554428000000001
 31
0.0
  0
LINE
  5
6B7
  8
DETAIL
  6
CONTINUOUS
 62
     5
 10
235.0
 20
158.0544279999998
 30
0.0
 11
210.0
 21
158.0544279999998
 31
0.0
  0
LINE
  5
6B8
  8
DETAIL
  6
CONTINUOUS
 62
     5
 10
210.0
 20
161.5544279999998
 30
0.0
 11
152.26271199999991
 21
161.5544279999998
 31
0.0
  0
TEXT
  5
6B9
  8
NOTE
  6
CONTINUOUS
 62
     4
 10
282.48420899999991
 20
69.950800999999998
 30
0.0
 40
64.0
  1
RA
 41
0.9
  0
TEXT
  5
6BA
  8
NOTE
  6
CONTINUOUS
 62
     4
 10
270.07103699999988
 20
-15.40822099999999
 30
0.0
 40
64.0
  1
副吸入口3
 41
0.9
  0
LINE
  5
6BB
  8
BASIS
  6
DASHDOT
 62
     6
 10
-258.34899000000001
 20
109.054428
 30
0.0
 11
268.80730999999992
 21
109.054428
 31
0.0
  0
TEXT
  5
6BC
  8
NOTE
  6
CONTINUOUS
 62
     4
 10
704.19539599999985
 20
493.98302499999988
 30
0.0
 40
64.0
  1
AH 4-φ15×22(2点吊り)
 41
0.9
  0
LINE
  5
6BD
  8
NOTE
  6
CONTINUOUS
 62
     4
 10
1649.095
 20
441.59176399999978
 30
0.0
 11
693.16354599999966
 21
441.59176399999978
 31
0.0
  0
LINE
  5
6BE
  8
SIZE
  6
CONTINUOUS
 62
    30
 10
233.0
 20
311.89907299999999
 30
0.0
 11
417.83291099999991
 21
311.89907299999999
 31
0.0
  0
LINE
  5
6BF
  8
SIZE
  6
CONTINUOUS
 62
    30
 10
760.41014599999983
 20
161.5544279999998
 30
0.0
 11
760.41014599999983
 21
381.18608699999987
 31
0.0
  0
LINE
  5
6C0
  8
SIZE
  6
CONTINUOUS
 62
    30
 10
635.03473099999997
 20
160.054428
 30
0.0
 11
635.03473099999997
 21
358.29643399999992
 31
0.0
  0
LINE
  5
6C1
  8
SIZE
  6
CONTINUOUS
 62
    30
 10
885.36584400000004
 20
0.054428
 30
0.0
 11
885.36584400000004
 21
-162.19438400000001
 31
0.0
  0
LINE
  5
6C2
  8
SIZE
  6
CONTINUOUS
 62
    30
 10
-455.85247199999998
 20
58.951168000000003
 30
0.0
 11
-455.85247199999998
 21
-242.94630000000001
 31
0.0
  0
LINE
  5
6C3
  8
SIZE
  6
CONTINUOUS
 62
    30
 10
-587.65261399999997
 20
55.451168000000003
 30
0.0
 11
-587.65261399999997
 21
-242.94630000000001
 31
0.0
  0
LINE
  5
6C4
  8
SIZE
  6
BYBLOCK
 62
    30
 10
235.0
 20
178.0544279999998
 30
0.0
 11
235.0
 21
1314.345
 31
0.0
  0
LINE
  5
6C5
  8
SIZE
  6
BYBLOCK
 62
    30
 10
-235.0
 20
178.0544279999998
 30
0.0
 11
-235.0
 21
1314.345
 31
0.0
  0
LINE
  5
6C6
  8
SIZE
  6
BYBLOCK
 62
    30
 10
233.0
 20
1284.345
 30
0.0
 11
-233.0
 21
1284.345
 31
0.0
  0
TEXT
  5
6C7
  8
SIZE
  6
BYBLOCK
 62
    30
 10
-74.057143000000025
 20
1316.345
 30
0.0
 40
64.0
  1
470
 41
0.9
  0
LINE
  5
6C8
  8
SIZE
  6
BYBLOCK
 62
    30
 10
-255.0
 20
60.054428000000001
 30
0.0
 11
-485.85247199999998
 21
60.054428000000001
 31
0.0
  0
LINE
  5
6C9
  8
SIZE
  6
BYBLOCK
 62
    30
 10
-255.0
 20
158.0544279999998
 30
0.0
 11
-485.85247199999998
 21
158.0544279999998
 31
0.0
  0
LINE
  5
6CA
  8
SIZE
  6
BYBLOCK
 62
    30
 10
-455.85247199999998
 20
160.054428
 30
0.0
 11
-455.85247199999998
 21
162.054428
 31
0.0
  0
LINE
  5
6CB
  8
SIZE
  6
BYBLOCK
 62
    30
 10
-455.85247199999998
 20
58.054428000000001
 30
0.0
 11
-455.85247199999998
 21
56.054428000000001
 31
0.0
  0
LINE
  5
6CC
  8
SIZE
  6
BYBLOCK
 62
    30
 10
-455.85247199999998
 20
158.0544279999998
 30
0.0
 11
-455.85247199999998
 21
60.054428000000001
 31
0.0
  0
TEXT
  5
6CD
  8
SIZE
  6
BYBLOCK
 62
    30
 10
-487.85247199999992
 20
-224.49932699999999
 30
0.0
 40
64.0
  1
φ98
 50
90.0
 41
0.9
  0
LINE
  5
6CE
  8
SIZE
  6
BYBLOCK
 62
    30
 10
-230.0
 20
56.554428000000001
 30
0.0
 11
-617.65261399999986
 21
56.554428000000001
 31
0.0
  0
LINE
  5
6CF
  8
SIZE
  6
BYBLOCK
 62
    30
 10
-230.0
 20
161.5544279999998
 30
0.0
 11
-617.65261399999986
 21
161.5544279999998
 31
0.0
  0
LINE
  5
6D0
  8
SIZE
  6
BYBLOCK
 62
    30
 10
-587.65261399999997
 20
163.55442799999969
 30
0.0
 11
-587.65261399999997
 21
165.5544279999998
 31
0.0
  0
LINE
  5
6D1
  8
SIZE
  6
BYBLOCK
 62
    30
 10
-587.65261399999997
 20
54.554428000000001
 30
0.0
 11
-587.65261399999997
 21
52.554428000000001
 31
0.0
  0
LINE
  5
6D2
  8
SIZE
  6
BYBLOCK
 62
    30
 10
-587.65261399999997
 20
161.5544279999998
 30
0.0
 11
-587.65261399999997
 21
56.554428000000001
 31
0.0
  0
TEXT
  5
6D3
  8
SIZE
  6
BYBLOCK
 62
    30
 10
-619.65261399999963
 20
-246.44218399999991
 30
0.0
 40
64.0
  1
φ105
 50
90.0
 41
0.9
  0
LINE
  5
6D4
  8
SIZE
  6
BYBLOCK
 62
    30
 10
255.0
 20
158.0544279999998
 30
0.0
 11
665.03473099999985
 21
158.0544279999998
 31
0.0
  0
LINE
  5
6D5
  8
SIZE
  6
BYBLOCK
 62
    30
 10
255.0
 20
60.054428000000001
 30
0.0
 11
665.03473099999985
 21
60.054428000000001
 31
0.0
  0
LINE
  5
6D6
  8
SIZE
  6
BYBLOCK
 62
    30
 10
635.03473099999997
 20
58.054428000000001
 30
0.0
 11
635.03473099999997
 21
56.054428000000001
 31
0.0
  0
LINE
  5
6D7
  8
SIZE
  6
BYBLOCK
 62
    30
 10
635.03473099999997
 20
160.054428
 30
0.0
 11
635.03473099999997
 21
162.054428
 31
0.0
  0
LINE
  5
6D8
  8
SIZE
  6
BYBLOCK
 62
    30
 10
635.03473099999997
 20
60.054428000000001
 30
0.0
 11
635.03473099999997
 21
158.0544279999998
 31
0.0
  0
TEXT
  5
6D9
  8
SIZE
  6
BYBLOCK
 62
    30
 10
603.03473099999985
 20
189.87262200000001
 30
0.0
 40
64.0
  1
φ98
 50
90.0
 41
0.9
  0
LINE
  5
6DA
  8
SIZE
  6
BYBLOCK
 62
    30
 10
230.0
 20
161.5544279999998
 30
0.0
 11
790.41014599999983
 21
161.5544279999998
 31
0.0
  0
LINE
  5
6DB
  8
SIZE
  6
BYBLOCK
 62
    30
 10
230.0
 20
56.554428000000001
 30
0.0
 11
790.41014599999983
 21
56.554428000000001
 31
0.0
  0
LINE
  5
6DC
  8
SIZE
  6
BYBLOCK
 62
    30
 10
760.41014599999983
 20
54.554428000000001
 30
0.0
 11
760.41014599999983
 21
52.554428000000001
 31
0.0
  0
LINE
  5
6DD
  8
SIZE
  6
BYBLOCK
 62
    30
 10
760.41014599999983
 20
163.55442799999969
 30
0.0
 11
760.41014599999983
 21
165.5544279999998
 31
0.0
  0
LINE
  5
6DE
  8
SIZE
  6
BYBLOCK
 62
    30
 10
760.41014599999983
 20
56.554428000000001
 30
0.0
 11
760.41014599999983
 21
161.5544279999998
 31
0.0
  0
TEXT
  5
6DF
  8
SIZE
  6
BYBLOCK
 62
    30
 10
728.41014599999983
 20
167.929765
 30
0.0
 40
64.0
  1
φ105
 50
90.0
 41
0.9
  0
LINE
  5
6E0
  8
SIZE
  6
BYBLOCK
 62
    30
 10
215.0000069999999
 20
0.054428
 30
0.0
 11
915.36584400000004
 21
0.054428
 31
0.0
  0
LINE
  5
6E1
  8
SIZE
  6
BYBLOCK
 62
    30
 10
288.80730999999992
 20
109.054428
 30
0.0
 11
915.36584400000004
 21
109.054428
 31
0.0
  0
LINE
  5
6E2
  8
SIZE
  6
BYBLOCK
 62
    30
 10
885.36584400000004
 20
111.054428
 30
0.0
 11
885.36584400000004
 21
113.054428
 31
0.0
  0
LINE
  5
6E3
  8
SIZE
  6
BYBLOCK
 62
    30
 10
885.36584400000004
 20
-1.9455720000000001
 30
0.0
 11
885.36584400000004
 21
-3.9455719999999981
 31
0.0
  0
LINE
  5
6E4
  8
SIZE
  6
BYBLOCK
 62
    30
 10
885.36584400000004
 20
109.054428
 30
0.0
 11
885.36584400000004
 21
0.054428
 31
0.0
  0
TEXT
  5
6E5
  8
SIZE
  6
BYBLOCK
 62
    30
 10
853.36584399999981
 20
-163.916326
 30
0.0
 40
64.0
  1
109
 50
90.0
 41
0.9
  0
LINE
  5
6E6
  8
SIZE
  6
BYBLOCK
 62
    30
 10
0.0
 20
242.01638999999989
 30
0.0
 11
0.0
 21
341.89907299999982
 31
0.0
  0
LINE
  5
6E7
  8
SIZE
  6
BYBLOCK
 62
    30
 10
235.0
 20
178.0544279999998
 30
0.0
 11
235.0
 21
341.89907299999982
 31
0.0
  0
LINE
  5
6E8
  8
SIZE
  6
BYBLOCK
 62
    30
 10
2.0
 20
311.89907299999999
 30
0.0
 11
117.5
 21
311.89907299999999
 31
0.0
  0
LINE
  5
6E9
  8
SIZE
  6
BYBLOCK
 62
    30
 10
233.0
 20
311.89907299999999
 30
0.0
 11
117.5
 21
311.89907299999999
 31
0.0
  0
TEXT
  5
6EA
  8
SIZE
  6
BYBLOCK
 62
    30
 10
256.77146099999987
 20
343.89907299999982
 30
0.0
 40
64.0
  1
235
 41
0.9
  0
LINE
  5
6EB
  8
SIZE
  6
BYBLOCK
 62
    30
 10
0.0
 20
242.01638999999989
 30
0.0
 11
0.0
 21
341.89907299999982
 31
0.0
  0
LINE
  5
6EC
  8
SIZE
  6
BYBLOCK
 62
    30
 10
-235.0
 20
178.0544279999998
 30
0.0
 11
-235.0
 21
341.89907299999982
 31
0.0
  0
LINE
  5
6ED
  8
SIZE
  6
BYBLOCK
 62
    30
 10
-2.0
 20
311.89907299999999
 30
0.0
 11
-117.5
 21
311.89907299999999
 31
0.0
  0
LINE
  5
6EE
  8
SIZE
  6
BYBLOCK
 62
    30
 10
-233.0
 20
311.89907299999999
 30
0.0
 11
-117.5
 21
311.89907299999999
 31
0.0
  0
TEXT
  5
6EF
  8
SIZE
  6
BYBLOCK
 62
    30
 10
-406.40765699999997
 20
343.89907299999982
 30
0.0
 40
64.0
  1
235
 41
0.9
  0
LINE
  5
6F0
  8
SIZE
  6
BYBLOCK
 62
    30
 10
-215.0
 20
0.054428
 30
0.0
 11
-748.89590699999985
 21
0.054428
 31
0.0
  0
LINE
  5
6F1
  8
SIZE
  6
BYBLOCK
 62
    30
 10
-278.34899000000001
 20
109.054428
 30
0.0
 11
-748.89590699999985
 21
109.054428
 31
0.0
  0
LINE
  5
6F2
  8
SIZE
  6
BYBLOCK
 62
    30
 10
-718.89590700000008
 20
111.054428
 30
0.0
 11
-718.89590700000008
 21
113.054428
 31
0.0
  0
LINE
  5
6F3
  8
SIZE
  6
BYBLOCK
 62
    30
 10
-718.89590700000008
 20
-1.9455720000000001
 30
0.0
 11
-718.89590700000008
 21
-3.9455719999999981
 31
0.0
  0
LINE
  5
6F4
  8
SIZE
  6
BYBLOCK
 62
    30
 10
-718.89590700000008
 20
109.054428
 30
0.0
 11
-718.89590700000008
 21
0.054428
 31
0.0
  0
TEXT
  5
6F5
  8
SIZE
  6
BYBLOCK
 62
    30
 10
-750.89590699999985
 20
-184.28023200000001
 30
0.0
 40
64.0
  1
109
 50
90.0
 41
0.9
  0
LINE
  5
6F6
  8
SIZE
  6
BYBLOCK
 62
    30
 10
-215.0000069999999
 20
0.054428
 30
0.0
 11
-893.54434399999957
 21
0.054428
 31
0.0
  0
LINE
  5
6F7
  8
SIZE
  6
BYBLOCK
 62
    30
 10
-47.852012000000002
 20
200.05441499999981
 30
0.0
 11
-893.54434399999957
 21
200.05441499999981
 31
0.0
  0
LINE
  5
6F8
  8
SIZE
  6
BYBLOCK
 62
    30
 10
-863.54434399999968
 20
2.054427999999997
 30
0.0
 11
-863.54434399999968
 21
100.054422
 31
0.0
  0
LINE
  5
6F9
  8
SIZE
  6
BYBLOCK
 62
    30
 10
-863.54434399999968
 20
198.05441499999981
 30
0.0
 11
-863.54434399999968
 21
100.054422
 31
0.0
  0
TEXT
  5
6FA
  8
SIZE
  6
BYBLOCK
 62
    30
 10
-895.54434399999957
 20
28.894019
 30
0.0
 40
64.0
  1
200
 50
90.0
 41
0.9
  0
LINE
  5
6FB
  8
SIZE
  6
BYBLOCK
 62
    30
 10
-185.1349129999999
 20
-19.945571999999999
 30
0.0
 11
-893.54434399999957
 21
-19.945571999999999
 31
0.0
  0
LINE
  5
6FC
  8
SIZE
  6
BYBLOCK
 62
    30
 10
-215.0000069999999
 20
0.054428
 30
0.0
 11
-893.54434399999957
 21
0.054428
 31
0.0
  0
LINE
  5
6FD
  8
SIZE
  6
BYBLOCK
 62
    30
 10
-863.54434399999968
 20
2.054427999999997
 30
0.0
 11
-863.54434399999968
 21
4.054427999999997
 31
0.0
  0
LINE
  5
6FE
  8
SIZE
  6
BYBLOCK
 62
    30
 10
-863.54434399999968
 20
-21.945571999999991
 30
0.0
 11
-863.54434399999968
 21
-23.945571999999991
 31
0.0
  0
LINE
  5
6FF
  8
SIZE
  6
BYBLOCK
 62
    30
 10
-863.54434399999968
 20
0.054428
 30
0.0
 11
-863.54434399999968
 21
-19.945571999999999
 31
0.0
  0
TEXT
  5
700
  8
SIZE
  6
BYBLOCK
 62
    30
 10
-895.54434399999957
 20
-139.74768299999999
 30
0.0
 40
64.0
  1
20
 50
90.0
 41
0.9
  0
LINE
  5
701
  8
SIZE
  6
BYBLOCK
 62
    30
 10
20.0
 20
56.554428000000001
 30
0.0
 11
1118.454
 21
56.554428000000001
 31
0.0
  0
LINE
  5
702
  8
SIZE
  6
BYBLOCK
 62
    30
 10
20.0
 20
161.5544279999998
 30
0.0
 11
1118.454
 21
161.5544279999998
 31
0.0
  0
LINE
  5
703
  8
SIZE
  6
BYBLOCK
 62
    30
 10
1088.454
 20
163.55442799999969
 30
0.0
 11
1088.454
 21
165.5544279999998
 31
0.0
  0
LINE
  5
704
  8
SIZE
  6
BYBLOCK
 62
    30
 10
1088.454
 20
54.554428000000001
 30
0.0
 11
1088.454
 21
52.554428000000001
 31
0.0
  0
LINE
  5
705
  8
SIZE
  6
BYBLOCK
 62
    30
 10
1088.454
 20
161.5544279999998
 30
0.0
 11
1088.454
 21
56.554428000000001
 31
0.0
  0
TEXT
  5
706
  8
SIZE
  6
BYBLOCK
 62
    30
 10
1056.454
 20
191.2048649999999
 30
0.0
 40
64.0
  1
φ105
 50
90.0
 41
0.9
  0
LINE
  5
707
  8
SIZE
  6
BYBLOCK
 62
    30
 10
20.0
 20
60.054428000000001
 30
0.0
 11
981.79953899999998
 21
60.054428000000001
 31
0.0
  0
LINE
  5
708
  8
SIZE
  6
BYBLOCK
 62
    30
 10
20.0
 20
158.0544279999998
 30
0.0
 11
981.79953899999998
 21
158.0544279999998
 31
0.0
  0
LINE
  5
709
  8
SIZE
  6
BYBLOCK
 62
    30
 10
951.79953899999987
 20
160.054428
 30
0.0
 11
951.79953899999987
 21
162.054428
 31
0.0
  0
LINE
  5
70A
  8
SIZE
  6
BYBLOCK
 62
    30
 10
951.79953899999987
 20
58.054428000000001
 30
0.0
 11
951.79953899999987
 21
56.054428000000001
 31
0.0
  0
LINE
  5
70B
  8
SIZE
  6
BYBLOCK
 62
    30
 10
951.79953899999987
 20
158.0544279999998
 30
0.0
 11
951.79953899999987
 21
60.054428000000001
 31
0.0
  0
TEXT
  5
70C
  8
SIZE
  6
BYBLOCK
 62
    30
 10
919.79953899999998
 20
188.21413000000001
 30
0.0
 40
64.0
  1
φ98
 50
90.0
 41
0.9
  0
LINE
  5
70D
  8
SIZE
  6
BYBLOCK
 62
    30
 10
215.0
 20
0.054428
 30
0.0
 11
1280.8009999999999
 21
0.054428
 31
0.0
  0
LINE
  5
70E
  8
SIZE
  6
BYBLOCK
 62
    30
 10
210.49999999999989
 20
170.054428
 30
0.0
 11
1280.8009999999999
 21
170.054428
 31
0.0
  0
LINE
  5
70F
  8
SIZE
  6
BYBLOCK
 62
    30
 10
1250.8009999999999
 20
2.054427999999997
 30
0.0
 11
1250.8009999999999
 21
85.054428000000001
 31
0.0
  0
LINE
  5
710
  8
SIZE
  6
BYBLOCK
 62
    30
 10
1250.8009999999999
 20
168.054428
 30
0.0
 11
1250.8009999999999
 21
85.054428000000001
 31
0.0
  0
TEXT
  5
711
  8
SIZE
  6
BYBLOCK
 62
    30
 10
1218.8009999999999
 20
16.483000000000001
 30
0.0
 40
64.0
  1
170
 50
90.0
 41
0.9
  0
LINE
  5
712
  8
SIZE
  6
BYBLOCK
 62
    30
 10
188.0
 20
190.054428
 30
0.0
 11
188.0
 21
1159.1739999999991
 31
0.0
  0
LINE
  5
713
  8
SIZE
  6
BYBLOCK
 62
    30
 10
-188.0
 20
190.054428
 30
0.0
 11
-188.0
 21
1159.1739999999991
 31
0.0
  0
LINE
  5
714
  8
SIZE
  6
BYBLOCK
 62
    30
 10
186.0
 20
1129.174
 30
0.0
 11
0.0
 21
1129.174
 31
0.0
  0
LINE
  5
715
  8
SIZE
  6
BYBLOCK
 62
    30
 10
-186.0
 20
1129.174
 30
0.0
 11
0.0
 21
1129.174
 31
0.0
  0
TEXT
  5
716
  8
SIZE
  6
BYBLOCK
 62
    30
 10
-72.685714000000004
 20
1161.1739999999991
 30
0.0
 40
64.0
  1
376
 41
0.9
  0
LINE
  5
717
  8
SIZE
  6
BYBLOCK
 62
    30
 10
-195.0
 20
-28.499451000000001
 30
0.0
 11
-195.0
 21
-760.99384599999985
 31
0.0
  0
LINE
  5
718
  8
SIZE
  6
BYBLOCK
 62
    30
 10
195.0
 20
-28.499451000000001
 30
0.0
 11
195.0
 21
-760.99384599999985
 31
0.0
  0
LINE
  5
719
  8
SIZE
  6
BYBLOCK
 62
    30
 10
-193.0
 20
-730.99384599999985
 30
0.0
 11
0.0
 21
-730.99384599999985
 31
0.0
  0
LINE
  5
71A
  8
SIZE
  6
BYBLOCK
 62
    30
 10
193.0
 20
-730.99384599999985
 30
0.0
 11
0.0
 21
-730.99384599999985
 31
0.0
  0
TEXT
  5
71B
  8
SIZE
  6
BYBLOCK
 62
    30
 10
-106.6971429999999
 20
-698.99384599999985
 30
0.0
 40
64.0
  1
□390
 41
0.9
  0
LINE
  5
71C
  8
SIZE
  6
BYBLOCK
 62
    30
 10
-165.0
 20
-39.945571999999999
 30
0.0
 11
-165.0
 21
-627.11129600000004
 31
0.0
  0
LINE
  5
71D
  8
SIZE
  6
BYBLOCK
 62
    30
 10
165.0
 20
-39.945571999999999
 30
0.0
 11
165.0
 21
-627.11129600000004
 31
0.0
  0
LINE
  5
71E
  8
SIZE
  6
BYBLOCK
 62
    30
 10
-163.0
 20
-597.11129600000004
 30
0.0
 11
0.0
 21
-597.11129600000004
 31
0.0
  0
LINE
  5
71F
  8
SIZE
  6
BYBLOCK
 62
    30
 10
163.0
 20
-597.11129600000004
 30
0.0
 11
0.0
 21
-597.11129600000004
 31
0.0
  0
TEXT
  5
720
  8
SIZE
  6
BYBLOCK
 62
    30
 10
-74.057143000000025
 20
-565.11129600000004
 30
0.0
 40
64.0
  1
330
 41
0.9
  0
LINE
  5
721
  8
SIZE
  6
BYBLOCK
 62
    30
 10
-155.0
 20
-19.945571999999999
 30
0.0
 11
-155.0
 21
-491.68829599999992
 31
0.0
  0
LINE
  5
722
  8
SIZE
  6
BYBLOCK
 62
    30
 10
155.0
 20
-19.945571999999999
 30
0.0
 11
155.0
 21
-491.68829599999992
 31
0.0
  0
LINE
  5
723
  8
SIZE
  6
BYBLOCK
 62
    30
 10
-153.0
 20
-461.68829599999981
 30
0.0
 11
0.0
 21
-461.68829599999981
 31
0.0
  0
LINE
  5
724
  8
SIZE
  6
BYBLOCK
 62
    30
 10
153.0
 20
-461.68829599999981
 30
0.0
 11
0.0
 21
-461.68829599999981
 31
0.0
  0
TEXT
  5
725
  8
SIZE
  6
BYBLOCK
 62
    30
 10
-101.211429
 20
-429.68829599999992
 30
0.0
 40
64.0
  1
□310
 41
0.9
  0
LINE
  5
726
  8
SIZE
  6
BYBLOCK
 62
    30
 10
-100.0
 20
-39.945571999999999
 30
0.0
 11
-100.0
 21
-348.07187399999992
 31
0.0
  0
LINE
  5
727
  8
SIZE
  6
BYBLOCK
 62
    30
 10
100.0
 20
-39.945571999999999
 30
0.0
 11
100.0
 21
-348.07187399999992
 31
0.0
  0
LINE
  5
728
  8
SIZE
  6
BYBLOCK
 62
    30
 10
-98.0
 20
-318.07187399999992
 30
0.0
 11
0.0
 21
-318.07187399999992
 31
0.0
  0
LINE
  5
729
  8
SIZE
  6
BYBLOCK
 62
    30
 10
98.0
 20
-318.07187399999992
 30
0.0
 11
0.0
 21
-318.07187399999992
 31
0.0
  0
TEXT
  5
72A
  8
SIZE
  6
BYBLOCK
 62
    30
 10
-74.057143000000025
 20
-286.07187399999992
 30
0.0
 40
64.0
  1
200
 41
0.9
  0
LINE
  5
72B
  8
SIZE
  6
BYBLOCK
 62
    30
 10
-170.5
 20
210.0544279999998
 30
0.0
 11
-170.5
 21
1034.5319999999999
 31
0.0
  0
LINE
  5
72C
  8
SIZE
  6
BYBLOCK
 62
    30
 10
170.5
 20
210.0544279999998
 30
0.0
 11
170.5
 21
1034.5319999999999
 31
0.0
  0
LINE
  5
72D
  8
SIZE
  6
BYBLOCK
 62
    30
 10
-168.5
 20
1004.531999999999
 30
0.0
 11
0.0
 21
1004.531999999999
 31
0.0
  0
LINE
  5
72E
  8
SIZE
  6
BYBLOCK
 62
    30
 10
168.5
 20
1004.531999999999
 30
0.0
 11
0.0
 21
1004.531999999999
 31
0.0
  0
TEXT
  5
72F
  8
SIZE
  6
BYBLOCK
 62
    30
 10
-61.714286000000001
 20
1036.5319999999999
 30
0.0
 40
64.0
  1
341
 41
0.9
  0
LINE
  5
730
  8
SIZE
  6
BYBLOCK
 62
    30
 10
-152.0
 20
197.054428
 30
0.0
 11
-152.0
 21
909.05683299999964
 31
0.0
  0
LINE
  5
731
  8
SIZE
  6
BYBLOCK
 62
    30
 10
152.0
 20
197.054428
 30
0.0
 11
152.0
 21
909.05683299999964
 31
0.0
  0
LINE
  5
732
  8
SIZE
  6
BYBLOCK
 62
    30
 10
-150.0
 20
879.05683299999987
 30
0.0
 11
0.0
 21
879.05683299999987
 31
0.0
  0
LINE
  5
733
  8
SIZE
  6
BYBLOCK
 62
    30
 10
150.0
 20
879.05683299999987
 30
0.0
 11
0.0
 21
879.05683299999987
 31
0.0
  0
TEXT
  5
734
  8
SIZE
  6
BYBLOCK
 62
    30
 10
-108.06857100000001
 20
911.05683299999987
 30
0.0
 40
64.0
  1
□304
 41
0.9
  0
LINE
  5
735
  8
SIZE
  6
BYBLOCK
 62
    30
 10
-124.0
 20
205.05442799999989
 30
0.0
 11
-124.0
 21
787.58596299999988
 31
0.0
  0
LINE
  5
736
  8
SIZE
  6
BYBLOCK
 62
    30
 10
124.0
 20
205.05442799999989
 30
0.0
 11
124.0
 21
787.58596299999988
 31
0.0
  0
LINE
  5
737
  8
SIZE
  6
BYBLOCK
 62
    30
 10
-122.0
 20
757.58596299999999
 30
0.0
 11
0.0
 21
757.58596299999999
 31
0.0
  0
LINE
  5
738
  8
SIZE
  6
BYBLOCK
 62
    30
 10
122.0
 20
757.58596299999999
 30
0.0
 11
0.0
 21
757.58596299999999
 31
0.0
  0
TEXT
  5
739
  8
SIZE
  6
BYBLOCK
 62
    30
 10
-74.057143000000025
 20
789.58596299999999
 30
0.0
 40
64.0
  1
248
 41
0.9
  0
LINE
  5
73A
  8
SIZE
  6
BYBLOCK
 62
    30
 10
-65.0
 20
172.2148029999999
 30
0.0
 11
-65.0
 21
662.11055799999997
 31
0.0
  0
LINE
  5
73B
  8
SIZE
  6
BYBLOCK
 62
    30
 10
65.0
 20
172.2148029999999
 30
0.0
 11
65.0
 21
662.11055799999997
 31
0.0
  0
LINE
  5
73C
  8
SIZE
  6
BYBLOCK
 62
    30
 10
67.0
 20
632.11055799999997
 30
0.0
 11
69.0
 21
632.11055799999997
 31
0.0
  0
LINE
  5
73D
  8
SIZE
  6
BYBLOCK
 62
    30
 10
-67.0
 20
632.11055799999997
 30
0.0
 11
-69.0
 21
632.11055799999997
 31
0.0
  0
LINE
  5
73E
  8
SIZE
  6
BYBLOCK
 62
    30
 10
65.0
 20
632.11055799999997
 30
0.0
 11
-65.0
 21
632.11055799999997
 31
0.0
  0
TEXT
  5
73F
  8
SIZE
  6
BYBLOCK
 62
    30
 10
-68.571429000000009
 20
664.11055799999986
 30
0.0
 40
64.0
  1
130
 41
0.9
  0
LINE
  5
740
  8
SIZE
  6
BYBLOCK
 62
    30
 10
-23.0
 20
233.7921979999999
 30
0.0
 11
-23.0
 21
467.67542199999991
 31
0.0
  0
LINE
  5
741
  8
SIZE
  6
BYBLOCK
 62
    30
 10
0.0
 20
242.01638999999989
 30
0.0
 11
0.0
 21
467.67542199999991
 31
0.0
  0
LINE
  5
742
  8
SIZE
  6
BYBLOCK
 62
    30
 10
2.0
 20
437.67542199999991
 30
0.0
 11
4.0
 21
437.67542199999991
 31
0.0
  0
LINE
  5
743
  8
SIZE
  6
BYBLOCK
 62
    30
 10
-25.0
 20
437.67542199999991
 30
0.0
 11
-27.0
 21
437.67542199999991
 31
0.0
  0
LINE
  5
744
  8
SIZE
  6
BYBLOCK
 62
    30
 10
0.0
 20
437.67542199999991
 30
0.0
 11
-23.0
 21
437.67542199999991
 31
0.0
  0
TEXT
  5
745
  8
SIZE
  6
BYBLOCK
 62
    30
 10
-317.63186000000002
 20
469.6754219999998
 30
0.0
 40
64.0
  1
23
 41
0.9
  0
CIRCLE
  5
746
  8
SIZE
  6
CONTINUOUS
 62
    30
 10
-23.0
 20
437.67542199999991
 30
0.0
 40
6.0
  0
CIRCLE
  5
747
  8
SIZE
  6
CONTINUOUS
 62
    30
 10
0.0
 20
437.67542199999991
 30
0.0
 40
6.0
  0
CIRCLE
  5
748
  8
SIZE
  6
CONTINUOUS
 62
    30
 10
-65.0
 20
632.11055799999997
 30
0.0
 40
6.0
  0
CIRCLE
  5
749
  8
SIZE
  6
CONTINUOUS
 62
    30
 10
65.0
 20
632.11055799999997
 30
0.0
 40
6.0
  0
CIRCLE
  5
74A
  8
SIZE
  6
CONTINUOUS
 62
    30
 10
124.0
 20
757.58596299999999
 30
0.0
 40
6.0
  0
CIRCLE
  5
74B
  8
SIZE
  6
CONTINUOUS
 62
    30
 10
-124.0
 20
757.58596299999999
 30
0.0
 40
6.0
  0
CIRCLE
  5
74C
  8
SIZE
  6
CONTINUOUS
 62
    30
 10
152.0
 20
879.05683299999987
 30
0.0
 40
6.0
  0
CIRCLE
  5
74D
  8
SIZE
  6
CONTINUOUS
 62
    30
 10
-152.0
 20
879.05683299999987
 30
0.0
 40
6.0
  0
CIRCLE
  5
74E
  8
SIZE
  6
CONTINUOUS
 62
    30
 10
170.5
 20
1004.531999999999
 30
0.0
 40
6.0
  0
CIRCLE
  5
74F
  8
SIZE
  6
CONTINUOUS
 62
    30
 10
-170.5
 20
1004.531999999999
 30
0.0
 40
6.0
  0
CIRCLE
  5
750
  8
SIZE
  6
CONTINUOUS
 62
    30
 10
100.0
 20
-318.07187399999992
 30
0.0
 40
6.0
  0
CIRCLE
  5
751
  8
SIZE
  6
CONTINUOUS
 62
    30
 10
-100.0
 20
-318.07187399999992
 30
0.0
 40
6.0
  0
CIRCLE
  5
752
  8
SIZE
  6
CONTINUOUS
 62
    30
 10
155.0
 20
-461.68829599999981
 30
0.0
 40
6.0
  0
CIRCLE
  5
753
  8
SIZE
  6
CONTINUOUS
 62
    30
 10
-155.0
 20
-461.68829599999981
 30
0.0
 40
6.0
  0
CIRCLE
  5
754
  8
SIZE
  6
CONTINUOUS
 62
    30
 10
165.0
 20
-597.11129600000004
 30
0.0
 40
6.0
  0
CIRCLE
  5
755
  8
SIZE
  6
CONTINUOUS
 62
    30
 10
-165.0
 20
-597.11129600000004
 30
0.0
 40
6.0
  0
CIRCLE
  5
756
  8
SIZE
  6
CONTINUOUS
 62
    30
 10
195.0
 20
-730.99384599999985
 30
0.0
 40
6.0
  0
CIRCLE
  5
757
  8
SIZE
  6
CONTINUOUS
 62
    30
 10
-195.0
 20
-730.99384599999985
 30
0.0
 40
6.0
  0
CIRCLE
  5
758
  8
SIZE
  6
CONTINUOUS
 62
    30
 10
-188.0
 20
1129.174
 30
0.0
 40
6.0
  0
CIRCLE
  5
759
  8
SIZE
  6
CONTINUOUS
 62
    30
 10
188.0
 20
1129.174
 30
0.0
 40
6.0
  0
CIRCLE
  5
75A
  8
SIZE
  6
CONTINUOUS
 62
    30
 10
1250.8009999999999
 20
170.054428
 30
0.0
 40
6.0
  0
CIRCLE
  5
75B
  8
SIZE
  6
CONTINUOUS
 62
    30
 10
1250.8009999999999
 20
0.054428
 30
0.0
 40
6.0
  0
CIRCLE
  5
75C
  8
SIZE
  6
CONTINUOUS
 62
    30
 10
951.79953899999987
 20
60.054428000000001
 30
0.0
 40
6.0
  0
CIRCLE
  5
75D
  8
SIZE
  6
CONTINUOUS
 62
    30
 10
951.79953899999987
 20
158.0544279999998
 30
0.0
 40
6.0
  0
CIRCLE
  5
75E
  8
SIZE
  6
CONTINUOUS
 62
    30
 10
1088.454
 20
56.554428000000001
 30
0.0
 40
6.0
  0
CIRCLE
  5
75F
  8
SIZE
  6
CONTINUOUS
 62
    30
 10
1088.454
 20
161.5544279999998
 30
0.0
 40
6.0
  0
CIRCLE
  5
760
  8
SIZE
  6
CONTINUOUS
 62
    30
 10
-863.54434399999968
 20
-19.945571999999999
 30
0.0
 40
6.0
  0
CIRCLE
  5
761
  8
SIZE
  6
CONTINUOUS
 62
    30
 10
-863.54434399999968
 20
0.054428
 30
0.0
 40
6.0
  0
CIRCLE
  5
762
  8
SIZE
  6
CONTINUOUS
 62
    30
 10
-863.54434399999968
 20
200.05441499999981
 30
0.0
 40
6.0
  0
CIRCLE
  5
763
  8
SIZE
  6
CONTINUOUS
 62
    30
 10
-863.54434399999968
 20
0.054428
 30
0.0
 40
6.0
  0
CIRCLE
  5
764
  8
SIZE
  6
CONTINUOUS
 62
    30
 10
-718.89590700000008
 20
0.054428
 30
0.0
 40
6.0
  0
CIRCLE
  5
765
  8
SIZE
  6
CONTINUOUS
 62
    30
 10
-718.89590700000008
 20
109.054428
 30
0.0
 40
6.0
  0
CIRCLE
  5
766
  8
SIZE
  6
CONTINUOUS
 62
    30
 10
-235.0
 20
311.89907299999999
 30
0.0
 40
6.0
  0
CIRCLE
  5
767
  8
SIZE
  6
CONTINUOUS
 62
    30
 10
0.0
 20
311.89907299999999
 30
0.0
 40
6.0
  0
CIRCLE
  5
768
  8
SIZE
  6
CONTINUOUS
 62
    30
 10
235.0
 20
311.89907299999999
 30
0.0
 40
6.0
  0
CIRCLE
  5
769
  8
SIZE
  6
CONTINUOUS
 62
    30
 10
0.0
 20
311.89907299999999
 30
0.0
 40
6.0
  0
CIRCLE
  5
76A
  8
SIZE
  6
CONTINUOUS
 62
    30
 10
885.36584400000004
 20
0.054428
 30
0.0
 40
6.0
  0
CIRCLE
  5
76B
  8
SIZE
  6
CONTINUOUS
 62
    30
 10
885.36584400000004
 20
109.054428
 30
0.0
 40
6.0
  0
CIRCLE
  5
76C
  8
SIZE
  6
CONTINUOUS
 62
    30
 10
760.41014599999983
 20
161.5544279999998
 30
0.0
 40
6.0
  0
CIRCLE
  5
76D
  8
SIZE
  6
CONTINUOUS
 62
    30
 10
760.41014599999983
 20
56.554428000000001
 30
0.0
 40
6.0
  0
CIRCLE
  5
76E
  8
SIZE
  6
CONTINUOUS
 62
    30
 10
635.03473099999997
 20
158.0544279999998
 30
0.0
 40
6.0
  0
CIRCLE
  5
76F
  8
SIZE
  6
CONTINUOUS
 62
    30
 10
635.03473099999997
 20
60.054428000000001
 30
0.0
 40
6.0
  0
CIRCLE
  5
770
  8
SIZE
  6
CONTINUOUS
 62
    30
 10
-587.65261399999997
 20
56.554428000000001
 30
0.0
 40
6.0
  0
CIRCLE
  5
771
  8
SIZE
  6
CONTINUOUS
 62
    30
 10
-587.65261399999997
 20
161.5544279999998
 30
0.0
 40
6.0
  0
CIRCLE
  5
772
  8
SIZE
  6
CONTINUOUS
 62
    30
 10
-455.85247199999998
 20
60.054428000000001
 30
0.0
 40
6.0
  0
CIRCLE
  5
773
  8
SIZE
  6
CONTINUOUS
 62
    30
 10
-455.85247199999998
 20
158.0544279999998
 30
0.0
 40
6.0
  0
CIRCLE
  5
774
  8
SIZE
  6
CONTINUOUS
 62
    30
 10
-235.0
 20
1284.345
 30
0.0
 40
6.0
  0
CIRCLE
  5
775
  8
SIZE
  6
CONTINUOUS
 62
    30
 10
235.0
 20
1284.345
 30
0.0
 40
6.0
  0
LINE
  5
776
  8
NOTE
  6
CONTINUOUS
 62
     4
 10
170.5
 20
150.05442799999969
 30
0.0
 11
170.5
 21
190.054428
 31
0.0
  0
LINE
  5
777
  8
NOTE
  6
CONTINUOUS
 62
     4
 10
150.5
 20
170.054428
 30
0.0
 11
190.5
 21
170.054428
 31
0.0
  0
LINE
  5
77D
  8
NOTE
  6
CONTINUOUS
 62
     4
 10
133.0
 20
150.05442799999969
 30
0.0
 11
133.0
 21
190.054428
 31
0.0
  0
LINE
  5
77E
  8
NOTE
  6
CONTINUOUS
 62
     4
 10
113.0
 20
170.054428
 30
0.0
 11
153.0
 21
170.054428
 31
0.0
  0
LINE
  5
77F
  8
NOTE
  6
CONTINUOUS
 62
     4
 10
-170.5
 20
150.05442799999969
 30
0.0
 11
-170.5
 21
190.054428
 31
0.0
  0
LINE
  5
780
  8
NOTE
  6
CONTINUOUS
 62
     4
 10
-150.5
 20
170.054428
 30
0.0
 11
-190.5
 21
170.054428
 31
0.0
  0
LINE
  5
781
  8
NOTE
  6
CONTINUOUS
 62
     4
 10
-94.798893648527155
 20
155.05442799999969
 30
0.0
 11
-136.5688644580695
 21
155.05442799999969
 31
0.0
  0
LINE
  5
782
  8
NOTE
  6
CONTINUOUS
 62
     4
 10
165.0
 20
-19.945571999999999
 30
0.0
 11
165.0
 21
20.054428000000001
 31
0.0
  0
LINE
  5
783
  8
NOTE
  6
CONTINUOUS
 62
     4
 10
185.0
 20
0.054428
 30
0.0
 11
145.0
 21
0.054428
 31
0.0
  0
LINE
  5
784
  8
NOTE
  6
CONTINUOUS
 62
     4
 10
100.0
 20
-19.945571999999999
 30
0.0
 11
100.0
 21
20.054428000000001
 31
0.0
  0
LINE
  5
785
  8
NOTE
  6
CONTINUOUS
 62
     4
 10
120.0
 20
0.054428
 30
0.0
 11
80.0
 21
0.054428
 31
0.0
  0
LINE
  5
786
  8
NOTE
  6
CONTINUOUS
 62
     4
 10
-100.0
 20
-19.945571999999999
 30
0.0
 11
-100.0
 21
20.054428000000001
 31
0.0
  0
LINE
  5
787
  8
NOTE
  6
CONTINUOUS
 62
     4
 10
-80.0
 20
0.054428
 30
0.0
 11
-120.0
 21
0.054428
 31
0.0
  0
LINE
  5
788
  8
NOTE
  6
CONTINUOUS
 62
     4
 10
-165.0
 20
-19.945571999999999
 30
0.0
 11
-165.0
 21
20.054428000000001
 31
0.0
  0
LINE
  5
789
  8
NOTE
  6
CONTINUOUS
 62
     4
 10
-145.0
 20
0.054428
 30
0.0
 11
-185.0
 21
0.054428
 31
0.0
  0
LINE
  5
78E
  8
NOTE
  6
CONTINUOUS
 62
     4
 10
-115.0
 20
135.054428
 30
0.0
 11
-115.0
 21
175.05442799999969
 31
0.0
  0
LINE
  5
78F
  8
DETAIL
  6
DASHDOT
 62
     5
 10
18.0
 20
190.4544139999999
 30
0.0
 11
18.0
 21
185.054428
 31
0.0
  0
LINE
  5
790
  8
DETAIL
  6
DASHDOT
 62
     5
 10
-64.0
 20
190.4544139999999
 30
0.0
 11
-64.0
 21
185.054428
 31
0.0
  0
ARC
  5
791
  8
DETAIL
  6
CONTINUOUS
 62
     5
 10
-59.0
 20
190.4544139999999
 30
0.0
 40
5.0
 50
90.0
 51
180.0
  0
ARC
  5
792
  8
DETAIL
  6
CONTINUOUS
 62
     5
 10
13.0
 20
190.4544139999999
 30
0.0
 40
5.0
 50
0.0
 51
90.0
  0
LINE
  5
798
  8
SIZE
  6
CONTINUOUS
 62
    30
 10
-64.0
 20
210.4544139999999
 30
0.0
 11
-63.999999999999979
 21
557.7981437321605
 31
0.0
  0
LINE
  5
799
  8
SIZE
  6
CONTINUOUS
 62
    30
 10
18.0
 20
210.4544139999999
 30
0.0
 11
18.000000000000011
 21
557.7981437321605
 31
0.0
  0
LINE
  5
79A
  8
SIZE
  6
CONTINUOUS
 62
    30
 10
-51.999999999999979
 20
527.7981437321605
 30
0.0
 11
6.0000000000000204
 21
527.7981437321605
 31
0.0
  0
LINE
  5
79D
  8
SIZE
  6
CONTINUOUS
 62
    30
 10
-0.0000000000000012
 20
-78.610778000000025
 30
0.0
 11
-0.0000000000000092
 21
-208.86595088425469
 31
0.0
  0
LINE
  5
79E
  8
SIZE
  6
CONTINUOUS
 62
    30
 10
-115.0
 20
115.054428
 30
0.0
 11
-115.0
 21
-208.86595088425469
 31
0.0
  0
LINE
  5
79F
  8
SIZE
  6
CONTINUOUS
 62
    30
 10
-12.0
 20
-178.8659508842546
 30
0.0
 11
-103.0
 21
-178.8659508842546
 31
0.0
  0
LINE
  5
7A0
  8
SIZE
  6
CONTINUOUS
 62
    30
 10
-115.0
 20
-178.8659508842546
 30
0.0
 11
-375.62423522039109
 21
-178.8659508842546
 31
0.0
  0
TEXT
  5
7A3
  8
SIZE
  6
CONTINUOUS
 62
    30
 10
-355.62423522039109
 20
-158.8659508842546
 30
0.0
 40
64.0
  1
115
 41
0.9
  0
TEXT
  5
7A4
  8
SIZE
  6
BYBLOCK
 62
    30
 10
-111.0544308882954
 20
550.48257569927955
 30
0.0
 40
64.0
  1
φ82
 41
0.9
  0
TEXT
  5
7AE
  8
ETC
  6
CONTINUOUS
 62
    61
 10
1093.2291998969899
 20
1073.8343061914661
 30
0.0
 40
50.0
  1
VD-18ZFLC7
 41
0.9
  0
TEXT
  5
7AF
  8
ETC
  6
CONTINUOUS
 62
    61
 10
1093.2291998969899
 20
973.1471596768979
 30
0.0
 40
50.0
  1
VD-18ZFPC7
 41
0.9
  0
TEXT
  5
7B0
  8
ETC
  6
CONTINUOUS
 62
    61
 10
952.34112518906647
 20
1256.64207011189
 30
0.0
 40
64.0
  1
VD-18ZFLC7_3
 41
0.9
  0
TEXT
  5
7B1
  8
ETC
  6
CONTINUOUS
 62
    61
 10
948.06004218906583
 20
1153.8670701118911
 30
0.0
 40
64.0
  1
換気扇
 41
0.9
  0
CIRCLE
  5
7B2
  8
SIZE
  6
CONTINUOUS
 62
    30
 10
-0.0000000000000074
 20
-178.8659508842546
 30
0.0
 40
6.0
  0
LINE
  5
7B3
  8
SIZE
  6
CONTINUOUS
 62
    30
 10
-0.0000000000000074
 20
-178.8659508842546
 30
0.0
 11
-12.0
 21
-178.8659508842546
 31
0.0
  0
CIRCLE
  5
7B4
  8
SIZE
  6
CONTINUOUS
 62
    30
 10
-115.0
 20
-178.8659508842546
 30
0.0
 40
6.0
  0
LINE
  5
7B5
  8
SIZE
  6
CONTINUOUS
 62
    30
 10
-115.0
 20
-178.8659508842546
 30
0.0
 11
-103.0
 21
-178.8659508842546
 31
0.0
  0
ARC
  5
7B6
  8
DETAIL
  6
CONTINUOUS
 62
     5
 10
-190.6531314213122
 20
-8.4994533355303297
 30
0.0
 40
4.3468685786884018
 50
179.9999692155333
 51
234.48040473296439
  0
ARC
  5
7B7
  8
DETAIL
  6
CONTINUOUS
 62
     5
 10
-173.85271285375001
 20
15.03675434828134
 30
0.0
 40
33.264114923742127
 50
234.48032489959931
 51
253.52867051220761
  0
ARC
  5
7B8
  8
DETAIL
  6
CONTINUOUS
 62
     5
 10
-162.52209515784139
 20
53.358355301539291
 30
0.0
 40
73.225696436334772
 50
253.52859718138629
 51
263.0177691889362
  0
ARC
  5
7B9
  8
DETAIL
  6
CONTINUOUS
 62
     5
 10
-155.00014469848099
 20
114.7761173357016
 30
0.0
 40
135.10235788464519
 50
263.01771384064739
 51
265.69788821887317
  0
LINE
  5
7BA
  8
NOTE
  6
CONTINUOUS
 62
     4
 10
-154.33255462902079
 20
164.64779555180951
 30
0.0
 11
-478.93530800000002
 21
244.8391079999999
 31
0.0
1001
ACAD
1000
DSTYLE
1002
{
1070
    41
1040
40.0
1070
    42
1040
20.0
1070
    43
1040
200.0
1070
    44
1040
30.0
1070
    73
1070
     0
1070
    74
1070
     0
1070
    77
1070
     0
1070
    78
1070
     8
1070
   140
1040
64.0
1070
   147
1040
20.0
1070
   172
1070
     1
1070
   174
1070
     1
1070
   341
1005
1AD
1070
   342
1005
1A9
1002
}
  0
LINE
  5
7BB
  8
NOTE
  6
CONTINUOUS
 62
     4
 10
-151.7620195641411
 20
175.0529471102864
 30
0.0
 11
-115.5
 21
155.05442799999969
 31
0.0
  0
LINE
  5
7BC
  8
NOTE
  6
CONTINUOUS
 62
     4
 10
-115.5
 20
155.05442799999969
 30
0.0
 11
-156.9030896939004
 21
154.24264399333259
 31
0.0
  0
LINE
  5
7BD
  8
NOTE
  6
CONTINUOUS
 62
     4
 10
-115.5
 20
155.05442799999969
 30
0.0
 11
-154.33255462902079
 21
164.64779555180951
 31
0.0
  0
CIRCLE
  5
7BE
  8
SIZE
  6
CONTINUOUS
 62
    30
 10
-63.999999999999979
 20
527.7981437321605
 30
0.0
 40
6.0
  0
LINE
  5
7BF
  8
SIZE
  6
CONTINUOUS
 62
    30
 10
-63.999999999999979
 20
527.7981437321605
 30
0.0
 11
-51.999999999999979
 21
527.7981437321605
 31
0.0
  0
ARC
  5
7C0
  8
DETAIL
  6
CONTINUOUS
 62
     5
 10
190.6531314213122
 20
-8.4994533355303297
 30
0.0
 40
4.3468685786884018
 50
305.51959526703553
 51
0.0000307844666481
  0
ARC
  5
7C1
  8
DETAIL
  6
CONTINUOUS
 62
     5
 10
173.85271285375001
 20
15.03675434828134
 30
0.0
 40
33.264114923742127
 50
286.47132948779222
 51
305.5196751004006
  0
ARC
  5
7C2
  8
DETAIL
  6
CONTINUOUS
 62
     5
 10
162.52209515784139
 20
53.358355301539291
 30
0.0
 40
73.225696436334772
 50
276.98223081106369
 51
286.47140281861363
  0
ARC
  5
7C3
  8
DETAIL
  6
CONTINUOUS
 62
     5
 10
155.00014469848099
 20
114.7761173357016
 30
0.0
 40
135.10235788464519
 50
274.30211178112671
 51
276.98228615935261
  0
LINE
  5
7C4
  8
NOTE
  6
CONTINUOUS
 62
     4
 10
211.3210829999999
 20
178.5664889999999
 30
0.0
 11
172.3572639999999
 21
169.521004
 31
0.0
  0
LINE
  5
7C5
  8
NOTE
  6
CONTINUOUS
 62
     4
 10
172.3572639999999
 20
169.521004
 30
0.0
 11
201.57817800000001
 21
196.836533
 31
0.0
  0
CIRCLE
  5
7C6
  8
SIZE
  6
CONTINUOUS
 62
    30
 10
18.000000000000011
 20
527.7981437321605
 30
0.0
 40
6.0
  0
LINE
  5
7C7
  8
SIZE
  6
CONTINUOUS
 62
    30
 10
18.000000000000011
 20
527.7981437321605
 30
0.0
 11
6.0000000000000098
 21
527.7981437321605
 31
0.0
  0
ENDSEC
  0
EOF
