  0
SECTION
  2
HEADER
  9
$ACADVER
  1
AC1009
  9
$DWGCODEPAGE
  3
ansi_932
  9
$INSBASE
 10
0.0
 20
0.0
 30
0.0
  9
$EXTMIN
 10
-790.5692520000001
 20
-981.5599119999999
 30
0.0
  9
$EXTMAX
 10
1652.126824571429
 20
1268.15219
 30
0.0
  9
$LIMMIN
 10
-2970.0
 20
-2100.0
  9
$LIMMAX
 10
2970.0
 20
2100.0
  9
$ORTHOMODE
 70
     0
  9
$REGENMODE
 70
     0
  9
$FILLMODE
 70
     1
  9
$QTEXTMODE
 70
     0
  9
$MIRRTEXT
 70
     0
  9
$DRAGMODE
 70
     2
  9
$LTSCALE
 40
20.0
  9
$OSMODE
 70
    37
  9
$ATTMODE
 70
     1
  9
$TEXTSIZE
 40
64.0
  9
$TRACEWID
 40
0.05
  9
$TEXTSTYLE
  7
STANDARD
  9
$CLAYER
  8
SIZE
  9
$CELTYPE
  6
CONTINUOUS
  9
$CECOLOR
 62
    30
  9
$DIMSCALE
 40
1.0
  9
$DIMASZ
 40
12.0
  9
$DIMEXO
 40
20.0
  9
$DIMDLI
 40
200.0
  9
$DIMRND
 40
0.0
  9
$DIMDLE
 40
0.0
  9
$DIMEXE
 40
30.0
  9
$DIMTP
 40
0.0
  9
$DIMTM
 40
0.0
  9
$DIMTXT
 40
64.0
  9
$DIMCEN
 40
0.09
  9
$DIMTSZ
 40
0.0
  9
$DIMTOL
 70
     0
  9
$DIMLIM
 70
     0
  9
$DIMTIH
 70
     0
  9
$DIMTOH
 70
     0
  9
$DIMSE1
 70
     0
  9
$DIMSE2
 70
     0
  9
$DIMTAD
 70
     1
  9
$DIMZIN
 70
     8
  9
$DIMBLK
  1
ORIGIN
  9
$DIMASO
 70
     1
  9
$DIMSHO
 70
     0
  9
$DIMPOST
  1

  9
$DIMAPOST
  1

  9
$DIMALT
 70
     0
  9
$DIMALTD
 70
     2
  9
$DIMALTF
 40
25.4
  9
$DIMLFAC
 40
1.0
  9
$DIMTOFL
 70
     1
  9
$DIMTVP
 40
0.0
  9
$DIMTIX
 70
     0
  9
$DIMSOXD
 70
     0
  9
$DIMSAH
 70
     0
  9
$DIMBLK1
  1

  9
$DIMBLK2
  1

  9
$DIMSTYLE
  2
STANDARD
  9
$DIMCLRD
 70
     0
  9
$DIMCLRE
 70
     0
  9
$DIMCLRT
 70
     0
  9
$DIMTFAC
 40
1.0
  9
$DIMGAP
 40
20.0
  9
$LUNITS
 70
     2
  9
$LUPREC
 70
     4
  9
$SKETCHINC
 40
0.1
  9
$FILLETRAD
 40
5.0
  9
$AUNITS
 70
     1
  9
$AUPREC
 70
     3
  9
$MENU
  1
ACAD
  9
$ELEVATION
 40
0.0
  9
$PELEVATION
 40
0.0
  9
$THICKNESS
 40
0.0
  9
$LIMCHECK
 70
     0
  9
$CHAMFERA
 40
0.0
  9
$CHAMFERB
 40
0.0
  9
$SKPOLY
 70
     0
  9
$TDCREATE
 40
2451373.381226852
  9
$TDUPDATE
 40
2457485.595103634
  9
$TDINDWG
 40
0.1115870833
  9
$TDUSRTIMER
 40
0.1115868981
  9
$USRTIMER
 70
     1
  9
$ANGBASE
 50
0.0
  9
$ANGDIR
 70
     0
  9
$PDMODE
 70
     3
  9
$PDSIZE
 40
-2.0
  9
$PLINEWID
 40
0.0
  9
$COORDS
 70
     1
  9
$SPLFRAME
 70
     0
  9
$SPLINETYPE
 70
     6
  9
$SPLINESEGS
 70
     8
  9
$ATTDIA
 70
     0
  9
$ATTREQ
 70
     1
  9
$HANDLING
 70
     1
  9
$HANDSEED
  5
1974
  9
$SURFTAB1
 70
     6
  9
$SURFTAB2
 70
     6
  9
$SURFTYPE
 70
     6
  9
$SURFU
 70
     6
  9
$SURFV
 70
     6
  9
$UCSNAME
  2

  9
$UCSORG
 10
0.0
 20
0.0
 30
0.0
  9
$UCSXDIR
 10
1.0
 20
0.0
 30
0.0
  9
$UCSYDIR
 10
0.0
 20
1.0
 30
0.0
  9
$PUCSNAME
  2

  9
$PUCSORG
 10
0.0
 20
0.0
 30
0.0
  9
$PUCSXDIR
 10
1.0
 20
0.0
 30
0.0
  9
$PUCSYDIR
 10
0.0
 20
1.0
 30
0.0
  9
$USERI1
 70
     0
  9
$USERI2
 70
     0
  9
$USERI3
 70
     0
  9
$USERI4
 70
     0
  9
$USERI5
 70
     0
  9
$USERR1
 40
20.0
  9
$USERR2
 40
0.0
  9
$USERR3
 40
0.0
  9
$USERR4
 40
0.0
  9
$USERR5
 40
0.0
  9
$WORLDVIEW
 70
     1
  9
$SHADEDGE
 70
     3
  9
$SHADEDIF
 70
    70
  9
$TILEMODE
 70
     1
  9
$MAXACTVP
 70
    48
  9
$PLIMCHECK
 70
     0
  9
$PEXTMIN
 10
1.000000000000000E+20
 20
1.000000000000000E+20
 30
1.000000000000000E+20
  9
$PEXTMAX
 10
-1.000000000000000E+20
 20
-1.000000000000000E+20
 30
-1.000000000000000E+20
  9
$PLIMMIN
 10
0.0
 20
0.0
  9
$PLIMMAX
 10
12.0
 20
9.0
  9
$UNITMODE
 70
     0
  9
$VISRETAIN
 70
     1
  9
$PLINEGEN
 70
     0
  9
$PSLTSCALE
 70
     1
  0
ENDSEC
  0
SECTION
  2
TABLES
  0
TABLE
  2
VPORT
 70
     1
  0
VPORT
  2
*ACTIVE
 70
     0
 10
0.0
 20
0.0
 11
1.0
 21
1.0
 12
357.2702481345427
 22
143.2978101605922
 13
0.0
 23
0.0
 14
50.0
 24
50.0
 15
400.0
 25
400.0
 16
0.0
 26
0.0
 36
1.0
 17
0.0
 27
0.0
 37
0.0
 40
2412.874191841716
 41
1.710526315789473
 42
50.0
 43
0.0
 44
0.0
 50
0.0
 51
0.0
 71
     0
 72
   500
 73
     1
 74
     0
 75
     0
 76
     0
 77
     0
 78
     2
  0
ENDTAB
  0
TABLE
  2
LTYPE
 70
     8
  0
LTYPE
  2
CONTINUOUS
 70
     0
  3
実線
 72
    65
 73
     0
 40
0.0
  0
LTYPE
  2
DASHDOT
 70
     0
  3
____ _ ____ _ ____ _ ____ _ ____ _ ____ _ ____
 72
    65
 73
     4
 40
5.5
 49
4.0
 49
-0.6
 49
0.3
 49
-0.6
  0
LTYPE
  2
DASHED
 70
     0
  3
_ _ _ _ _ _ _ _ _ _ _ _ _ _ _ _ _ _ _ _ _ _ _
 72
    65
 73
     2
 40
1.999999999999999
 49
1.199999999999999
 49
-0.8
  0
LTYPE
  2
DOT
 70
     0
  3
...............................................
 72
    65
 73
     2
 40
0.8
 49
0.5
 49
-0.3
  0
LTYPE
  2
DASHDOT1
 70
     0
  3
____ _ ____ _ ____ _ ____ _ ____ _ ____ _ ____
 72
    65
 73
     4
 40
2.0
 49
1.5
 49
-0.2
 49
0.1
 49
-0.2
  0
LTYPE
  2
DIVIDE
 70
     0
  3
_____ _ _ _____ _ _ _____ _ _ _____ _ _ ____
 72
    65
 73
     6
 40
6.4
 49
4.0
 49
-0.6
 49
0.3
 49
-0.6
 49
0.3
 49
-0.6
  0
LTYPE
  2
DIVIDE1
 70
     0
  3
_____ _ _ _____ _ _ _____ _ _ _____ _ _ ____
 72
    65
 73
     6
 40
3.2
 49
2.0
 49
-0.3
 49
0.15
 49
-0.3
 49
0.15
 49
-0.3
  0
LTYPE
  2
DASHED2
 70
     0
  3
Dashed (.5x) _ _ _ _ _ _ _ _ _ _ _ _ _ _ _ _ _
 72
    65
 73
     2
 40
0.375
 49
0.25
 49
-0.125
  0
ENDTAB
  0
TABLE
  2
LAYER
 70
    12
  0
LAYER
  2
0
 70
     0
 62
     7
  6
CONTINUOUS
  0
LAYER
  2
SIZE
 70
     0
 62
    30
  6
CONTINUOUS
  0
LAYER
  2
OUTLINE
 70
     0
 62
     3
  6
CONTINUOUS
  0
LAYER
  2
DETAIL
 70
     0
 62
     5
  6
CONTINUOUS
  0
LAYER
  2
BASIS
 70
     0
 62
     6
  6
DASHDOT
  0
LAYER
  2
NOTE
 70
     0
 62
     4
  6
CONTINUOUS
  0
LAYER
  2
DEFPOINTS
 70
     0
 62
     7
  6
CONTINUOUS
  0
LAYER
  2
FIX
 70
     0
 62
    11
  6
CONTINUOUS
  0
LAYER
  2
ARRANGE
 70
     0
 62
     1
  6
CONTINUOUS
  0
LAYER
  2
ETC
 70
     0
 62
    61
  6
CONTINUOUS
  0
LAYER
  2
SERVICESPACE
 70
     0
 62
     2
  6
DASHDOT
  0
LAYER
  2
SYMBOLLINE
 70
     0
 62
    15
  6
CONTINUOUS
  0
ENDTAB
  0
TABLE
  2
STYLE
 70
     1
  0
STYLE
  2
STANDARD
 70
     0
 40
0.0
 41
0.9
 50
0.0
 71
     0
 42
64.0
  3
SIMPLEX
  4
BIGFONT
  0
ENDTAB
  0
TABLE
  2
VIEW
 70
     1
  0
VIEW
  2
ALL
 70
     0
 40
4282.619807999997
 10
0.0
 20
41.30990399999999
 41
5940.0
 11
0.0
 21
0.0
 31
1.0
 12
0.0
 22
0.0
 32
0.0
 42
50.0
 43
0.0
 44
0.0
 50
0.0
 71
     0
  0
ENDTAB
  0
TABLE
  2
UCS
 70
     0
  0
ENDTAB
  0
TABLE
  2
APPID
 70
     1
  0
APPID
  2
ACAD
 70
     0
  0
ENDTAB
  0
TABLE
  2
DIMSTYLE
 70
     2
  0
DIMSTYLE
  2
STANDARD
 70
     0
  3

  4

  5

  6

  7

 40
1.0
 41
0.18
 42
0.0625
 43
0.38
 44
0.18
 45
0.0
 46
0.0
 47
0.0
 48
0.0
140
0.18
141
0.09
142
0.0
143
25.4
144
1.0
145
0.0
146
1.0
147
0.09
 71
     0
 72
     0
 73
     1
 74
     1
 75
     0
 76
     0
 77
     0
 78
     0
170
     0
171
     2
172
     0
173
     0
174
     0
175
     0
176
     0
177
     0
178
     0
  0
DIMSTYLE
  2
ISO-25
 70
     0
  3

  4

  5

  6

  7

 40
1.0
 41
2.5
 42
0.625
 43
3.75
 44
1.25
 45
0.0
 46
0.0
 47
0.0
 48
0.0
140
2.5
141
2.5
142
0.0
143
0.03937007874016
144
1.0
145
0.0
146
1.0
147
0.625
 71
     0
 72
     0
 73
     0
 74
     0
 75
     0
 76
     0
 77
     1
 78
     8
170
     0
171
     3
172
     1
173
     0
174
     0
175
     0
176
     0
177
     0
178
     0
  0
ENDTAB
  0
ENDSEC
  0
SECTION
  2
BLOCKS
  0
BLOCK
  8
0
  2
$MODEL_SPACE
 70
     0
 10
0.0
 20
0.0
 30
0.0
  3
$MODEL_SPACE
  1

  0
ENDBLK
  5
15F1
  8
0
  0
BLOCK
 67
     1
  8
0
  2
$PAPER_SPACE
 70
     0
 10
0.0
 20
0.0
 30
0.0
  3
$PAPER_SPACE
  1

  0
ENDBLK
  5
15ED
 67
     1
  8
0
  0
BLOCK
  8
0
  2
_SMALL
 70
     0
 10
0.0
 20
0.0
 30
0.0
  3
_SMALL
  1

  0
CIRCLE
  5
1613
  8
0
  6
BYBLOCK
 62
     0
 10
0.0
 20
0.0
 30
0.0
 40
0.25
  0
ENDBLK
  5
1614
  8
0
 62
     4
  0
BLOCK
  8
0
  2
_OPEN30
 70
     0
 10
0.0
 20
0.0
 30
0.0
  3
_OPEN30
  1

  0
LINE
  5
1617
  8
0
  6
BYBLOCK
 62
     0
 10
-1.0
 20
0.26794919
 30
0.0
 11
0.0
 21
0.0
 31
0.0
  0
LINE
  5
1618
  8
0
  6
BYBLOCK
 62
     0
 10
0.0
 20
0.0
 30
0.0
 11
-1.0
 21
-0.26794919
 31
0.0
  0
LINE
  5
1619
  8
0
  6
BYBLOCK
 62
     0
 10
0.0
 20
0.0
 30
0.0
 11
-1.0
 21
0.0
 31
0.0
  0
ENDBLK
  5
161A
  8
0
 62
     4
  0
BLOCK
  8
0
  2
_ORIGIN
 70
     0
 10
0.0
 20
0.0
 30
0.0
  3
_ORIGIN
  1

  0
CIRCLE
  5
161D
  8
0
  6
BYBLOCK
 62
     0
 10
0.0
 20
0.0
 30
0.0
 40
0.5
  0
LINE
  5
161E
  8
0
  6
BYBLOCK
 62
     0
 10
0.0
 20
0.0
 30
0.0
 11
-1.0
 21
0.0
 31
0.0
  0
ENDBLK
  5
161F
  8
0
 62
     4
  0
BLOCK
  8
0
  2
_NONE
 70
     0
 10
0.0
 20
0.0
 30
0.0
  3
_NONE
  1

  0
ENDBLK
  5
1622
  8
0
 62
     4
  0
BLOCK
  8
0
  2
*D4
 70
     1
 10
0.0
 20
0.0
 30
0.0
  3
*D4
  1

  0
LINE
  5
1625
  8
SIZE
  6
CONTINUOUS
 62
     0
 10
235.0
 20
178.0544279999998
 30
0.0
 11
235.0
 21
581.1327424122509
 31
0.0
  0
LINE
  5
1626
  8
SIZE
  6
CONTINUOUS
 62
     0
 10
223.0
 20
551.1327424122509
 30
0.0
 11
211.0
 21
551.1327424122509
 31
0.0
  0
LINE
  5
1627
  8
SIZE
  6
CONTINUOUS
 62
     0
 10
277.0
 20
551.1327424122509
 30
0.0
 11
422.2571428571428
 21
551.1327424122509
 31
0.0
  0
LINE
  5
1628
  8
SIZE
  6
CONTINUOUS
 62
     0
 10
235.0
 20
551.1327424122509
 30
0.0
 11
265.0
 21
551.1327424122509
 31
0.0
  0
INSERT
  5
1629
  8
SIZE
  6
CONTINUOUS
 62
     0
  2
_ORIGIN
 10
235.0
 20
551.1327424122509
 30
0.0
 41
12.0
 42
12.0
 43
12.0
  0
INSERT
  5
162A
  8
SIZE
  6
CONTINUOUS
 62
     0
  2
_ORIGIN
 10
265.0
 20
551.1327424122509
 30
0.0
 41
12.0
 42
12.0
 43
12.0
 50
180.0
  0
TEXT
  5
162B
  8
SIZE
  6
CONTINUOUS
 62
     0
 10
309.0
 20
571.132742412251
 30
0.0
 40
64.0
  1
30
 41
0.9
  0
POINT
  5
162C
  8
DEFPOINTS
  6
CONTINUOUS
 62
     0
 10
235.0
 20
158.0544279999998
 30
0.0
  0
POINT
  5
162D
  8
DEFPOINTS
  6
CONTINUOUS
 62
     0
 10
265.0
 20
178.0544279999998
 30
0.0
  0
POINT
  5
162E
  8
DEFPOINTS
  6
CONTINUOUS
 62
     0
 10
265.0
 20
551.1327424122509
 30
0.0
  0
ENDBLK
  5
162F
  8
0
 62
    30
  0
BLOCK
  8
0
  2
*U5
 70
     1
 10
0.0
 20
0.0
 30
0.0
  3
*U5
  1

  0
TEXT
  5
1632
  8
SIZE
  6
CONTINUOUS
 62
     0
 10
-85.68571428571427
 20
569.3888254798276
 30
0.0
 40
64.0
  1
\U+2205
 41
0.9
  0
TEXT
  5
1633
  8
SIZE
  6
CONTINUOUS
 62
     0
 10
-33.57142857142853
 20
569.3888254798276
 30
0.0
 40
64.0
  1
82
 41
0.9
  0
ENDBLK
  5
1634
  8
0
 62
    30
  0
BLOCK
  8
0
  2
*U6
 70
     1
 10
0.0
 20
0.0
 30
0.0
  3
*U6
  1

  0
TEXT
  5
1637
  8
SIZE
  6
CONTINUOUS
 62
     0
 10
-85.68571428571427
 20
569.4869419376654
 30
0.0
 40
64.0
  1
\U+2205
 41
0.9
  0
TEXT
  5
1638
  8
SIZE
  6
CONTINUOUS
 62
     0
 10
-33.57142857142853
 20
569.4869419376654
 30
0.0
 40
64.0
  1
82
 41
0.9
  0
ENDBLK
  5
1639
  8
0
 62
    30
  0
BLOCK
  8
0
  2
*U7
 70
     1
 10
0.0
 20
0.0
 30
0.0
  3
*U7
  1

  0
TEXT
  5
163C
  8
SIZE
  6
CONTINUOUS
 62
    30
 10
-85.68571428571427
 20
569.4869419376654
 30
0.0
 40
64.0
  1
\U+2205
 41
0.9
  0
TEXT
  5
163D
  8
SIZE
  6
CONTINUOUS
 62
    30
 10
-33.57142857142853
 20
569.4869419376654
 30
0.0
 40
64.0
  1
82
 41
0.9
  0
ENDBLK
  5
163E
  8
0
 62
    30
  0
BLOCK
  8
0
  2
A$C375D1181
 70
     0
 10
0.0
 20
0.0
 30
0.0
  3
A$C375D1181
  1

  0
LINE
  5
182E
  8
DETAIL
  6
DASHED2
 62
     5
 10
72.59029740083045
 20
26.99235848016177
 30
0.0
 11
0.5877844008305715
 21
79.30524648016166
 31
0.0
  0
LINE
  5
182F
  8
DETAIL
  6
DASHED2
 62
     5
 10
72.00251240083054
 20
26.18334148016177
 30
0.0
 11
-0.0000005991696526
 21
78.49622948016153
 31
0.0
  0
LINE
  5
1830
  8
DETAIL
  6
DASHDOT
 62
     5
 10
0.5877844008305715
 20
79.30524648016166
 30
0.0
 11
-0.0000005991696526
 21
78.49622948016153
 31
0.0
  0
CIRCLE
  5
1831
  8
DETAIL
  6
DASHED
 62
     5
 10
20.11480840083064
 20
65.14624648016186
 30
0.0
 40
2.0
  0
LINE
  5
1832
  8
DETAIL
  6
DASHED
 62
     5
 10
23.35937840083056
 20
62.78892848016167
 30
0.0
 11
17.10986840083063
 21
67.32946348016165
 31
0.0
  0
LINE
  5
1833
  8
BASIS
  6
DASHDOT
 62
     6
 10
24.63200540083064
 20
65.14624648016186
 30
0.0
 11
15.39763840083077
 21
65.14624648016186
 31
0.0
  0
LINE
  5
1834
  8
DETAIL
  6
DASHDOT
 62
     5
 10
72.00251240083054
 20
26.18334148016177
 30
0.0
 11
72.59029740083045
 21
26.99235848016177
 31
0.0
  0
ARC
  5
1835
  8
DETAIL
  6
DASHDOT1
 62
     5
 10
20.11480840083064
 20
64.49999848016175
 30
0.0
 40
64.5
 50
270.0
 51
323.5558419999934
  0
LINE
  5
1836
  8
DETAIL
  6
DASHDOT1
 62
     5
 10
20.11480840083064
 20
-0.0000015198382357
 30
0.0
 11
20.11480840083064
 21
87.64173746181525
 31
0.0
  0
ENDBLK
  5
1838
  8
0
 62
    30
  0
ENDSEC
  0
SECTION
  2
ENTITIES
  0
LINE
  5
163F
  8
BASIS
  6
DASHDOT
 62
     6
 10
0.0
 20
221.961962
 30
0.0
 11
0.0
 21
-58.665206
 31
0.0
  0
LINE
  5
1640
  8
BASIS
  6
DASHDOT
 62
     6
 10
-13.0
 20
213.7921979999999
 30
0.0
 11
-13.0
 21
131.5265479999999
 31
0.0
  0
LINE
  5
1641
  8
BASIS
  6
DASHDOT
 62
     6
 10
302.4509779999996
 20
109.0
 30
0.0
 11
-267.5115139999999
 21
109.0
 31
0.0
  0
LINE
  5
1642
  8
DETAIL
  6
CONTINUOUS
 62
     5
 10
17.63747
 20
195.3999859999999
 30
0.0
 11
16.468962
 21
197.4238879999999
 31
0.0
  0
LINE
  5
1643
  8
DETAIL
  6
CONTINUOUS
 62
     5
 10
22.99999999999996
 20
195.3999859999999
 30
0.0
 11
-13.0
 21
195.3999859999999
 31
0.0
  0
LINE
  5
1644
  8
DETAIL
  6
CONTINUOUS
 62
     5
 10
-13.0
 20
197.423902
 30
0.0
 11
16.46895299999998
 21
197.423902
 31
0.0
  0
LINE
  5
1645
  8
DETAIL
  6
CONTINUOUS
 62
     5
 10
-6.327765999999999
 20
198.4290719999999
 30
0.0
 11
-6.179179
 21
197.423902
 31
0.0
  0
LINE
  5
1646
  8
DETAIL
  6
CONTINUOUS
 62
     5
 10
-8.147988
 20
200.0
 30
0.0
 11
-13.0
 21
200.0
 31
0.0
  0
ARC
  5
1647
  8
DETAIL
  6
CONTINUOUS
 62
     5
 10
-8.147988
 20
198.1599859999999
 30
0.0
 40
1.840000999999999
 50
8.409111000000266
 51
90.0
  0
ARC
  5
1648
  8
DETAIL
  6
CONTINUOUS
 62
     5
 10
-17.85201199999999
 20
198.1599859999999
 30
0.0
 40
1.840000999999999
 50
90.0
 51
171.5908889999997
  0
LINE
  5
1649
  8
DETAIL
  6
CONTINUOUS
 62
     5
 10
-17.85201199999999
 20
200.0
 30
0.0
 11
-13.0
 21
200.0
 31
0.0
  0
LINE
  5
164A
  8
DETAIL
  6
CONTINUOUS
 62
     5
 10
-19.67223399999999
 20
198.4290719999999
 30
0.0
 11
-19.82082099999999
 21
197.423902
 31
0.0
  0
LINE
  5
164B
  8
DETAIL
  6
CONTINUOUS
 62
     5
 10
-13.0
 20
197.423902
 30
0.0
 11
-35.08
 21
197.423902
 31
0.0
  0
LINE
  5
164C
  8
DETAIL
  6
CONTINUOUS
 62
     5
 10
-35.08
 20
195.3999859999999
 30
0.0
 11
-13.0
 21
195.3999859999999
 31
0.0
  0
LINE
  5
164D
  8
DETAIL
  6
CONTINUOUS
 62
     5
 10
-48.99999999999999
 20
195.3999859999999
 30
0.0
 11
-13.0
 21
195.3999859999999
 31
0.0
  0
LINE
  5
164E
  8
DETAIL
  6
CONTINUOUS
 62
     5
 10
-13.0
 20
197.423902
 30
0.0
 11
-42.46895300000001
 21
197.423902
 31
0.0
  0
LINE
  5
164F
  8
DETAIL
  6
CONTINUOUS
 62
     5
 10
-43.63747
 20
195.3999859999999
 30
0.0
 11
-42.468962
 21
197.4238879999999
 31
0.0
  0
TEXT
  5
1650
  8
NOTE
  6
CONTINUOUS
 62
     4
 10
336.328576
 20
63.235351
 30
0.0
 40
64.0
  1
EA
 41
0.9
  0
CIRCLE
  5
1651
  8
FIX
  6
CONTINUOUS
 62
    11
 10
165.0
 20
0.054428
 30
0.0
 40
2.5
  0
CIRCLE
  5
1652
  8
FIX
  6
CONTINUOUS
 62
    11
 10
-165.0
 20
0.054428
 30
0.0
 40
2.5
  0
LINE
  5
1653
  8
DETAIL
  6
CONTINUOUS
 62
     5
 10
-188.0
 20
170.0
 30
0.0
 11
-188.0
 21
166.4999999999996
 31
0.0
  0
LINE
  5
1654
  8
DETAIL
  6
CONTINUOUS
 62
     5
 10
115.5
 20
166.4999999999996
 30
0.0
 11
150.5
 21
166.4999999999996
 31
0.0
  0
LINE
  5
1655
  8
DETAIL
  6
CONTINUOUS
 62
     5
 10
115.5
 20
170.0
 30
0.0
 11
150.5
 21
170.0
 31
0.0
  0
LINE
  5
1656
  8
DETAIL
  6
CONTINUOUS
 62
     5
 10
-155.678469
 20
166.4999999999996
 30
0.0
 11
-188.0
 21
166.4999999999996
 31
0.0
  0
CIRCLE
  5
1657
  8
FIX
  6
CONTINUOUS
 62
    11
 10
-133.0
 20
170.054428
 30
0.0
 40
7.5
  0
CIRCLE
  5
1658
  8
FIX
  6
CONTINUOUS
 62
    11
 10
170.5
 20
170.054428
 30
0.0
 40
7.5
  0
TEXT
  5
1659
  8
NOTE
  6
CONTINUOUS
 62
     4
 10
356.1581739999999
 20
-107.576705
 30
0.0
 40
64.0
  1
EL
 41
0.9
  0
LINE
  5
165A
  8
NOTE
  6
CONTINUOUS
 62
     4
 10
332.5285119999999
 20
-131.8284679999999
 30
0.0
 11
451.333924
 21
-131.8284679999999
 31
0.0
  0
POINT
  5
165B
  8
ARRANGE
  6
CONTINUOUS
 62
     1
 10
0.0
 20
0.0
 30
0.0
  0
CIRCLE
  5
165C
  8
ARRANGE
  6
CONTINUOUS
 62
     1
 10
0.0
 20
0.0
 30
0.0
 40
40.0
  0
LINE
  5
165D
  8
SIZE
  6
CONTINUOUS
 62
    30
 10
1186.833999999998
 20
-23.99999999999999
 30
0.0
 11
1186.833999999998
 21
-159.4714529999999
 31
0.0
  0
CIRCLE
  5
165E
  8
FIX
  6
CONTINUOUS
 62
    11
 10
-170.5
 20
170.054428
 30
0.0
 40
7.5
  0
LINE
  5
165F
  8
DETAIL
  6
CONTINUOUS
 62
     5
 10
155.678469
 20
166.4999999999996
 30
0.0
 11
188.0
 21
166.4999999999996
 31
0.0
  0
LINE
  5
1660
  8
DETAIL
  6
CONTINUOUS
 62
     5
 10
188.0
 20
170.0
 30
0.0
 11
188.0
 21
166.4999999999996
 31
0.0
  0
LINE
  5
1661
  8
DETAIL
  6
CONTINUOUS
 62
     5
 10
165.1349129999998
 20
-20.0
 30
0.0
 11
-165.1349129999998
 21
-20.0
 31
0.0
  0
LINE
  5
1662
  8
DETAIL
  6
CONTINUOUS
 62
     5
 10
-195.0
 20
-8.553879
 30
0.0
 11
-195.0
 21
0.0
 31
0.0
  0
LINE
  5
1663
  8
DETAIL
  6
CONTINUOUS
 62
     5
 10
195.0
 20
-8.553879
 30
0.0
 11
195.0
 21
0.0
 31
0.0
  0
LINE
  5
1664
  8
DETAIL
  6
CONTINUOUS
 62
     5
 10
-156.4999999999994
 20
-20.0
 30
0.0
 11
-156.4999999999994
 21
0.0
 31
0.0
  0
LINE
  5
1665
  8
DETAIL
  6
CONTINUOUS
 62
     5
 10
156.4999999999994
 20
-20.0
 30
0.0
 11
156.4999999999994
 21
0.0
 31
0.0
  0
LINE
  5
1666
  8
DETAIL
  6
CONTINUOUS
 62
     5
 10
195.000007
 20
0.0
 30
0.0
 11
-195.000007
 21
0.0
 31
0.0
  0
LINE
  5
1667
  8
DETAIL
  6
CONTINUOUS
 62
     5
 10
-188.0
 20
170.0
 30
0.0
 11
-152.0
 21
170.0
 31
0.0
  0
CIRCLE
  5
1668
  8
FIX
  6
CONTINUOUS
 62
    11
 10
100.0
 20
0.054428
 30
0.0
 40
2.5
  0
LINE
  5
1669
  8
DETAIL
  6
CONTINUOUS
 62
     5
 10
150.5
 20
170.0
 30
0.0
 11
150.5
 21
161.4999999999998
 31
0.0
  0
LINE
  5
166A
  8
SIZE
  6
CONTINUOUS
 62
    30
 10
693.1932989999997
 20
-3.999999999999998
 30
0.0
 11
693.1932989999997
 21
-206.3735189999999
 31
0.0
  0
LINE
  5
166B
  8
DETAIL
  6
CONTINUOUS
 62
     5
 10
194.7523999999999
 20
-10.0
 30
0.0
 11
156.4999999999994
 21
-10.0
 31
0.0
  0
LINE
  5
166C
  8
DETAIL
  6
CONTINUOUS
 62
     5
 10
-153.5
 20
-20.0
 30
0.0
 11
-153.5
 21
0.0
 31
0.0
  0
LINE
  5
166D
  8
DETAIL
  6
CONTINUOUS
 62
     5
 10
153.5
 20
-20.0
 30
0.0
 11
153.5
 21
0.0
 31
0.0
  0
LINE
  5
166E
  8
DETAIL
  6
CONTINUOUS
 62
     5
 10
124.0
 20
185.0
 30
0.0
 11
27.99999999999997
 21
185.0
 31
0.0
  0
LINE
  5
166F
  8
DETAIL
  6
CONTINUOUS
 62
     5
 10
152.0
 20
177.0
 30
0.0
 11
150.3924539999998
 21
177.0
 31
0.0
  0
LINE
  5
1670
  8
DETAIL
  6
CONTINUOUS
 62
     5
 10
124.0
 20
185.0
 30
0.0
 11
124.0
 21
177.0
 31
0.0
  0
LINE
  5
1671
  8
DETAIL
  6
CONTINUOUS
 62
     5
 10
-124.0
 20
185.0
 30
0.0
 11
-124.0
 21
177.0
 31
0.0
  0
LINE
  5
1672
  8
DETAIL
  6
CONTINUOUS
 62
     5
 10
-155.0
 20
0.0
 30
0.0
 11
-152.0
 21
177.0
 31
0.0
  0
LINE
  5
1673
  8
DETAIL
  6
CONTINUOUS
 62
     5
 10
155.0
 20
0.0
 30
0.0
 11
152.0
 21
177.0
 31
0.0
  0
LINE
  5
1674
  8
DETAIL
  6
CONTINUOUS
 62
     5
 10
-175.0
 20
56.5
 30
0.0
 11
-175.0
 21
161.4999999999998
 31
0.0
  0
LINE
  5
1675
  8
DETAIL
  6
CONTINUOUS
 62
     5
 10
-195.713394
 20
161.4999999999998
 30
0.0
 11
-180.262712
 21
161.4999999999998
 31
0.0
  0
LINE
  5
1676
  8
DETAIL
  6
CONTINUOUS
 62
     5
 10
-210.0
 20
56.5
 30
0.0
 11
-210.0
 21
161.4999999999998
 31
0.0
  0
LINE
  5
1677
  8
DETAIL
  6
CONTINUOUS
 62
     5
 10
-235.0
 20
60.0
 30
0.0
 11
-235.0
 21
157.9999999999998
 31
0.0
  0
LINE
  5
1678
  8
DETAIL
  6
CONTINUOUS
 62
     5
 10
-210.0
 20
161.4999999999998
 30
0.0
 11
-152.2627119999999
 21
161.4999999999998
 31
0.0
  0
LINE
  5
1679
  8
DETAIL
  6
CONTINUOUS
 62
     5
 10
-210.0
 20
56.5
 30
0.0
 11
-175.0
 21
56.5
 31
0.0
  0
LINE
  5
167A
  8
DETAIL
  6
CONTINUOUS
 62
     5
 10
-235.0
 20
157.9999999999998
 30
0.0
 11
-210.0
 21
157.9999999999998
 31
0.0
  0
LINE
  5
167B
  8
DETAIL
  6
CONTINUOUS
 62
     5
 10
-235.0
 20
60.0
 30
0.0
 11
-210.0
 21
60.0
 31
0.0
  0
LINE
  5
167C
  8
DETAIL
  6
CONTINUOUS
 62
     5
 10
115.5
 20
170.0
 30
0.0
 11
115.5
 21
166.4999999999996
 31
0.0
  0
LINE
  5
167D
  8
DETAIL
  6
CONTINUOUS
 62
     5
 10
188.0
 20
170.0
 30
0.0
 11
152.1186439999999
 21
170.0
 31
0.0
  0
LINE
  5
167E
  8
DETAIL
  6
CONTINUOUS
 62
     5
 10
158.4994969999999
 20
0.059314
 30
0.0
 11
155.678469
 21
166.4999999999996
 31
0.0
  0
LINE
  5
167F
  8
DETAIL
  6
CONTINUOUS
 62
     5
 10
152.2627119999999
 20
161.4999999999998
 30
0.0
 11
150.5
 21
161.4999999999998
 31
0.0
  0
LINE
  5
1680
  8
DETAIL
  6
CONTINUOUS
 62
     5
 10
115.5
 20
166.4999999999996
 30
0.0
 11
115.5
 21
0.0
 31
0.0
  0
LINE
  5
1681
  8
DETAIL
  6
CONTINUOUS
 62
     5
 10
-158.4994969999999
 20
0.059314
 30
0.0
 11
-157.775825
 21
42.75595599999999
 31
0.0
  0
LINE
  5
1682
  8
DETAIL
  6
CONTINUOUS
 62
     5
 10
-155.763215
 20
161.4999999999998
 30
0.0
 11
-155.678469
 21
166.4999999999996
 31
0.0
  0
CIRCLE
  5
1683
  8
FIX
  6
CONTINUOUS
 62
    11
 10
-100.0
 20
0.054428
 30
0.0
 40
2.5
  0
LINE
  5
1684
  8
DETAIL
  6
CONTINUOUS
 62
     5
 10
153.5
 20
-10.0
 30
0.0
 11
-153.5
 21
-10.0
 31
0.0
  0
LINE
  5
1685
  8
DETAIL
  6
CONTINUOUS
 62
     5
 10
-156.4999999999994
 20
-10.0
 30
0.0
 11
-194.7523999999999
 21
-10.0
 31
0.0
  0
TEXT
  5
1686
  8
NOTE
  6
CONTINUOUS
 62
     4
 10
-388.7829659999999
 20
66.23672899999998
 30
0.0
 40
64.0
  1
RA
 41
0.9
  0
LINE
  5
1687
  8
DETAIL
  6
CONTINUOUS
 62
     5
 10
-124.0
 20
177.0
 30
0.0
 11
-152.0
 21
177.0
 31
0.0
  0
LINE
  5
1688
  8
DETAIL
  6
CONTINUOUS
 62
     5
 10
187.8204608106679
 20
161.4999999999998
 30
0.0
 11
188.0
 21
161.4999999999998
 31
0.0
  0
LINE
  5
1689
  8
DETAIL
  6
CONTINUOUS
 62
     5
 10
235.0
 20
157.9999999999998
 30
0.0
 11
265.0
 21
157.9999999999998
 31
0.0
  0
LINE
  5
168A
  8
DETAIL
  6
CONTINUOUS
 62
     5
 10
265.0
 20
60.0
 30
0.0
 11
265.0
 21
157.9999999999998
 31
0.0
  0
LINE
  5
168B
  8
DETAIL
  6
CONTINUOUS
 62
     5
 10
235.0
 20
60.0
 30
0.0
 11
265.0
 21
60.0
 31
0.0
  0
LINE
  5
168C
  8
DETAIL
  6
CONTINUOUS
 62
     5
 10
194.9999999999994
 20
56.5
 30
0.0
 11
231.3891131247236
 21
56.5
 31
0.0
  0
LINE
  5
168D
  8
DETAIL
  6
CONTINUOUS
 62
     5
 10
155.692534
 20
165.6701699999999
 30
0.0
 11
194.9999999999994
 21
161.4999999999998
 31
0.0
  0
LINE
  5
168E
  8
DETAIL
  6
CONTINUOUS
 62
     5
 10
115.5
 20
154.9999999999996
 30
0.0
 11
64.775973
 21
154.9999999999996
 31
0.0
  0
LINE
  5
168F
  8
DETAIL
  6
CONTINUOUS
 62
     5
 10
-77.0
 20
169.0
 30
0.0
 11
-89.444444
 21
154.9999999999996
 31
0.0
  0
LINE
  5
1690
  8
DETAIL
  6
CONTINUOUS
 62
     5
 10
-77.0
 20
169.0
 30
0.0
 11
-53.551026
 21
169.0
 31
0.0
  0
LINE
  5
1691
  8
DETAIL
  6
CONTINUOUS
 62
     5
 10
-138.052477
 20
172.0
 30
0.0
 11
-138.052477
 21
160.6683079999999
 31
0.0
  0
LINE
  5
1692
  8
DETAIL
  6
CONTINUOUS
 62
     5
 10
-133.45719
 20
172.0
 30
0.0
 11
-138.052477
 21
172.0
 31
0.0
  0
LINE
  5
1693
  8
DETAIL
  6
CONTINUOUS
 62
     5
 10
145.146227
 20
192.9999849999999
 30
0.0
 11
137.8862659999996
 21
192.9999849999999
 31
0.0
  0
LINE
  5
1694
  8
DETAIL
  6
CONTINUOUS
 62
     5
 10
149.3455779999998
 20
184.359985
 30
0.0
 11
145.146227
 21
192.9999849999999
 31
0.0
  0
LINE
  5
1695
  8
DETAIL
  6
CONTINUOUS
 62
     5
 10
137.8862659999996
 20
192.9999849999999
 30
0.0
 11
131.2346339999992
 21
186.199985
 31
0.0
  0
LINE
  5
1696
  8
DETAIL
  6
CONTINUOUS
 62
     5
 10
131.2346339999992
 20
186.199985
 30
0.0
 11
131.194487
 21
183.8999849999999
 31
0.0
  0
LINE
  5
1697
  8
DETAIL
  6
CONTINUOUS
 62
     5
 10
131.3430749999999
 20
177.4599849999999
 30
0.0
 11
127.035281
 21
170.0
 31
0.0
  0
LINE
  5
1698
  8
DETAIL
  6
CONTINUOUS
 62
     5
 10
149.3455779999998
 20
184.359985
 30
0.0
 11
149.353607
 21
183.8999849999999
 31
0.0
  0
LINE
  5
1699
  8
DETAIL
  6
CONTINUOUS
 62
     5
 10
150.2864449999998
 20
183.8999849999999
 30
0.0
 11
150.5
 21
170.0
 31
0.0
  0
ARC
  5
169A
  8
DETAIL
  6
CONTINUOUS
 62
     5
 10
129.686633
 20
182.979985
 30
0.0
 40
0.9200000000000002
 50
90.0
 51
180.0
  0
LINE
  5
169B
  8
DETAIL
  6
CONTINUOUS
 62
     5
 10
128.766633
 20
177.4599849999999
 30
0.0
 11
128.766633
 21
182.979985
 31
0.0
  0
LINE
  5
169C
  8
DETAIL
  6
CONTINUOUS
 62
     5
 10
150.2864449999998
 20
183.8999849999999
 30
0.0
 11
129.686633
 21
183.8999849999999
 31
0.0
  0
LINE
  5
169D
  8
DETAIL
  6
CONTINUOUS
 62
     5
 10
128.766633
 20
177.4599849999999
 30
0.0
 11
150.385387
 21
177.4599849999999
 31
0.0
  0
LINE
  5
169E
  8
DETAIL
  6
CONTINUOUS
 62
     5
 10
131.0774549999994
 20
177.0
 30
0.0
 11
124.0
 21
177.0
 31
0.0
  0
LINE
  5
169F
  8
DETAIL
  6
CONTINUOUS
 62
     5
 10
-125.7942039999995
 20
160.6683079999999
 30
0.0
 11
-140.7333089999999
 21
160.6683079999999
 31
0.0
  0
LINE
  5
16A0
  8
DETAIL
  6
CONTINUOUS
 62
     5
 10
-140.7333089999999
 20
160.6683079999999
 30
0.0
 11
-140.7333089999999
 21
154.9999999999996
 31
0.0
  0
LINE
  5
16A1
  8
DETAIL
  6
CONTINUOUS
 62
     5
 10
-125.7942039999995
 20
160.6683079999999
 30
0.0
 11
-125.7942039999995
 21
154.9999999999996
 31
0.0
  0
LINE
  5
16A2
  8
DETAIL
  6
CONTINUOUS
 62
     5
 10
-135.719841
 20
172.0
 30
0.0
 11
-138.052477
 21
172.0
 31
0.0
  0
LINE
  5
16A3
  8
DETAIL
  6
CONTINUOUS
 62
     5
 10
-138.052477
 20
170.6507379999999
 30
0.0
 11
-138.052477
 21
172.0
 31
0.0
  0
LINE
  5
16A4
  8
DETAIL
  6
CONTINUOUS
 62
     5
 10
-133.45719
 20
172.0
 30
0.0
 11
-129.876976
 21
160.6683079999999
 31
0.0
  0
LINE
  5
16A5
  8
DETAIL
  6
CONTINUOUS
 62
     5
 10
-54.0
 20
185.0
 30
0.0
 11
-124.0
 21
185.0
 31
0.0
  0
LINE
  5
16A6
  8
DETAIL
  6
CONTINUOUS
 62
     5
 10
-175.0
 20
56.5
 30
0.0
 11
-154.3220339999994
 21
39.99999999999999
 31
0.0
  0
LINE
  5
16A7
  8
SIZE
  6
CONTINUOUS
 62
    30
 10
-433.2142499999999
 20
157.9999999999998
 30
0.0
 11
-433.2142499999999
 21
364.426702
 31
0.0
  0
LINE
  5
16A8
  8
SIZE
  6
CONTINUOUS
 62
    30
 10
-555.3801899999999
 20
165.4999999999998
 30
0.0
 11
-555.3801899999999
 21
409.511134
 31
0.0
  0
LINE
  5
16A9
  8
SIZE
  6
CONTINUOUS
 62
    30
 10
-694.569252
 20
173.0
 30
0.0
 11
-694.569252
 21
311.145101
 31
0.0
  0
LINE
  5
16AA
  8
SIZE
  6
CONTINUOUS
 62
    30
 10
-304.235177
 20
0.0
 30
0.0
 11
-304.235177
 21
-141.065415
 31
0.0
  0
LINE
  5
16AB
  8
DETAIL
  6
CONTINUOUS
 62
     5
 10
194.9999999999994
 20
56.5
 30
0.0
 11
157.6191469999999
 21
52.0
 31
0.0
  0
LINE
  5
16AC
  8
SIZE
  6
CONTINUOUS
 62
    30
 10
738.2559209999998
 20
157.9999999999998
 30
0.0
 11
738.2559209999998
 21
407.9677149999999
 31
0.0
  0
LINE
  5
16AD
  8
SIZE
  6
CONTINUOUS
 62
    30
 10
573.7769
 20
-2.0
 30
0.0
 11
573.7769
 21
-164.5651169999999
 31
0.0
  0
LINE
  5
16AE
  8
SIZE
  6
CONTINUOUS
 62
    30
 10
265.365023
 20
785.787976
 30
0.0
 11
435.956111
 21
785.787976
 31
0.0
  0
LINE
  5
16AF
  8
SIZE
  6
CONTINUOUS
 62
    30
 10
-242.6349769999999
 20
785.787976
 30
0.0
 11
-415.918641
 21
785.787976
 31
0.0
  0
LINE
  5
16B0
  8
SIZE
  6
CONTINUOUS
 62
    30
 10
-238.6349769999999
 20
663.0237779999995
 30
0.0
 11
-417.2729729999999
 21
663.0237779999995
 31
0.0
  0
LINE
  5
16B1
  8
SIZE
  6
CONTINUOUS
 62
    30
 10
-13.0
 20
281.904552464713
 30
0.0
 11
-359.464721
 21
281.904552464713
 31
0.0
  0
LINE
  5
16B2
  8
SIZE
  6
CONTINUOUS
 62
    30
 10
263.0
 20
405.767066
 30
0.0
 11
453.6450719999999
 21
405.767066
 31
0.0
  0
LINE
  5
16B3
  8
SIZE
  6
CONTINUOUS
 62
    30
 10
-233.0
 20
405.767066
 30
0.0
 11
-423.344186
 21
405.767066
 31
0.0
  0
LINE
  5
16B4
  8
NOTE
  6
CONTINUOUS
 62
     4
 10
172.3572639999999
 20
169.466576
 30
0.0
 11
693.1635459999997
 21
441.5373359999998
 31
0.0
  0
TEXT
  5
16B5
  8
NOTE
  6
CONTINUOUS
 62
     4
 10
704.1953959999998
 20
493.9285969999999
 30
0.0
 40
64.0
  1
AH 4-φ15×22(2点吊り)
 41
0.9
  0
LINE
  5
16B6
  8
NOTE
  6
CONTINUOUS
 62
     4
 10
1649.095
 20
441.5373359999998
 30
0.0
 11
693.1635459999997
 21
441.5373359999998
 31
0.0
  0
TEXT
  5
16B7
  8
NOTE
  6
CONTINUOUS
 62
     4
 10
-45.29061499999989
 20
69.58860099999998
 30
0.0
 40
64.0
  1
RA
 41
0.9
  0
CIRCLE
  5
16B8
  8
DETAIL
  6
CONTINUOUS
 62
     5
 10
0.0
 20
109.0
 30
0.0
 40
52.5
  0
ARC
  5
16B9
  8
DETAIL
  6
CONTINUOUS
 62
     5
 10
34.08695699999999
 20
156.6498789999994
 30
0.0
 40
2.130434999999998
 50
180.0
 51
234.4214739999999
  0
ARC
  5
16BA
  8
DETAIL
  6
CONTINUOUS
 62
     5
 10
29.826087
 20
160.044369
 30
0.0
 40
2.130434999999998
 50
0.0
 51
59.7015339999999
  0
LINE
  5
16BB
  8
DETAIL
  6
CONTINUOUS
 62
     5
 10
0.0
 20
48.076577
 30
0.0
 11
46.89130399999998
 21
48.076577
 31
0.0
  0
ARC
  5
16BC
  8
DETAIL
  6
CONTINUOUS
 62
     5
 10
46.89130399999998
 20
66.185273
 30
0.0
 40
18.108696
 50
270.0
 51
0.0
  0
LINE
  5
16BD
  8
DETAIL
  6
CONTINUOUS
 62
     5
 10
0.0
 20
170.250001
 30
0.0
 11
47.722156
 21
170.250001
 31
0.0
  0
ARC
  5
16BE
  8
DETAIL
  6
CONTINUOUS
 62
     5
 10
46.89130399999998
 20
152.1603749999998
 30
0.0
 40
18.108696
 50
0.0
 51
90.0
  0
LINE
  5
16BF
  8
DETAIL
  6
CONTINUOUS
 62
     5
 10
65.0
 20
66.39130399999999
 30
0.0
 11
65.0
 21
151.608696
 31
0.0
  0
LINE
  5
16C0
  8
DETAIL
  6
CONTINUOUS
 62
     5
 10
31.95652199999999
 20
156.6498789999994
 30
0.0
 11
31.95652199999999
 21
160.044369
 31
0.0
  0
ARC
  5
16C1
  8
DETAIL
  6
CONTINUOUS
 62
     5
 10
0.0
 20
109.0
 30
0.0
 40
55.928228
 50
270.0
 51
90.0
  0
ARC
  5
16C2
  8
DETAIL
  6
CONTINUOUS
 62
     5
 10
0.0
 20
109.0
 30
0.0
 40
61.25
 50
59.70153400000002
 51
90.0
  0
ARC
  5
16C3
  8
DETAIL
  6
CONTINUOUS
 62
     5
 10
0.0
 20
109.0
 30
0.0
 40
61.25
 50
90.0
 51
120.298466
  0
ARC
  5
16C4
  8
DETAIL
  6
CONTINUOUS
 62
     5
 10
0.0
 20
109.0
 30
0.0
 40
55.928228
 50
90.0
 51
270.0
  0
LINE
  5
16C5
  8
DETAIL
  6
CONTINUOUS
 62
     5
 10
-31.95652199999999
 20
156.6498789999994
 30
0.0
 11
-31.95652199999999
 21
160.044369
 31
0.0
  0
LINE
  5
16C6
  8
DETAIL
  6
CONTINUOUS
 62
     5
 10
-65.0
 20
66.39130399999999
 30
0.0
 11
-65.0
 21
151.608696
 31
0.0
  0
ARC
  5
16C7
  8
DETAIL
  6
CONTINUOUS
 62
     5
 10
-46.89130399999998
 20
152.1603749999998
 30
0.0
 40
18.108696
 50
90.0
 51
180.0
  0
LINE
  5
16C8
  8
DETAIL
  6
CONTINUOUS
 62
     5
 10
0.0
 20
170.250001
 30
0.0
 11
-47.722156
 21
170.250001
 31
0.0
  0
ARC
  5
16C9
  8
DETAIL
  6
CONTINUOUS
 62
     5
 10
-46.89130399999998
 20
66.185273
 30
0.0
 40
18.108696
 50
180.0
 51
270.0
  0
LINE
  5
16CA
  8
DETAIL
  6
CONTINUOUS
 62
     5
 10
0.0
 20
48.076577
 30
0.0
 11
-46.89130399999998
 21
48.076577
 31
0.0
  0
ARC
  5
16CB
  8
DETAIL
  6
CONTINUOUS
 62
     5
 10
-29.826087
 20
160.044369
 30
0.0
 40
2.130434999999998
 50
120.2984660000001
 51
180.0
  0
ARC
  5
16CC
  8
DETAIL
  6
CONTINUOUS
 62
     5
 10
-34.08695699999999
 20
156.6498789999994
 30
0.0
 40
2.130434999999998
 50
305.5785259999999
 51
0.0
  0
CIRCLE
  5
16CD
  8
DETAIL
  6
CONTINUOUS
 62
     5
 10
0.0
 20
109.0
 30
0.0
 40
49.0
  0
LINE
  5
16CE
  8
DETAIL
  6
CONTINUOUS
 62
     5
 10
-64.775973
 20
154.9999999999996
 30
0.0
 11
-152.372881
 21
154.9999999999996
 31
0.0
  0
TEXT
  5
16CF
  8
NOTE
  6
CONTINUOUS
 62
     4
 10
-162.654119
 20
206.482233
 30
0.0
 40
64.0
  1
副吸入口3
 41
0.9
  0
LINE
  5
16D0
  8
SIZE
  6
CONTINUOUS
 62
    30
 10
49.0
 20
-254.960287
 30
0.0
 11
383.135758
 21
-254.960287
 31
0.0
  0
LINE
  5
16D1
  8
SIZE
  6
CONTINUOUS
 62
    30
 10
-52.5
 20
-328.6901109999999
 30
0.0
 11
-430.805924
 21
-328.6901109999999
 31
0.0
  0
LINE
  5
16D2
  8
SIZE
  6
CONTINUOUS
 62
    30
 10
877.569661
 20
161.4999999999998
 30
0.0
 11
877.569661
 21
410.608974
 31
0.0
  0
LINE
  5
16D3
  8
SIZE
  6
BYBLOCK
 62
    30
 10
52.5
 20
89.00000000000001
 30
0.0
 11
52.5
 21
-358.6901109999999
 31
0.0
  0
LINE
  5
16D4
  8
SIZE
  6
CONTINUOUS
 62
    30
 10
-52.5
 20
89.00000000000001
 30
0.0
 11
-52.5
 21
-358.6901109999999
 31
0.0
  0
LINE
  5
16D5
  8
SIZE
  6
BYBLOCK
 62
    30
 10
-54.5
 20
-328.6901109999999
 30
0.0
 11
-56.5
 21
-328.6901109999999
 31
0.0
  0
LINE
  5
16D6
  8
SIZE
  6
BYBLOCK
 62
    30
 10
54.5
 20
-328.6901109999999
 30
0.0
 11
56.5
 21
-328.6901109999999
 31
0.0
  0
LINE
  5
16D7
  8
SIZE
  6
BYBLOCK
 62
    30
 10
-52.5
 20
-328.6901109999999
 30
0.0
 11
52.5
 21
-328.6901109999999
 31
0.0
  0
TEXT
  5
16D8
  8
SIZE
  6
BYBLOCK
 62
    30
 10
-430.9540849999999
 20
-296.6901109999999
 30
0.0
 40
64.0
  1
φ105
 41
0.9
  0
LINE
  5
16D9
  8
SIZE
  6
BYBLOCK
 62
    30
 10
49.0
 20
89.00000000000001
 30
0.0
 11
49.0
 21
-284.9602869999996
 31
0.0
  0
LINE
  5
16DA
  8
SIZE
  6
BYBLOCK
 62
    30
 10
-49.0
 20
89.00000000000001
 30
0.0
 11
-49.0
 21
-284.9602869999996
 31
0.0
  0
LINE
  5
16DB
  8
SIZE
  6
BYBLOCK
 62
    30
 10
-51.0
 20
-254.960287
 30
0.0
 11
-53.0
 21
-254.960287
 31
0.0
  0
LINE
  5
16DC
  8
SIZE
  6
BYBLOCK
 62
    30
 10
51.0
 20
-254.960287
 30
0.0
 11
53.0
 21
-254.960287
 31
0.0
  0
LINE
  5
16DD
  8
SIZE
  6
BYBLOCK
 62
    30
 10
-49.0
 20
-254.960287
 30
0.0
 11
49.0
 21
-254.960287
 31
0.0
  0
TEXT
  5
16DE
  8
SIZE
  6
BYBLOCK
 62
    30
 10
209.228629
 20
-222.960287
 30
0.0
 40
64.0
  1
φ98
 41
0.9
  0
LINE
  5
16DF
  8
SIZE
  6
BYBLOCK
 62
    30
 10
265.0
 20
177.9999999999998
 30
0.0
 11
265.0
 21
1202.097762
 31
0.0
  0
LINE
  5
16E0
  8
SIZE
  6
BYBLOCK
 62
    30
 10
-235.0
 20
177.9999999999998
 30
0.0
 11
-235.0
 21
1202.097762
 31
0.0
  0
LINE
  5
16E1
  8
SIZE
  6
BYBLOCK
 62
    30
 10
263.0
 20
1172.097762
 30
0.0
 11
-233.0
 21
1172.097762
 31
0.0
  0
TEXT
  5
16E2
  8
SIZE
  6
BYBLOCK
 62
    30
 10
-59.057143
 20
1204.097762
 30
0.0
 40
64.0
  1
500
 41
0.9
  0
LINE
  5
16E3
  8
SIZE
  6
BYBLOCK
 62
    30
 10
0.0
 20
241.9619619999999
 30
0.0
 11
0.0
 21
435.7670659999998
 31
0.0
  0
LINE
  5
16E4
  8
SIZE
  6
BYBLOCK
 62
    30
 10
-235.0
 20
177.9999999999998
 30
0.0
 11
-235.0
 21
435.7670659999998
 31
0.0
  0
LINE
  5
16E5
  8
SIZE
  6
BYBLOCK
 62
    30
 10
-2.0
 20
405.767066
 30
0.0
 11
-117.5
 21
405.767066
 31
0.0
  0
LINE
  5
16E6
  8
SIZE
  6
BYBLOCK
 62
    30
 10
-233.0
 20
405.767066
 30
0.0
 11
-117.5
 21
405.767066
 31
0.0
  0
TEXT
  5
16E7
  8
SIZE
  6
BYBLOCK
 62
    30
 10
-414.9054859999999
 20
437.7670659999999
 30
0.0
 40
64.0
  1
235
 41
0.9
  0
LINE
  5
16E8
  8
SIZE
  6
BYBLOCK
 62
    30
 10
0.0
 20
241.9619619999999
 30
0.0
 11
0.0
 21
435.7670659999998
 31
0.0
  0
LINE
  5
16E9
  8
SIZE
  6
BYBLOCK
 62
    30
 10
265.0
 20
177.9999999999998
 30
0.0
 11
265.0
 21
435.7670659999998
 31
0.0
  0
LINE
  5
16EA
  8
SIZE
  6
BYBLOCK
 62
    30
 10
2.0
 20
405.767066
 30
0.0
 11
132.4999999999992
 21
405.767066
 31
0.0
  0
LINE
  5
16EB
  8
SIZE
  6
BYBLOCK
 62
    30
 10
263.0
 20
405.767066
 30
0.0
 11
132.4999999999992
 21
405.767066
 31
0.0
  0
TEXT
  5
16EC
  8
SIZE
  6
BYBLOCK
 62
    30
 10
293.147896
 20
437.7670659999999
 30
0.0
 40
64.0
  1
265
 41
0.9
  0
LINE
  5
16ED
  8
SIZE
  6
BYBLOCK
 62
    30
 10
-210.0
 20
181.5
 30
0.0
 11
-210.0
 21
693.0237779999995
 31
0.0
  0
LINE
  5
16EE
  8
SIZE
  6
BYBLOCK
 62
    30
 10
-235.0
 20
177.9999999999998
 30
0.0
 11
-235.0
 21
693.0237779999995
 31
0.0
  0
LINE
  5
16EF
  8
SIZE
  6
BYBLOCK
 62
    30
 10
-237.0
 20
663.0237779999995
 30
0.0
 11
-239.0
 21
663.0237779999995
 31
0.0
  0
LINE
  5
16F0
  8
SIZE
  6
BYBLOCK
 62
    30
 10
-208.0
 20
663.0237779999995
 30
0.0
 11
-206.0
 21
663.0237779999995
 31
0.0
  0
LINE
  5
16F1
  8
SIZE
  6
BYBLOCK
 62
    30
 10
-235.0
 20
663.0237779999995
 30
0.0
 11
-210.0
 21
663.0237779999995
 31
0.0
  0
TEXT
  5
16F2
  8
SIZE
  6
BYBLOCK
 62
    30
 10
-375.6927709999999
 20
695.0237779999997
 30
0.0
 40
64.0
  1
25
 41
0.9
  0
LINE
  5
16F3
  8
SIZE
  6
BYBLOCK
 62
    30
 10
-152.0
 20
197.0
 30
0.0
 11
-152.0
 21
815.7879759999996
 31
0.0
  0
LINE
  5
16F4
  8
SIZE
  6
BYBLOCK
 62
    30
 10
-235.0
 20
177.9999999999998
 30
0.0
 11
-235.0
 21
815.7879759999996
 31
0.0
  0
LINE
  5
16F5
  8
SIZE
  6
BYBLOCK
 62
    30
 10
-237.0
 20
785.787976
 30
0.0
 11
-239.0
 21
785.787976
 31
0.0
  0
LINE
  5
16F6
  8
SIZE
  6
BYBLOCK
 62
    30
 10
-150.0
 20
785.787976
 30
0.0
 11
-148.0
 21
785.787976
 31
0.0
  0
LINE
  5
16F7
  8
SIZE
  6
BYBLOCK
 62
    30
 10
-235.0
 20
785.787976
 30
0.0
 11
-152.0
 21
785.787976
 31
0.0
  0
TEXT
  5
16F8
  8
SIZE
  6
BYBLOCK
 62
    30
 10
-376.4880719999999
 20
817.7879759999998
 30
0.0
 40
64.0
  1
83
 41
0.9
  0
LINE
  5
16F9
  8
SIZE
  6
BYBLOCK
 62
    30
 10
265.0
 20
177.9999999999998
 30
0.0
 11
265.0
 21
691.669361
 31
0.0
  0
LINE
  5
16FA
  8
SIZE
  6
BYBLOCK
 62
    30
 10
152.0
 20
197.0
 30
0.0
 11
152.0
 21
815.7879759999996
 31
0.0
  0
LINE
  5
16FB
  8
SIZE
  6
BYBLOCK
 62
    30
 10
265.0
 20
177.9999999999998
 30
0.0
 11
265.0
 21
815.7879759999996
 31
0.0
  0
LINE
  5
16FC
  8
SIZE
  6
BYBLOCK
 62
    30
 10
267.0
 20
785.787976
 30
0.0
 11
269.0
 21
785.787976
 31
0.0
  0
LINE
  5
16FD
  8
SIZE
  6
BYBLOCK
 62
    30
 10
150.0
 20
785.787976
 30
0.0
 11
148.0
 21
785.787976
 31
0.0
  0
LINE
  5
16FE
  8
SIZE
  6
BYBLOCK
 62
    30
 10
265.0
 20
785.787976
 30
0.0
 11
152.0
 21
785.787976
 31
0.0
  0
TEXT
  5
16FF
  8
SIZE
  6
BYBLOCK
 62
    30
 10
298.8818069999999
 20
817.7879759999998
 30
0.0
 40
64.0
  1
113
 41
0.9
  0
LINE
  5
1700
  8
SIZE
  6
BYBLOCK
 62
    30
 10
215.0
 20
0.0
 30
0.0
 11
603.7769
 21
0.0
 31
0.0
  0
LINE
  5
1701
  8
SIZE
  6
BYBLOCK
 62
    30
 10
177.619147
 20
52.0
 30
0.0
 11
603.7769
 21
52.0
 31
0.0
  0
LINE
  5
1702
  8
SIZE
  6
BYBLOCK
 62
    30
 10
573.7769
 20
54.0
 30
0.0
 11
573.7769
 21
56.0
 31
0.0
  0
LINE
  5
1703
  8
SIZE
  6
BYBLOCK
 62
    30
 10
573.7769
 20
-2.0
 30
0.0
 11
573.7769
 21
-3.999999999999998
 31
0.0
  0
LINE
  5
1704
  8
SIZE
  6
BYBLOCK
 62
    30
 10
573.7769
 20
52.0
 30
0.0
 11
573.7769
 21
0.0
 31
0.0
  0
TEXT
  5
1705
  8
SIZE
  6
BYBLOCK
 62
    30
 10
541.7769
 20
-146.347947
 30
0.0
 40
64.0
  1
52
 50
90.0
 41
0.9
  0
LINE
  5
1706
  8
SIZE
  6
BYBLOCK
 62
    30
 10
260.0
 20
56.5
 30
0.0
 11
907.5696609999999
 21
56.5
 31
0.0
  0
LINE
  5
1707
  8
SIZE
  6
BYBLOCK
 62
    30
 10
260.0
 20
161.4999999999998
 30
0.0
 11
907.5696609999999
 21
161.4999999999998
 31
0.0
  0
LINE
  5
1708
  8
SIZE
  6
BYBLOCK
 62
    30
 10
877.569661
 20
163.4999999999994
 30
0.0
 11
877.569661
 21
165.4999999999998
 31
0.0
  0
LINE
  5
1709
  8
SIZE
  6
BYBLOCK
 62
    30
 10
877.569661
 20
54.5
 30
0.0
 11
877.569661
 21
52.5
 31
0.0
  0
LINE
  5
170A
  8
SIZE
  6
BYBLOCK
 62
    30
 10
877.569661
 20
161.4999999999998
 30
0.0
 11
877.569661
 21
56.5
 31
0.0
  0
TEXT
  5
170B
  8
SIZE
  6
BYBLOCK
 62
    30
 10
845.569661
 20
202.8725719999999
 30
0.0
 40
64.0
  1
φ105
 50
90.0
 41
0.9
  0
LINE
  5
170C
  8
SIZE
  6
BYBLOCK
 62
    30
 10
285.0
 20
60.0
 30
0.0
 11
768.2559209999998
 21
60.0
 31
0.0
  0
LINE
  5
170D
  8
SIZE
  6
BYBLOCK
 62
    30
 10
285.0
 20
157.9999999999998
 30
0.0
 11
768.2559209999998
 21
157.9999999999998
 31
0.0
  0
LINE
  5
170E
  8
SIZE
  6
BYBLOCK
 62
    30
 10
738.2559209999998
 20
160.0
 30
0.0
 11
738.2559209999998
 21
162.0
 31
0.0
  0
LINE
  5
170F
  8
SIZE
  6
BYBLOCK
 62
    30
 10
738.2559209999998
 20
58.0
 30
0.0
 11
738.2559209999998
 21
56.0
 31
0.0
  0
LINE
  5
1710
  8
SIZE
  6
BYBLOCK
 62
    30
 10
738.2559209999998
 20
157.9999999999998
 30
0.0
 11
738.2559209999998
 21
60.0
 31
0.0
  0
TEXT
  5
1711
  8
SIZE
  6
BYBLOCK
 62
    30
 10
706.255921
 20
207.7406689999998
 30
0.0
 40
64.0
  1
φ98
 50
90.0
 41
0.9
  0
LINE
  5
1712
  8
SIZE
  6
BYBLOCK
 62
    30
 10
-172.372881
 20
154.9999999999996
 30
0.0
 11
-724.569252
 21
154.9999999999996
 31
0.0
  0
LINE
  5
1713
  8
SIZE
  6
BYBLOCK
 62
    30
 10
-97.0
 20
169.0
 30
0.0
 11
-724.569252
 21
169.0
 31
0.0
  0
LINE
  5
1714
  8
SIZE
  6
BYBLOCK
 62
    30
 10
-694.569252
 20
171.0
 30
0.0
 11
-694.569252
 21
173.0
 31
0.0
  0
LINE
  5
1715
  8
SIZE
  6
BYBLOCK
 62
    30
 10
-694.569252
 20
152.9999999999998
 30
0.0
 11
-694.569252
 21
150.9999999999994
 31
0.0
  0
LINE
  5
1716
  8
SIZE
  6
BYBLOCK
 62
    30
 10
-694.569252
 20
169.0
 30
0.0
 11
-694.569252
 21
154.9999999999996
 31
0.0
  0
TEXT
  5
1717
  8
SIZE
  6
BYBLOCK
 62
    30
 10
-726.5692519999999
 20
215.1193579999999
 30
0.0
 40
64.0
  1
14
 50
90.0
 41
0.9
  0
LINE
  5
1718
  8
SIZE
  6
BYBLOCK
 62
    30
 10
-215.0
 20
0.0
 30
0.0
 11
-724.569252
 21
0.0
 31
0.0
  0
LINE
  5
1719
  8
SIZE
  6
BYBLOCK
 62
    30
 10
-172.372881
 20
154.9999999999996
 30
0.0
 11
-724.569252
 21
154.9999999999996
 31
0.0
  0
LINE
  5
171A
  8
SIZE
  6
BYBLOCK
 62
    30
 10
-694.569252
 20
1.999999999999996
 30
0.0
 11
-694.569252
 21
152.9999999999998
 31
0.0
  0
TEXT
  5
171B
  8
SIZE
  6
BYBLOCK
 62
    30
 10
-726.5692519999999
 20
8.928572
 30
0.0
 40
64.0
  1
155
 50
90.0
 41
0.9
  0
LINE
  5
171C
  8
SIZE
  6
BYBLOCK
 62
    30
 10
-230.0
 20
56.5
 30
0.0
 11
-585.3801899999999
 21
56.5
 31
0.0
  0
LINE
  5
171D
  8
SIZE
  6
BYBLOCK
 62
    30
 10
-230.0
 20
161.4999999999998
 30
0.0
 11
-585.3801899999999
 21
161.4999999999998
 31
0.0
  0
LINE
  5
171E
  8
SIZE
  6
BYBLOCK
 62
    30
 10
-555.3801899999999
 20
163.4999999999994
 30
0.0
 11
-555.3801899999999
 21
165.4999999999998
 31
0.0
  0
LINE
  5
171F
  8
SIZE
  6
BYBLOCK
 62
    30
 10
-555.3801899999999
 20
54.5
 30
0.0
 11
-555.3801899999999
 21
52.5
 31
0.0
  0
LINE
  5
1720
  8
SIZE
  6
BYBLOCK
 62
    30
 10
-555.3801899999999
 20
161.4999999999998
 30
0.0
 11
-555.3801899999999
 21
56.5
 31
0.0
  0
TEXT
  5
1721
  8
SIZE
  6
BYBLOCK
 62
    30
 10
-587.3801900000001
 20
193.3324949999999
 30
0.0
 40
64.0
  1
φ105
 50
90.0
 41
0.9
  0
LINE
  5
1722
  8
SIZE
  6
BYBLOCK
 62
    30
 10
-255.0
 20
60.0
 30
0.0
 11
-463.2142499999999
 21
60.0
 31
0.0
  0
LINE
  5
1723
  8
SIZE
  6
BYBLOCK
 62
    30
 10
-255.0
 20
157.9999999999998
 30
0.0
 11
-463.2142499999999
 21
157.9999999999998
 31
0.0
  0
LINE
  5
1724
  8
SIZE
  6
BYBLOCK
 62
    30
 10
-433.2142499999999
 20
160.0
 30
0.0
 11
-433.2142499999999
 21
162.0
 31
0.0
  0
LINE
  5
1725
  8
SIZE
  6
BYBLOCK
 62
    30
 10
-433.2142499999999
 20
58.0
 30
0.0
 11
-433.2142499999999
 21
56.0
 31
0.0
  0
LINE
  5
1726
  8
SIZE
  6
BYBLOCK
 62
    30
 10
-433.2142499999999
 20
157.9999999999998
 30
0.0
 11
-433.2142499999999
 21
60.0
 31
0.0
  0
TEXT
  5
1727
  8
SIZE
  6
BYBLOCK
 62
    30
 10
-465.21425
 20
190.683844
 30
0.0
 40
64.0
  1
φ98
 50
90.0
 41
0.9
  0
LINE
  5
1728
  8
SIZE
  6
BYBLOCK
 62
    30
 10
-215.0
 20
0.0
 30
0.0
 11
-334.235177
 21
0.0
 31
0.0
  0
LINE
  5
1729
  8
SIZE
  6
BYBLOCK
 62
    30
 10
-174.322034
 20
39.99999999999999
 30
0.0
 11
-334.235177
 21
39.99999999999999
 31
0.0
  0
LINE
  5
172A
  8
SIZE
  6
BYBLOCK
 62
    30
 10
-304.235177
 20
42.0
 30
0.0
 11
-304.235177
 21
44.0
 31
0.0
  0
LINE
  5
172B
  8
SIZE
  6
BYBLOCK
 62
    30
 10
-304.235177
 20
-2.0
 30
0.0
 11
-304.235177
 21
-3.999999999999998
 31
0.0
  0
LINE
  5
172C
  8
SIZE
  6
BYBLOCK
 62
    30
 10
-304.235177
 20
39.99999999999999
 30
0.0
 11
-304.235177
 21
0.0
 31
0.0
  0
TEXT
  5
172D
  8
SIZE
  6
BYBLOCK
 62
    30
 10
-336.235177
 20
-122.2525789999999
 30
0.0
 40
64.0
  1
40
 50
90.0
 41
0.9
  0
LINE
  5
172E
  8
SIZE
  6
BYBLOCK
 62
    30
 10
215.0000069999999
 20
0.0
 30
0.0
 11
1066.198
 21
0.0
 31
0.0
  0
LINE
  5
172F
  8
SIZE
  6
BYBLOCK
 62
    30
 10
210.4999999999999
 20
170.0
 30
0.0
 11
1066.198
 21
170.0
 31
0.0
  0
LINE
  5
1730
  8
SIZE
  6
BYBLOCK
 62
    30
 10
1036.198
 20
1.999999999999996
 30
0.0
 11
1036.198
 21
85.0
 31
0.0
  0
LINE
  5
1731
  8
SIZE
  6
BYBLOCK
 62
    30
 10
1036.198
 20
168.0
 30
0.0
 11
1036.198
 21
85.0
 31
0.0
  0
TEXT
  5
1732
  8
SIZE
  6
BYBLOCK
 62
    30
 10
1004.198
 20
16.428572
 30
0.0
 40
64.0
  1
170
 50
90.0
 41
0.9
  0
LINE
  5
1733
  8
SIZE
  6
BYBLOCK
 62
    30
 10
215.0
 20
0.0
 30
0.0
 11
723.193299
 21
0.0
 31
0.0
  0
LINE
  5
1734
  8
SIZE
  6
BYBLOCK
 62
    30
 10
322.4509779999999
 20
109.0
 30
0.0
 11
723.193299
 21
109.0
 31
0.0
  0
LINE
  5
1735
  8
SIZE
  6
BYBLOCK
 62
    30
 10
693.1932989999997
 20
111.0
 30
0.0
 11
693.1932989999997
 21
113.0
 31
0.0
  0
LINE
  5
1736
  8
SIZE
  6
BYBLOCK
 62
    30
 10
693.1932989999997
 20
-2.0
 30
0.0
 11
693.1932989999997
 21
-3.999999999999998
 31
0.0
  0
LINE
  5
1737
  8
SIZE
  6
BYBLOCK
 62
    30
 10
693.1932989999997
 20
109.0
 30
0.0
 11
693.1932989999997
 21
0.0
 31
0.0
  0
TEXT
  5
1738
  8
SIZE
  6
BYBLOCK
 62
    30
 10
661.193299
 20
-179.3709609999999
 30
0.0
 40
64.0
  1
109
 50
90.0
 41
0.9
  0
LINE
  5
1739
  8
SIZE
  6
BYBLOCK
 62
    30
 10
215.0
 20
0.0
 30
0.0
 11
1216.833999999998
 21
0.0
 31
0.0
  0
LINE
  5
173A
  8
SIZE
  6
BYBLOCK
 62
    30
 10
11.852012
 20
200.0
 30
0.0
 11
1216.833999999998
 21
200.0
 31
0.0
  0
LINE
  5
173B
  8
SIZE
  6
BYBLOCK
 62
    30
 10
1186.833999999998
 20
1.999999999999996
 30
0.0
 11
1186.833999999998
 21
99.9999999999999
 31
0.0
  0
LINE
  5
173C
  8
SIZE
  6
BYBLOCK
 62
    30
 10
1186.833999999998
 20
198.0
 30
0.0
 11
1186.833999999998
 21
99.9999999999999
 31
0.0
  0
TEXT
  5
173D
  8
SIZE
  6
BYBLOCK
 62
    30
 10
1154.833999999998
 20
25.942857
 30
0.0
 40
64.0
  1
200
 50
90.0
 41
0.9
  0
LINE
  5
173E
  8
SIZE
  6
BYBLOCK
 62
    30
 10
-13.0
 20
232.1824331423506
 30
0.0
 11
-13.0
 21
311.904552464713
 31
0.0
  0
LINE
  5
173F
  8
SIZE
  6
BYBLOCK
 62
    30
 10
0.0
 20
266.8602884647131
 30
0.0
 11
0.0
 21
311.904552464713
 31
0.0
  0
LINE
  5
1740
  8
SIZE
  6
BYBLOCK
 62
    30
 10
2.0
 20
281.904552464713
 30
0.0
 11
4.0
 21
281.904552464713
 31
0.0
  0
LINE
  5
1741
  8
SIZE
  6
BYBLOCK
 62
    30
 10
-15.0
 20
281.904552464713
 30
0.0
 11
-17.0
 21
281.904552464713
 31
0.0
  0
LINE
  5
1742
  8
SIZE
  6
BYBLOCK
 62
    30
 10
0.0
 20
281.904552464713
 30
0.0
 11
-13.0
 21
281.904552464713
 31
0.0
  0
TEXT
  5
1743
  8
SIZE
  6
BYBLOCK
 62
    30
 10
-343.108388
 20
313.9045524647128
 30
0.0
 40
64.0
  1
13
 41
0.9
  0
LINE
  5
1744
  8
SIZE
  6
BYBLOCK
 62
    30
 10
195.0
 20
-28.553879
 30
0.0
 11
195.0
 21
-981.61434
 31
0.0
  0
LINE
  5
1745
  8
SIZE
  6
BYBLOCK
 62
    30
 10
-195.0
 20
-28.553879
 30
0.0
 11
-195.0
 21
-981.61434
 31
0.0
  0
LINE
  5
1746
  8
SIZE
  6
BYBLOCK
 62
    30
 10
193.0
 20
-951.6143400000001
 30
0.0
 11
0.0
 21
-951.6143400000001
 31
0.0
  0
LINE
  5
1747
  8
SIZE
  6
BYBLOCK
 62
    30
 10
-193.0
 20
-951.6143400000001
 30
0.0
 11
0.0
 21
-951.6143400000001
 31
0.0
  0
TEXT
  5
1748
  8
SIZE
  6
BYBLOCK
 62
    30
 10
-106.6971429999999
 20
-919.6143399999999
 30
0.0
 40
64.0
  1
□390
 41
0.9
  0
LINE
  5
1749
  8
SIZE
  6
BYBLOCK
 62
    30
 10
165.0
 20
-40.0
 30
0.0
 11
165.0
 21
-847.7317889999998
 31
0.0
  0
LINE
  5
174A
  8
SIZE
  6
BYBLOCK
 62
    30
 10
-165.0
 20
-40.0
 30
0.0
 11
-165.0
 21
-847.7317889999998
 31
0.0
  0
LINE
  5
174B
  8
SIZE
  6
BYBLOCK
 62
    30
 10
163.0
 20
-817.7317889999996
 30
0.0
 11
0.0
 21
-817.7317889999996
 31
0.0
  0
LINE
  5
174C
  8
SIZE
  6
BYBLOCK
 62
    30
 10
-163.0
 20
-817.7317889999996
 30
0.0
 11
0.0
 21
-817.7317889999996
 31
0.0
  0
TEXT
  5
174D
  8
SIZE
  6
BYBLOCK
 62
    30
 10
-74.05714300000002
 20
-785.731789
 30
0.0
 40
64.0
  1
330
 41
0.9
  0
LINE
  5
174E
  8
SIZE
  6
BYBLOCK
 62
    30
 10
155.0
 20
-20.0
 30
0.0
 11
155.0
 21
-712.308789
 31
0.0
  0
LINE
  5
174F
  8
SIZE
  6
BYBLOCK
 62
    30
 10
-155.0
 20
-20.0
 30
0.0
 11
-155.0
 21
-712.308789
 31
0.0
  0
LINE
  5
1750
  8
SIZE
  6
BYBLOCK
 62
    30
 10
153.0
 20
-682.308789
 30
0.0
 11
0.0
 21
-682.308789
 31
0.0
  0
LINE
  5
1751
  8
SIZE
  6
BYBLOCK
 62
    30
 10
-153.0
 20
-682.308789
 30
0.0
 11
0.0
 21
-682.308789
 31
0.0
  0
TEXT
  5
1752
  8
SIZE
  6
BYBLOCK
 62
    30
 10
-101.211429
 20
-650.308789
 30
0.0
 40
64.0
  1
□310
 41
0.9
  0
LINE
  5
1753
  8
SIZE
  6
BYBLOCK
 62
    30
 10
100.0
 20
-40.0
 30
0.0
 11
100.0
 21
-568.6923669999999
 31
0.0
  0
LINE
  5
1754
  8
SIZE
  6
BYBLOCK
 62
    30
 10
-100.0
 20
-40.0
 30
0.0
 11
-100.0
 21
-568.6923669999999
 31
0.0
  0
LINE
  5
1755
  8
SIZE
  6
BYBLOCK
 62
    30
 10
98.0
 20
-538.692367
 30
0.0
 11
0.0
 21
-538.692367
 31
0.0
  0
LINE
  5
1756
  8
SIZE
  6
BYBLOCK
 62
    30
 10
-98.0
 20
-538.692367
 30
0.0
 11
0.0
 21
-538.692367
 31
0.0
  0
TEXT
  5
1757
  8
SIZE
  6
BYBLOCK
 62
    30
 10
-74.05714300000002
 20
-506.6923669999998
 30
0.0
 40
64.0
  1
200
 41
0.9
  0
LINE
  5
1758
  8
SIZE
  6
BYBLOCK
 62
    30
 10
188.0
 20
190.0
 30
0.0
 11
188.0
 21
1072.848571999999
 31
0.0
  0
LINE
  5
1759
  8
SIZE
  6
BYBLOCK
 62
    30
 10
-188.0
 20
190.0
 30
0.0
 11
-188.0
 21
1072.848571999999
 31
0.0
  0
LINE
  5
175A
  8
SIZE
  6
BYBLOCK
 62
    30
 10
186.0
 20
1042.848572
 30
0.0
 11
0.0
 21
1042.848572
 31
0.0
  0
LINE
  5
175B
  8
SIZE
  6
BYBLOCK
 62
    30
 10
-186.0
 20
1042.848572
 30
0.0
 11
0.0
 21
1042.848572
 31
0.0
  0
TEXT
  5
175C
  8
SIZE
  6
BYBLOCK
 62
    30
 10
-60.906599
 20
1074.848572
 30
0.0
 40
64.0
  1
376
 41
0.9
  0
LINE
  5
175D
  8
SIZE
  6
BYBLOCK
 62
    30
 10
170.5
 20
209.9999999999998
 30
0.0
 11
170.5
 21
941.263381
 31
0.0
  0
LINE
  5
175E
  8
SIZE
  6
BYBLOCK
 62
    30
 10
-170.5
 20
209.9999999999998
 30
0.0
 11
-170.5
 21
941.263381
 31
0.0
  0
LINE
  5
175F
  8
SIZE
  6
BYBLOCK
 62
    30
 10
168.5
 20
911.2633809999999
 30
0.0
 11
0.0
 21
911.2633809999999
 31
0.0
  0
LINE
  5
1760
  8
SIZE
  6
BYBLOCK
 62
    30
 10
-168.5
 20
911.2633809999999
 30
0.0
 11
0.0
 21
911.2633809999999
 31
0.0
  0
TEXT
  5
1761
  8
SIZE
  6
BYBLOCK
 62
    30
 10
-49.93517
 20
943.263381
 30
0.0
 40
64.0
  1
341
 41
0.9
  0
LINE
  5
1762
  8
SIZE
  6
BYBLOCK
 62
    30
 10
152.0
 20
197.0
 30
0.0
 11
152.0
 21
815.7879759999996
 31
0.0
  0
LINE
  5
1763
  8
SIZE
  6
BYBLOCK
 62
    30
 10
-152.0
 20
197.0
 30
0.0
 11
-152.0
 21
815.7879759999996
 31
0.0
  0
LINE
  5
1764
  8
SIZE
  6
BYBLOCK
 62
    30
 10
150.0
 20
785.787976
 30
0.0
 11
0.0
 21
785.787976
 31
0.0
  0
LINE
  5
1765
  8
SIZE
  6
BYBLOCK
 62
    30
 10
-150.0
 20
785.787976
 30
0.0
 11
0.0
 21
785.787976
 31
0.0
  0
TEXT
  5
1766
  8
SIZE
  6
BYBLOCK
 62
    30
 10
-96.28945600000002
 20
817.7879759999998
 30
0.0
 40
64.0
  1
□304
 41
0.9
  0
LINE
  5
1767
  8
SIZE
  6
BYBLOCK
 62
    30
 10
124.0
 20
204.9999999999999
 30
0.0
 11
124.0
 21
694.3171049999995
 31
0.0
  0
LINE
  5
1768
  8
SIZE
  6
BYBLOCK
 62
    30
 10
-124.0
 20
204.9999999999999
 30
0.0
 11
-124.0
 21
694.3171049999995
 31
0.0
  0
LINE
  5
1769
  8
SIZE
  6
CONTINUOUS
 62
    30
 10
122.0
 20
664.317105
 30
0.0
 11
0.0
 21
664.317105
 31
0.0
  0
LINE
  5
176A
  8
SIZE
  6
CONTINUOUS
 62
    30
 10
-122.0
 20
664.317105
 30
0.0
 11
0.0
 21
664.317105
 31
0.0
  0
TEXT
  5
176B
  8
SIZE
  6
BYBLOCK
 62
    30
 10
-62.278027
 20
696.317105
 30
0.0
 40
64.0
  1
248
 41
0.9
  0
LINE
  5
176C
  8
SIZE
  6
BYBLOCK
 62
    30
 10
215.0426859999999
 20
0.0
 30
0.0
 11
1216.833999999998
 21
0.0
 31
0.0
  0
LINE
  5
176D
  8
SIZE
  6
BYBLOCK
 62
    30
 10
185.177593
 20
-20.0
 30
0.0
 11
1216.833999999998
 21
-20.0
 31
0.0
  0
LINE
  5
176E
  8
SIZE
  6
BYBLOCK
 62
    30
 10
1186.833999999998
 20
-21.99999999999999
 30
0.0
 11
1186.833999999998
 21
-23.99999999999999
 31
0.0
  0
LINE
  5
176F
  8
SIZE
  6
BYBLOCK
 62
    30
 10
1186.833999999998
 20
1.999999999999996
 30
0.0
 11
1186.833999999998
 21
3.999999999999997
 31
0.0
  0
LINE
  5
1770
  8
SIZE
  6
BYBLOCK
 62
    30
 10
1186.833999999998
 20
-20.0
 30
0.0
 11
1186.833999999998
 21
0.0
 31
0.0
  0
TEXT
  5
1771
  8
SIZE
  6
BYBLOCK
 62
    30
 10
1154.833999999998
 20
-145.8836049999999
 30
0.0
 40
64.0
  1
20
 50
90.0
 41
0.9
  0
CIRCLE
  5
1772
  8
SIZE
  6
CONTINUOUS
 62
    30
 10
1186.833999999998
 20
0.0
 30
0.0
 40
6.0
  0
CIRCLE
  5
1773
  8
SIZE
  6
CONTINUOUS
 62
    30
 10
1186.833999999998
 20
-20.0
 30
0.0
 40
6.0
  0
CIRCLE
  5
1774
  8
SIZE
  6
CONTINUOUS
 62
    30
 10
-124.0
 20
664.317105
 30
0.0
 40
6.0
  0
CIRCLE
  5
1775
  8
SIZE
  6
CONTINUOUS
 62
    30
 10
124.0
 20
664.317105
 30
0.0
 40
6.0
  0
CIRCLE
  5
1776
  8
SIZE
  6
CONTINUOUS
 62
    30
 10
-152.0
 20
785.787976
 30
0.0
 40
6.0
  0
CIRCLE
  5
1777
  8
SIZE
  6
CONTINUOUS
 62
    30
 10
152.0
 20
785.787976
 30
0.0
 40
6.0
  0
CIRCLE
  5
1778
  8
SIZE
  6
CONTINUOUS
 62
    30
 10
-170.5
 20
911.2633809999999
 30
0.0
 40
6.0
  0
CIRCLE
  5
1779
  8
SIZE
  6
CONTINUOUS
 62
    30
 10
170.5
 20
911.2633809999999
 30
0.0
 40
6.0
  0
CIRCLE
  5
177A
  8
SIZE
  6
CONTINUOUS
 62
    30
 10
-188.0
 20
1042.848572
 30
0.0
 40
6.0
  0
CIRCLE
  5
177B
  8
SIZE
  6
CONTINUOUS
 62
    30
 10
188.0
 20
1042.848572
 30
0.0
 40
6.0
  0
CIRCLE
  5
177C
  8
SIZE
  6
CONTINUOUS
 62
    30
 10
-100.0
 20
-538.692367
 30
0.0
 40
6.0
  0
CIRCLE
  5
177D
  8
SIZE
  6
CONTINUOUS
 62
    30
 10
100.0
 20
-538.692367
 30
0.0
 40
6.0
  0
CIRCLE
  5
177E
  8
SIZE
  6
CONTINUOUS
 62
    30
 10
-155.0
 20
-682.308789
 30
0.0
 40
6.0
  0
CIRCLE
  5
177F
  8
SIZE
  6
CONTINUOUS
 62
    30
 10
155.0
 20
-682.308789
 30
0.0
 40
6.0
  0
CIRCLE
  5
1780
  8
SIZE
  6
CONTINUOUS
 62
    30
 10
-165.0
 20
-817.7317889999996
 30
0.0
 40
6.0
  0
CIRCLE
  5
1781
  8
SIZE
  6
CONTINUOUS
 62
    30
 10
165.0
 20
-817.7317889999996
 30
0.0
 40
6.0
  0
CIRCLE
  5
1782
  8
SIZE
  6
CONTINUOUS
 62
    30
 10
-195.0
 20
-951.6143400000001
 30
0.0
 40
6.0
  0
CIRCLE
  5
1783
  8
SIZE
  6
CONTINUOUS
 62
    30
 10
195.0
 20
-951.6143400000001
 30
0.0
 40
6.0
  0
CIRCLE
  5
1784
  8
SIZE
  6
CONTINUOUS
 62
    30
 10
-13.0
 20
281.904552464713
 30
0.0
 40
6.0
  0
CIRCLE
  5
1785
  8
SIZE
  6
CONTINUOUS
 62
    30
 10
0.0
 20
281.904552464713
 30
0.0
 40
6.0
  0
CIRCLE
  5
1786
  8
SIZE
  6
CONTINUOUS
 62
    30
 10
1186.833999999998
 20
200.0
 30
0.0
 40
6.0
  0
CIRCLE
  5
1787
  8
SIZE
  6
CONTINUOUS
 62
    30
 10
1186.833999999998
 20
0.0
 30
0.0
 40
6.0
  0
CIRCLE
  5
1788
  8
SIZE
  6
CONTINUOUS
 62
    30
 10
693.1932989999997
 20
0.0
 30
0.0
 40
6.0
  0
CIRCLE
  5
1789
  8
SIZE
  6
CONTINUOUS
 62
    30
 10
693.1932989999997
 20
109.0
 30
0.0
 40
6.0
  0
CIRCLE
  5
178A
  8
SIZE
  6
CONTINUOUS
 62
    30
 10
1036.198
 20
170.0
 30
0.0
 40
6.0
  0
CIRCLE
  5
178B
  8
SIZE
  6
CONTINUOUS
 62
    30
 10
1036.198
 20
0.0
 30
0.0
 40
6.0
  0
CIRCLE
  5
178C
  8
SIZE
  6
CONTINUOUS
 62
    30
 10
-304.235177
 20
0.0
 30
0.0
 40
6.0
  0
CIRCLE
  5
178D
  8
SIZE
  6
CONTINUOUS
 62
    30
 10
-304.235177
 20
39.99999999999999
 30
0.0
 40
6.0
  0
CIRCLE
  5
178E
  8
SIZE
  6
CONTINUOUS
 62
    30
 10
-433.2142499999999
 20
60.0
 30
0.0
 40
6.0
  0
CIRCLE
  5
178F
  8
SIZE
  6
CONTINUOUS
 62
    30
 10
-433.2142499999999
 20
157.9999999999998
 30
0.0
 40
6.0
  0
CIRCLE
  5
1790
  8
SIZE
  6
CONTINUOUS
 62
    30
 10
-555.3801899999999
 20
56.5
 30
0.0
 40
6.0
  0
CIRCLE
  5
1791
  8
SIZE
  6
CONTINUOUS
 62
    30
 10
-555.3801899999999
 20
161.4999999999998
 30
0.0
 40
6.0
  0
CIRCLE
  5
1792
  8
SIZE
  6
CONTINUOUS
 62
    30
 10
-694.569252
 20
154.9999999999996
 30
0.0
 40
6.0
  0
CIRCLE
  5
1793
  8
SIZE
  6
CONTINUOUS
 62
    30
 10
-694.569252
 20
0.0
 30
0.0
 40
6.0
  0
CIRCLE
  5
1794
  8
SIZE
  6
CONTINUOUS
 62
    30
 10
-694.569252
 20
154.9999999999996
 30
0.0
 40
6.0
  0
CIRCLE
  5
1795
  8
SIZE
  6
CONTINUOUS
 62
    30
 10
-694.569252
 20
169.0
 30
0.0
 40
6.0
  0
CIRCLE
  5
1796
  8
SIZE
  6
CONTINUOUS
 62
    30
 10
738.2559209999998
 20
60.0
 30
0.0
 40
6.0
  0
CIRCLE
  5
1797
  8
SIZE
  6
CONTINUOUS
 62
    30
 10
738.2559209999998
 20
157.9999999999998
 30
0.0
 40
6.0
  0
CIRCLE
  5
1798
  8
SIZE
  6
CONTINUOUS
 62
    30
 10
877.569661
 20
56.5
 30
0.0
 40
6.0
  0
CIRCLE
  5
1799
  8
SIZE
  6
CONTINUOUS
 62
    30
 10
877.569661
 20
161.4999999999998
 30
0.0
 40
6.0
  0
CIRCLE
  5
179A
  8
SIZE
  6
CONTINUOUS
 62
    30
 10
573.7769
 20
0.0
 30
0.0
 40
6.0
  0
CIRCLE
  5
179B
  8
SIZE
  6
CONTINUOUS
 62
    30
 10
573.7769
 20
52.0
 30
0.0
 40
6.0
  0
CIRCLE
  5
179C
  8
SIZE
  6
CONTINUOUS
 62
    30
 10
152.0
 20
785.787976
 30
0.0
 40
6.0
  0
CIRCLE
  5
179D
  8
SIZE
  6
CONTINUOUS
 62
    30
 10
265.0
 20
785.787976
 30
0.0
 40
6.0
  0
CIRCLE
  5
179E
  8
SIZE
  6
CONTINUOUS
 62
    30
 10
-152.0
 20
785.787976
 30
0.0
 40
6.0
  0
CIRCLE
  5
179F
  8
SIZE
  6
CONTINUOUS
 62
    30
 10
-235.0
 20
785.787976
 30
0.0
 40
6.0
  0
CIRCLE
  5
17A0
  8
SIZE
  6
CONTINUOUS
 62
    30
 10
-210.0
 20
663.0237779999995
 30
0.0
 40
6.0
  0
CIRCLE
  5
17A1
  8
SIZE
  6
CONTINUOUS
 62
    30
 10
-235.0
 20
663.0237779999995
 30
0.0
 40
6.0
  0
CIRCLE
  5
17A2
  8
SIZE
  6
CONTINUOUS
 62
    30
 10
265.0
 20
405.767066
 30
0.0
 40
6.0
  0
CIRCLE
  5
17A3
  8
SIZE
  6
CONTINUOUS
 62
    30
 10
0.0
 20
405.767066
 30
0.0
 40
6.0
  0
CIRCLE
  5
17A4
  8
SIZE
  6
CONTINUOUS
 62
    30
 10
-235.0
 20
405.767066
 30
0.0
 40
6.0
  0
CIRCLE
  5
17A5
  8
SIZE
  6
CONTINUOUS
 62
    30
 10
0.0
 20
405.767066
 30
0.0
 40
6.0
  0
CIRCLE
  5
17A6
  8
SIZE
  6
CONTINUOUS
 62
    30
 10
-235.0
 20
1172.097762
 30
0.0
 40
6.0
  0
CIRCLE
  5
17A7
  8
SIZE
  6
CONTINUOUS
 62
    30
 10
265.0
 20
1172.097762
 30
0.0
 40
6.0
  0
CIRCLE
  5
17A8
  8
SIZE
  6
CONTINUOUS
 62
    30
 10
49.0
 20
-254.960287
 30
0.0
 40
6.0
  0
CIRCLE
  5
17A9
  8
SIZE
  6
CONTINUOUS
 62
    30
 10
-49.0
 20
-254.960287
 30
0.0
 40
6.0
  0
CIRCLE
  5
17AA
  8
SIZE
  6
CONTINUOUS
 62
    30
 10
52.5
 20
-328.6901109999999
 30
0.0
 40
6.0
  0
CIRCLE
  5
17AB
  8
SIZE
  6
CONTINUOUS
 62
    30
 10
-52.5
 20
-328.6901109999999
 30
0.0
 40
6.0
  0
LINE
  5
17AC
  8
NOTE
  6
CONTINUOUS
 62
     4
 10
-170.5
 20
150.0544279999998
 30
0.0
 11
-170.5
 21
190.0544279999998
 31
0.0
  0
LINE
  5
17AD
  8
NOTE
  6
CONTINUOUS
 62
     4
 10
-150.5
 20
170.054428
 30
0.0
 11
-190.5
 21
170.054428
 31
0.0
  0
LINE
  5
17AE
  8
NOTE
  6
CONTINUOUS
 62
     4
 10
-133.0
 20
150.0544279999998
 30
0.0
 11
-133.0
 21
190.0544279999998
 31
0.0
  0
LINE
  5
17AF
  8
NOTE
  6
CONTINUOUS
 62
     4
 10
-113.0
 20
170.054428
 30
0.0
 11
-153.0
 21
170.054428
 31
0.0
  0
LINE
  5
17B0
  8
NOTE
  6
CONTINUOUS
 62
     4
 10
170.5
 20
150.0544279999998
 30
0.0
 11
170.5
 21
190.0544279999998
 31
0.0
  0
LINE
  5
17B1
  8
NOTE
  6
CONTINUOUS
 62
     4
 10
150.5
 20
170.054428
 30
0.0
 11
190.5
 21
170.054428
 31
0.0
  0
LINE
  5
17B2
  8
NOTE
  6
CONTINUOUS
 62
     4
 10
63.5313623033162
 20
155.0544279999998
 30
0.0
 11
107.2597852885337
 21
155.0544279999998
 31
0.0
  0
LINE
  5
17B3
  8
NOTE
  6
CONTINUOUS
 62
     4
 10
-165.0
 20
-19.94557199999996
 30
0.0
 11
-165.0
 21
20.05442799999999
 31
0.0
  0
LINE
  5
17B4
  8
NOTE
  6
CONTINUOUS
 62
     4
 10
-185.0
 20
0.054428
 30
0.0
 11
-145.0
 21
0.054428
 31
0.0
  0
LINE
  5
17B5
  8
NOTE
  6
CONTINUOUS
 62
     4
 10
-100.0
 20
-19.94557199999996
 30
0.0
 11
-100.0
 21
20.05442799999999
 31
0.0
  0
LINE
  5
17B6
  8
NOTE
  6
CONTINUOUS
 62
     4
 10
-120.0
 20
0.054428
 30
0.0
 11
-80.0
 21
0.054428
 31
0.0
  0
LINE
  5
17B7
  8
NOTE
  6
CONTINUOUS
 62
     4
 10
100.0
 20
-19.94557199999996
 30
0.0
 11
100.0
 21
20.05442799999999
 31
0.0
  0
LINE
  5
17B8
  8
NOTE
  6
CONTINUOUS
 62
     4
 10
80.0
 20
0.054428
 30
0.0
 11
120.0
 21
0.054428
 31
0.0
  0
LINE
  5
17B9
  8
NOTE
  6
CONTINUOUS
 62
     4
 10
165.0
 20
-19.94557199999996
 30
0.0
 11
165.0
 21
20.05442799999999
 31
0.0
  0
LINE
  5
17BA
  8
NOTE
  6
CONTINUOUS
 62
     4
 10
145.0
 20
0.054428
 30
0.0
 11
185.0
 21
0.054428
 31
0.0
  0
LINE
  5
17BB
  8
NOTE
  6
CONTINUOUS
 62
     4
 10
85.0
 20
135.0544279999993
 30
0.0
 11
85.0
 21
175.0544279999999
 31
0.0
  0
LINE
  5
17BC
  8
DETAIL
  6
DASHDOT
 62
     5
 10
-53.99999999999999
 20
190.3999859999999
 30
0.0
 11
-53.99999999999999
 21
168.8154436579191
 31
0.0
  0
LINE
  5
17BD
  8
DETAIL
  6
DASHDOT
 62
     5
 10
27.99999999999997
 20
190.3999859999999
 30
0.0
 11
27.99999999999997
 21
170.250001
 31
0.0
  0
ARC
  5
17BE
  8
DETAIL
  6
CONTINUOUS
 62
     5
 10
-48.99999999999999
 20
190.3999859999999
 30
0.0
 40
5.0
 50
89.99999999999991
 51
180.0
  0
ARC
  5
17BF
  8
DETAIL
  6
CONTINUOUS
 62
     5
 10
22.99999999999996
 20
190.3999859999999
 30
0.0
 40
5.0
 50
0.0
 51
89.99999999999996
  0
LINE
  5
17C0
  8
DETAIL
  6
CONTINUOUS
 62
     5
 10
235.0
 20
60.0
 30
0.0
 11
235.0
 21
157.9999999999998
 31
0.0
  0
LINE
  5
17C1
  8
DETAIL
  6
CONTINUOUS
 62
     5
 10
194.9999999999994
 20
56.5
 30
0.0
 11
194.9999999999994
 21
161.4999999999998
 31
0.0
  0
LINE
  5
17C2
  8
DETAIL
  6
CONTINUOUS
 62
     5
 10
194.9999999999994
 20
161.4999999999998
 30
0.0
 11
231.3891131247236
 21
161.4999999999998
 31
0.0
  0
LINE
  5
17C3
  8
DETAIL
  6
CONTINUOUS
 62
     5
 10
234.9999999999992
 20
157.9999999999998
 30
0.0
 11
231.3891131247236
 21
161.0842154073228
 31
0.0
  0
LINE
  5
17C4
  8
DETAIL
  6
CONTINUOUS
 62
     5
 10
231.3891131247236
 20
161.0842154073228
 30
0.0
 11
231.3891131247236
 21
56.5
 31
0.0
  0
LINE
  5
17C5
  8
DETAIL
  6
CONTINUOUS
 62
     5
 10
231.3891131247236
 20
56.5
 30
0.0
 11
235.0
 21
60.0
 31
0.0
  0
LINE
  5
17C6
  8
SIZE
  6
CONTINUOUS
 62
    30
 10
-53.99999999999999
 20
210.3999859999999
 30
0.0
 11
-53.99999999999997
 21
579.4325139376655
 31
0.0
  0
LINE
  5
17C7
  8
SIZE
  6
CONTINUOUS
 62
    30
 10
27.99999999999997
 20
210.3999859999999
 30
0.0
 11
28.00000000000001
 21
579.4325139376655
 31
0.0
  0
LINE
  5
17C8
  8
SIZE
  6
CONTINUOUS
 62
    30
 10
-41.99999999999996
 20
549.4325139376651
 30
0.0
 11
16.00000000000001
 21
549.4325139376651
 31
0.0
  0
LINE
  5
17C9
  8
SIZE
  6
CONTINUOUS
 62
    30
 10
-0.0000000000000012
 20
-78.66520600000003
 30
0.0
 11
-0.0000000000000224
 21
-425.2549316263541
 31
0.0
  0
LINE
  5
17CA
  8
SIZE
  6
CONTINUOUS
 62
    30
 10
85.0
 20
115.0
 30
0.0
 11
84.99999999999999
 21
-425.2549316263541
 31
0.0
  0
LINE
  5
17CB
  8
SIZE
  6
CONTINUOUS
 62
    30
 10
11.99999999999997
 20
-395.2549316263543
 30
0.0
 11
72.99999999999997
 21
-395.2549316263543
 31
0.0
  0
LINE
  5
17CC
  8
SIZE
  6
CONTINUOUS
 62
    30
 10
84.99999999999999
 20
-395.2549316263543
 30
0.0
 11
342.4487655600842
 21
-395.2549316263543
 31
0.0
  0
TEXT
  5
17CD
  8
SIZE
  6
CONTINUOUS
 62
    30
 10
229.1916227029413
 20
-375.2549316263543
 30
0.0
 40
64.0
  1
85
 41
0.9
  0
LINE
  5
17CE
  8
SIZE
  6
CONTINUOUS
 62
    30
 10
195.0
 20
181.4999999999999
 30
0.0
 11
195.0
 21
694.6383022223293
 31
0.0
  0
LINE
  5
17CF
  8
SIZE
  6
CONTINUOUS
 62
    30
 10
207.0000000000002
 20
664.6383022223293
 30
0.0
 11
253.0
 21
664.6383022223293
 31
0.0
  0
LINE
  5
17D0
  8
SIZE
  6
CONTINUOUS
 62
    30
 10
265.0
 20
664.6383022223293
 30
0.0
 11
410.2571428571428
 21
664.6383022223293
 31
0.0
  0
TEXT
  5
17D1
  8
SIZE
  6
CONTINUOUS
 62
    30
 10
297.0
 20
684.6383022223291
 30
0.0
 40
64.0
  1
70
 41
0.9
  0
LINE
  5
17D2
  8
SIZE
  6
CONTINUOUS
 62
    30
 10
235.0
 20
177.9999999999998
 30
0.0
 11
235.0
 21
581.0783144122508
 31
0.0
  0
LINE
  5
17D3
  8
SIZE
  6
CONTINUOUS
 62
    30
 10
277.0
 20
551.0783144122508
 30
0.0
 11
422.2571428571428
 21
551.0783144122508
 31
0.0
  0
LINE
  5
17D4
  8
SIZE
  6
CONTINUOUS
 62
    30
 10
235.0
 20
551.0783144122508
 30
0.0
 11
265.0
 21
551.0783144122508
 31
0.0
  0
TEXT
  5
17D5
  8
SIZE
  6
CONTINUOUS
 62
    30
 10
309.0
 20
571.078314412251
 30
0.0
 40
64.0
  1
30
 41
0.9
  0
LINE
  5
17D6
  8
OUTLINE
  6
CONTINUOUS
 62
     3
 10
195.0
 20
0.0
 30
0.0
 11
-195.000014
 21
0.0
 31
0.0
  0
LINE
  5
17D7
  8
OUTLINE
  6
CONTINUOUS
 62
     3
 10
123.9999929999999
 20
184.9999999999999
 30
0.0
 11
-124.000007
 21
184.9999999999999
 31
0.0
  0
LINE
  5
17D8
  8
OUTLINE
  6
CONTINUOUS
 62
     3
 10
-155.000007
 20
0.0
 30
0.0
 11
-152.000007
 21
177.0
 31
0.0
  0
LINE
  5
17D9
  8
OUTLINE
  6
CONTINUOUS
 62
     3
 10
-124.000007
 20
177.0
 30
0.0
 11
-152.000007
 21
177.0
 31
0.0
  0
LINE
  5
17DA
  8
OUTLINE
  6
CONTINUOUS
 62
     3
 10
-124.000007
 20
184.9999999999999
 30
0.0
 11
-124.000007
 21
177.0
 31
0.0
  0
LINE
  5
17DB
  8
OUTLINE
  6
CONTINUOUS
 62
     3
 10
154.9999929999999
 20
0.0
 30
0.0
 11
151.9999929999999
 21
177.0
 31
0.0
  0
LINE
  5
17DC
  8
OUTLINE
  6
CONTINUOUS
 62
     3
 10
151.9999929999999
 20
177.0
 30
0.0
 11
123.9999929999999
 21
177.0
 31
0.0
  0
LINE
  5
17DD
  8
OUTLINE
  6
CONTINUOUS
 62
     3
 10
123.9999929999999
 20
184.9999999999999
 30
0.0
 11
123.9999929999999
 21
177.0
 31
0.0
  0
TEXT
  5
17DE
  8
SIZE
  6
CONTINUOUS
 62
    30
 10
-107.3976160078609
 20
579.0568588504096
 30
0.0
 40
64.0
  1
φ82
 41
0.9
  0
TEXT
  5
17DF
  8
ETC
  6
CONTINUOUS
 62
    61
 10
1127.95864368394
 20
983.762536945772
 30
0.0
 40
50.0
  1
VD-18ZFLC7
 41
0.9
  0
TEXT
  5
17E0
  8
ETC
  6
CONTINUOUS
 62
    61
 10
1127.95864368394
 20
883.0753904312036
 30
0.0
 40
50.0
  1
VD-18ZFPC7
 41
0.9
  0
TEXT
  5
17E1
  8
ETC
  6
CONTINUOUS
 62
    61
 10
987.0705689760159
 20
1166.570300866196
 30
0.0
 40
64.0
  1
VD-18ZFLC7_5
 41
0.9
  0
TEXT
  5
17E2
  8
ETC
  6
CONTINUOUS
 62
    61
 10
982.7894859760153
 20
1063.795300866196
 30
0.0
 40
64.0
  1
換気扇
 41
0.9
  0
CIRCLE
  5
17E3
  8
SIZE
  6
CONTINUOUS
 62
    30
 10
-0.0000000000000206
 20
-395.2549316263543
 30
0.0
 40
6.0
  0
LINE
  5
17E4
  8
SIZE
  6
CONTINUOUS
 62
    30
 10
-0.0000000000000206
 20
-395.2549316263543
 30
0.0
 11
11.99999999999997
 21
-395.2549316263543
 31
0.0
  0
ARC
  5
17E5
  8
DETAIL
  6
CONTINUOUS
 62
     5
 10
-190.6531314213119
 20
-8.55388133553033
 30
0.0
 40
4.3468685786884
 50
179.9999692285954
 51
234.4804047329644
  0
ARC
  5
17E6
  8
DETAIL
  6
CONTINUOUS
 62
     5
 10
-173.85271285375
 20
14.98232634828132
 30
0.0
 40
33.26411492374212
 50
234.4803248995992
 51
253.5286705122074
  0
ARC
  5
17E7
  8
DETAIL
  6
CONTINUOUS
 62
     5
 10
-162.5220951578415
 20
53.30392730153929
 30
0.0
 40
73.22569643633473
 50
253.5285971813864
 51
263.0177691889363
  0
ARC
  5
17E8
  8
DETAIL
  6
CONTINUOUS
 62
     5
 10
-155.0001446984807
 20
114.7216893357016
 30
0.0
 40
135.1023578846451
 50
263.0177138406473
 51
265.6978882188731
  0
CIRCLE
  5
17E9
  8
SIZE
  6
CONTINUOUS
 62
    30
 10
-53.99999999999997
 20
549.4325139376651
 30
0.0
 40
6.0
  0
LINE
  5
17EA
  8
SIZE
  6
CONTINUOUS
 62
    30
 10
-53.99999999999997
 20
549.4325139376651
 30
0.0
 11
-41.99999999999996
 21
549.4325139376651
 31
0.0
  0
LINE
  5
17EB
  8
NOTE
  6
CONTINUOUS
 62
     4
 10
111.1334855812463
 20
124.7173163115488
 30
0.0
 11
332.5285119999999
 21
-131.8284679999999
 31
0.0
1001
ACAD
1000
DSTYLE
1002
{
1070
    41
1040
40.0
1070
    42
1040
20.0
1070
    43
1040
200.0
1070
    44
1040
30.0
1070
    73
1070
     0
1070
    74
1070
     0
1070
    77
1070
     0
1070
    78
1070
     8
1070
   140
1040
64.0
1070
   147
1040
20.0
1070
   172
1070
     1
1070
   174
1070
     1
1070
   341
1005
1FC
1070
   342
1005
1F8
1002
}
  0
CIRCLE
  5
17EC
  8
SIZE
  6
CONTINUOUS
 62
    30
 10
84.99999999999999
 20
-395.2549316263543
 30
0.0
 40
6.0
  0
LINE
  5
17ED
  8
SIZE
  6
CONTINUOUS
 62
    30
 10
84.99999999999999
 20
-395.2549316263543
 30
0.0
 11
72.99999999999999
 21
-395.2549316263543
 31
0.0
  0
ARC
  5
17EE
  8
DETAIL
  6
CONTINUOUS
 62
     5
 10
190.6531314213119
 20
-8.55388133553033
 30
0.0
 40
4.3468685786884
 50
305.5195952670356
 51
0.000030771404604
  0
ARC
  5
17EF
  8
DETAIL
  6
CONTINUOUS
 62
     5
 10
173.85271285375
 20
14.98232634828132
 30
0.0
 40
33.26411492374212
 50
286.4713294877922
 51
305.5196751004006
  0
ARC
  5
17F0
  8
DETAIL
  6
CONTINUOUS
 62
     5
 10
162.5220951578415
 20
53.30392730153929
 30
0.0
 40
73.22569643633473
 50
276.9822308110636
 51
286.4714028186135
  0
ARC
  5
17F1
  8
DETAIL
  6
CONTINUOUS
 62
     5
 10
155.0001446984807
 20
114.7216893357016
 30
0.0
 40
135.1023578846451
 50
274.3021117811267
 51
276.9822861593528
  0
LINE
  5
17F2
  8
NOTE
  6
CONTINUOUS
 62
     4
 10
103.0192650158995
 20
117.7692980181768
 30
0.0
 11
85.0
 21
155.0544279999998
 31
0.0
  0
LINE
  5
17F3
  8
NOTE
  6
CONTINUOUS
 62
     4
 10
85.0
 20
155.0544279999998
 30
0.0
 11
119.2477061465931
 21
131.7741906049201
 31
0.0
  0
LINE
  5
17F4
  8
NOTE
  6
CONTINUOUS
 62
     4
 10
85.0
 20
155.0544279999998
 30
0.0
 11
111.1334855812463
 21
124.7717443115485
 31
0.0
  0
LINE
  5
17F5
  8
NOTE
  6
CONTINUOUS
 62
     4
 10
211.3210829999999
 20
178.5664889999999
 30
0.0
 11
172.3572639999999
 21
169.5210039999998
 31
0.0
  0
LINE
  5
17F6
  8
NOTE
  6
CONTINUOUS
 62
     4
 10
172.3572639999999
 20
169.5210039999998
 30
0.0
 11
201.5781779999997
 21
196.836533
 31
0.0
  0
CIRCLE
  5
17F7
  8
SIZE
  6
CONTINUOUS
 62
    30
 10
235.0
 20
551.0783144122508
 30
0.0
 40
6.0
  0
CIRCLE
  5
17F8
  8
SIZE
  6
CONTINUOUS
 62
    30
 10
28.00000000000001
 20
549.4325139376651
 30
0.0
 40
6.0
  0
LINE
  5
17F9
  8
SIZE
  6
CONTINUOUS
 62
    30
 10
28.00000000000001
 20
549.4325139376651
 30
0.0
 11
16.00000000000001
 21
549.4325139376651
 31
0.0
  0
CIRCLE
  5
17FA
  8
SIZE
  6
CONTINUOUS
 62
    30
 10
265.0
 20
551.0783144122508
 30
0.0
 40
6.0
  0
LINE
  5
17FB
  8
SIZE
  6
CONTINUOUS
 62
    30
 10
265.0
 20
551.0783144122508
 30
0.0
 11
277.0
 21
551.0783144122508
 31
0.0
  0
CIRCLE
  5
17FC
  8
SIZE
  6
CONTINUOUS
 62
    30
 10
195.0
 20
664.6383022223293
 30
0.0
 40
6.0
  0
LINE
  5
17FD
  8
SIZE
  6
CONTINUOUS
 62
    30
 10
195.0
 20
664.6383022223293
 30
0.0
 11
207.0
 21
664.6383022223293
 31
0.0
  0
CIRCLE
  5
17FE
  8
SIZE
  6
CONTINUOUS
 62
    30
 10
265.0
 20
664.6383022223293
 30
0.0
 40
6.0
  0
LINE
  5
17FF
  8
SIZE
  6
CONTINUOUS
 62
    30
 10
265.0
 20
664.6383022223293
 30
0.0
 11
253.0
 21
664.6383022223293
 31
0.0
  0
LINE
  5
1800
  8
SIZE
  6
BYBLOCK
 62
    30
 10
278.0
 20
85.05132380199065
 30
0.0
 11
278.0
 21
305.1797979639617
 31
0.0
  0
LINE
  5
1801
  8
DETAIL
  6
DASHED2
 62
     5
 10
278.2113419999999
 20
125.2827170000001
 30
0.0
 11
230.863194
 21
133.285957
 31
0.0
  0
LINE
  5
1802
  8
DETAIL
  6
DASHED2
 62
     5
 10
278.0
 20
123.9999999999999
 30
0.0
 11
230.6713529999999
 21
131.999943
 31
0.0
  0
ARC
  5
1803
  8
DETAIL
  6
DASHDOT1
 62
     5
 10
201.090948
 20
136.999908
 30
0.0
 40
78.0
 50
270.0
 51
350.4059999999991
  0
LINE
  5
1804
  8
DETAIL
  6
DASHDOT1
 62
     5
 10
201.090948
 20
146.9999119999999
 30
0.0
 11
201.090948
 21
56.32569000000009
 31
0.0
  0
LINE
  5
1805
  8
DETAIL
  6
DASHED2
 62
     5
 10
182.0411769999998
 20
131.999885
 30
0.0
 11
230.6713529999999
 21
131.999943
 31
0.0
  0
LINE
  5
1806
  8
DETAIL
  6
DASHED2
 62
     5
 10
182.041175
 20
133.2998850000001
 30
0.0
 11
194.5366659999999
 21
133.2999
 31
0.0
  0
LINE
  5
1807
  8
DETAIL
  6
DASHED2
 62
     5
 10
182.200925
 20
131.999885
 30
0.0
 11
182.2009239999999
 21
133.2998850000001
 31
0.0
  0
LINE
  5
1808
  8
DETAIL
  6
DASHED2
 62
     5
 10
207.804986
 20
133.2999159999999
 30
0.0
 11
230.9401959999999
 21
133.2999429999998
 31
0.0
  0
LINE
  5
1809
  8
BASIS
  6
DASHED2
 62
     6
 10
211.0909509999999
 20
136.999908
 30
0.0
 11
191.090944
 21
136.999908
 31
0.0
  0
ARC
  5
180A
  8
DETAIL
  6
DASHED2
 62
     5
 10
201.090948
 20
136.999908
 30
0.0
 40
5.0
 50
18.9247130000005
 51
161.075423999998
  0
CIRCLE
  5
180B
  8
DETAIL
  6
DASHED2
 62
     5
 10
201.090948
 20
136.999908
 30
0.0
 40
2.1
  0
CIRCLE
  5
180C
  8
DETAIL
  6
DASHED2
 62
     5
 10
201.090948
 20
136.999908
 30
0.0
 40
2.1
  0
LINE
  5
180D
  8
DETAIL
  6
DASHED2
 62
     5
 10
194.0909537185214
 20
131.9998996645206
 30
0.0
 11
194.3747365166905
 21
132.8276027051475
 31
0.0
  0
LINE
  5
180E
  8
DETAIL
  6
DASHED2
 62
     5
 10
194.3747365166905
 20
132.8276027051475
 30
0.0
 11
194.6585193148594
 21
133.6553057457745
 31
0.0
  0
LINE
  5
180F
  8
DETAIL
  6
DASHED2
 62
     5
 10
194.6585193148594
 20
133.6553057457745
 30
0.0
 11
194.9423021130284
 21
134.4830087864015
 31
0.0
  0
LINE
  5
1810
  8
DETAIL
  6
DASHED2
 62
     5
 10
194.9423021130284
 20
134.4830087864015
 30
0.0
 11
195.2260849111974
 21
135.3107118270288
 31
0.0
  0
LINE
  5
1811
  8
DETAIL
  6
DASHED2
 62
     5
 10
195.2260849111974
 20
135.3107118270288
 30
0.0
 11
195.5098677093664
 21
136.1384148676558
 31
0.0
  0
LINE
  5
1812
  8
DETAIL
  6
DASHED2
 62
     5
 10
195.5098677093664
 20
136.1384148676558
 30
0.0
 11
195.7936505075354
 21
136.9661179082828
 31
0.0
  0
LINE
  5
1813
  8
DETAIL
  6
DASHED2
 62
     5
 10
195.7936505075354
 20
136.9661179082828
 30
0.0
 11
196.0774333057042
 21
137.7938209489099
 31
0.0
  0
LINE
  5
1814
  8
DETAIL
  6
DASHED2
 62
     5
 10
196.0774333057042
 20
137.7938209489099
 30
0.0
 11
196.3612161038729
 21
138.6215239895369
 31
0.0
  0
LINE
  5
1815
  8
DETAIL
  6
DASHED2
 62
     5
 10
208.0909418106774
 20
131.9998996645206
 30
0.0
 11
207.8071590125087
 21
132.8276027051475
 31
0.0
  0
LINE
  5
1816
  8
DETAIL
  6
DASHED2
 62
     5
 10
207.8071590125087
 20
132.8276027051475
 30
0.0
 11
207.5233762143398
 21
133.6553057457745
 31
0.0
  0
LINE
  5
1817
  8
DETAIL
  6
DASHED2
 62
     5
 10
207.5233762143398
 20
133.6553057457745
 30
0.0
 11
207.2395934161704
 21
134.4830087864015
 31
0.0
  0
LINE
  5
1818
  8
DETAIL
  6
DASHED2
 62
     5
 10
207.2395934161704
 20
134.4830087864015
 30
0.0
 11
206.9558106180013
 21
135.3107118270288
 31
0.0
  0
LINE
  5
1819
  8
DETAIL
  6
DASHED2
 62
     5
 10
206.9558106180013
 20
135.3107118270288
 30
0.0
 11
206.6720278198328
 21
136.1384148676558
 31
0.0
  0
LINE
  5
181A
  8
DETAIL
  6
DASHED2
 62
     5
 10
206.6720278198328
 20
136.1384148676558
 30
0.0
 11
206.3882450216638
 21
136.9661179082828
 31
0.0
  0
LINE
  5
181B
  8
DETAIL
  6
DASHED2
 62
     5
 10
206.3882450216638
 20
136.9661179082828
 30
0.0
 11
206.1044622234947
 21
137.7938209489099
 31
0.0
  0
LINE
  5
181C
  8
DETAIL
  6
DASHED2
 62
     5
 10
206.1044622234947
 20
137.7938209489099
 30
0.0
 11
205.820679425326
 21
138.6215239895369
 31
0.0
  0
LINE
  5
181D
  8
DETAIL
  6
DASHED2
 62
     5
 10
278.0
 20
123.9999999999999
 30
0.0
 11
278.2113419999999
 21
125.2827170000001
 31
0.0
  0
LINE
  5
1827
  8
SIZE
  6
CONTINUOUS
 62
    30
 10
264.3754503448981
 20
281.979086071775
 30
0.0
 11
413.8819209006431
 21
281.979086071775
 31
0.0
  0
TEXT
  5
1828
  8
SIZE
  6
CONTINUOUS
 62
    30
 10
309.0
 20
310.7776286448028
 30
0.0
 40
64.0
  1
13
 41
0.9
  0
CIRCLE
  5
1829
  8
SIZE
  6
CONTINUOUS
 62
    30
 10
278.0
 20
281.979086071775
 30
0.0
 40
6.0
  0
CIRCLE
  5
182A
  8
SIZE
  6
CONTINUOUS
 62
    30
 10
264.3754503448981
 20
281.979086071775
 30
0.0
 40
6.0
  0
ARC
  5
1850
  8
DETAIL
  6
DASHDOT1
 62
     5
 10
-214.8097957314424
 20
126.4177944589061
 30
0.0
 40
64.5
 50
270.0
 51
323.5558419999934
  0
LINE
  5
1851
  8
BASIS
  6
DASHDOT
 62
     6
 10
-210.2925987314424
 20
127.0640424589062
 30
0.0
 11
-219.5269657314423
 21
127.0640424589062
 31
0.0
  0
LINE
  5
1852
  8
DETAIL
  6
DASHED2
 62
     5
 10
-162.9220917314425
 20
88.10113745890618
 30
0.0
 11
-234.9246047314427
 21
140.4140254589059
 31
0.0
  0
LINE
  5
1853
  8
DETAIL
  6
DASHED2
 62
     5
 10
-162.3343067314426
 20
88.91015445890618
 30
0.0
 11
-234.3368197314425
 21
141.223042458906
 31
0.0
  0
LINE
  5
1854
  8
DETAIL
  6
DASHDOT1
 62
     5
 10
-214.8097957314424
 20
61.91779445890618
 30
0.0
 11
-214.8097957314424
 21
149.5595334405596
 31
0.0
  0
LINE
  5
1855
  8
DETAIL
  6
DASHED
 62
     5
 10
-211.5652257314425
 20
124.706724458906
 30
0.0
 11
-217.8147357314424
 21
129.247259458906
 31
0.0
  0
CIRCLE
  5
1856
  8
DETAIL
  6
DASHED
 62
     5
 10
-214.8097957314424
 20
127.0640424589062
 30
0.0
 40
2.0
  0
LINE
  5
1857
  8
DETAIL
  6
DASHDOT
 62
     5
 10
-234.3368197314425
 20
141.223042458906
 30
0.0
 11
-234.9246047314427
 21
140.4140254589059
 31
0.0
  0
LINE
  5
1858
  8
DETAIL
  6
DASHDOT
 62
     5
 10
-162.9220917314425
 20
88.10113745890618
 30
0.0
 11
-162.3343067314426
 21
88.91015445890618
 31
0.0
  0
ENDSEC
  0
EOF
