  0
SECTION
  2
HEADER
  9
$ACADVER
  1
AC1009
  9
$INSBASE
 10
0.0
 20
0.0
 30
0.0
  9
$EXTMIN
 10
-890.62712699999986
 20
-496.68354299999987
 30
0.0
  9
$EXTMAX
 10
1503.411689714286
 20
1166.3224230000001
 30
50.0
  9
$LIMMIN
 10
-2970.0
 20
-2100.0
  9
$LIMMAX
 10
2970.0
 20
2100.0
  9
$ORTHOMODE
 70
     1
  9
$REGENMODE
 70
     1
  9
$FILLMODE
 70
     1
  9
$QTEXTMODE
 70
     0
  9
$MIRRTEXT
 70
     0
  9
$DRAGMODE
 70
     2
  9
$LTSCALE
 40
20.0
  9
$OSMODE
 70
   943
  9
$ATTMODE
 70
     1
  9
$TEXTSIZE
 40
64.0
  9
$TRACEWID
 40
0.05
  9
$TEXTSTYLE
  7
STANDARD
  9
$CLAYER
  8
ETC
  9
$CELTYPE
  6
CONTINUOUS
  9
$CECOLOR
 62
     7
  9
$DIMSCALE
 40
1.0
  9
$DIMASZ
 40
12.0
  9
$DIMEXO
 40
20.0
  9
$DIMDLI
 40
200.0
  9
$DIMRND
 40
0.0
  9
$DIMDLE
 40
0.0
  9
$DIMEXE
 40
20.0
  9
$DIMTP
 40
0.0
  9
$DIMTM
 40
0.0
  9
$DIMTXT
 40
64.0
  9
$DIMCEN
 40
0.09
  9
$DIMTSZ
 40
0.0
  9
$DIMTOL
 70
     0
  9
$DIMLIM
 70
     0
  9
$DIMTIH
 70
     0
  9
$DIMTOH
 70
     0
  9
$DIMSE1
 70
     0
  9
$DIMSE2
 70
     0
  9
$DIMTAD
 70
     1
  9
$DIMZIN
 70
     8
  9
$DIMBLK
  1
DOT1
  9
$DIMASO
 70
     1
  9
$DIMSHO
 70
     0
  9
$DIMPOST
  1

  9
$DIMAPOST
  1

  9
$DIMALT
 70
     0
  9
$DIMALTD
 70
     2
  9
$DIMALTF
 40
25.399999999999999
  9
$DIMLFAC
 40
1.0
  9
$DIMTOFL
 70
     1
  9
$DIMTVP
 40
0.0
  9
$DIMTIX
 70
     1
  9
$DIMSOXD
 70
     0
  9
$DIMSAH
 70
     1
  9
$DIMBLK1
  1
ORIGIN
  9
$DIMBLK2
  1
ORIGIN
  9
$DIMSTYLE
  2
STANDARD
  9
$DIMCLRD
 70
     7
  9
$DIMCLRE
 70
     7
  9
$DIMCLRT
 70
     7
  9
$DIMTFAC
 40
1.0
  9
$DIMGAP
 40
25.0
  9
$LUNITS
 70
     2
  9
$LUPREC
 70
     4
  9
$SKETCHINC
 40
0.1
  9
$FILLETRAD
 40
3.0
  9
$AUNITS
 70
     1
  9
$AUPREC
 70
     3
  9
$MENU
  1
ACAD
  9
$ELEVATION
 40
0.0
  9
$PELEVATION
 40
0.0
  9
$THICKNESS
 40
50.0
  9
$LIMCHECK
 70
     0
  9
$BLIPMODE
 70
     0
  9
$CHAMFERA
 40
0.0
  9
$CHAMFERB
 40
0.0
  9
$SKPOLY
 70
     0
  9
$TDCREATE
 40
2453019.6230103709
  9
$TDUPDATE
 40
2456954.688450451
  9
$TDINDWG
 40
1.9888513657
  9
$TDUSRTIMER
 40
1.9888511111
  9
$USRTIMER
 70
     1
  9
$ANGBASE
 50
0.0
  9
$ANGDIR
 70
     0
  9
$PDMODE
 70
     3
  9
$PDSIZE
 40
-2.0
  9
$PLINEWID
 40
0.0
  9
$COORDS
 70
     1
  9
$SPLFRAME
 70
     0
  9
$SPLINETYPE
 70
     6
  9
$SPLINESEGS
 70
     8
  9
$ATTDIA
 70
     1
  9
$ATTREQ
 70
     1
  9
$HANDLING
 70
     1
  9
$HANDSEED
  5
414
  9
$SURFTAB1
 70
     6
  9
$SURFTAB2
 70
     6
  9
$SURFTYPE
 70
     6
  9
$SURFU
 70
     6
  9
$SURFV
 70
     6
  9
$UCSNAME
  2

  9
$UCSORG
 10
0.0
 20
0.0
 30
0.0
  9
$UCSXDIR
 10
1.0
 20
0.0
 30
0.0
  9
$UCSYDIR
 10
0.0
 20
1.0
 30
0.0
  9
$PUCSNAME
  2

  9
$PUCSORG
 10
0.0
 20
0.0
 30
0.0
  9
$PUCSXDIR
 10
1.0
 20
0.0
 30
0.0
  9
$PUCSYDIR
 10
0.0
 20
1.0
 30
0.0
  9
$USERI1
 70
     0
  9
$USERI2
 70
     0
  9
$USERI3
 70
     0
  9
$USERI4
 70
     0
  9
$USERI5
 70
     0
  9
$USERR1
 40
20.0
  9
$USERR2
 40
0.0
  9
$USERR3
 40
0.0
  9
$USERR4
 40
0.0
  9
$USERR5
 40
0.0
  9
$WORLDVIEW
 70
     1
  9
$SHADEDGE
 70
     3
  9
$SHADEDIF
 70
    70
  9
$TILEMODE
 70
     1
  9
$MAXACTVP
 70
    48
  9
$PLIMCHECK
 70
     0
  9
$PEXTMIN
 10
-1.0000000000000000E+020
 20
-1.0000000000000000E+020
 30
-1.0000000000000000E+020
  9
$PEXTMAX
 10
1.0000000000000000E+020
 20
1.0000000000000000E+020
 30
1.0000000000000000E+020
  9
$PLIMMIN
 10
0.0
 20
0.0
  9
$PLIMMAX
 10
12.0
 20
9.0
  9
$UNITMODE
 70
     0
  9
$VISRETAIN
 70
     0
  9
$PLINEGEN
 70
     0
  9
$PSLTSCALE
 70
     0
  0
ENDSEC
  0
SECTION
  2
TABLES
  0
TABLE
  2
VPORT
 70
     1
  0
VPORT
  2
*ACTIVE
 70
     0
 10
0.0
 20
0.0
 11
1.0
 21
1.0
 12
339.5794591360459
 22
356.59766434875058
 13
0.0
 23
0.0
 14
1.0
 24
1.0
 15
0.0
 25
0.0
 16
0.0
 26
0.0
 36
1.0
 17
0.0
 27
0.0
 37
0.0
 40
2785.0395132292542
 41
1.3299620733249049
 42
50.0
 43
0.0
 44
0.0
 50
0.0
 51
0.0
 71
     0
 72
  1000
 73
     1
 74
     0
 75
     0
 76
     0
 77
     0
 78
     0
  0
ENDTAB
  0
TABLE
  2
LTYPE
 70
     4
  0
LTYPE
  2
CONTINUOUS
 70
     0
  3
Ä└É³
 72
    65
 73
     0
 40
0.0
  0
LTYPE
  2
DASHDOT
 70
     0
  3
____ _ ____ _ ____ _ ____ _ ____ _ ____ _ ____
 72
    65
 73
     4
 40
5.5
 49
4.0
 49
-0.6
 49
0.3
 49
-0.6
  0
LTYPE
  2
DASHED
 70
     0
  3
-- -- -- -- -- -- -- -- -- -- -- -- -- -- --
 72
    65
 73
     2
 40
0.75
 49
0.5
 49
-0.25
  0
ENDTAB
  0
TABLE
  2
LAYER
 70
    12
  0
LAYER
  2
0
 70
     0
 62
     7
  6
CONTINUOUS
  0
LAYER
  2
SIZE
 70
     0
 62
    30
  6
CONTINUOUS
  0
LAYER
  2
BASIS
 70
     0
 62
     6
  6
DASHDOT
  0
LAYER
  2
OUTLINE
 70
     0
 62
     3
  6
CONTINUOUS
  0
LAYER
  2
DETAIL
 70
     0
 62
     5
  6
CONTINUOUS
  0
LAYER
  2
ARRANGE
 70
     0
 62
     1
  6
CONTINUOUS
  0
LAYER
  2
DEFPOINTS
 70
     0
 62
     7
  6
CONTINUOUS
  0
LAYER
  2
ETC
 70
     0
 62
    61
  6
CONTINUOUS
  0
LAYER
  2
FIX
 70
     0
 62
    11
  6
CONTINUOUS
  0
LAYER
  2
NOTE
 70
     0
 62
     4
  6
CONTINUOUS
  0
LAYER
  2
SERVICESPACE
 70
     0
 62
     2
  6
DASHDOT
  0
LAYER
  2
SYMBOLLINE
 70
     0
 62
    15
  6
CONTINUOUS
  0
ENDTAB
  0
TABLE
  2
STYLE
 70
     2
  0
STYLE
  2
STANDARD
 70
     0
 40
64.0
 41
0.9
 50
0.0
 71
     0
 42
64.0
  3
SIMPLEX.shx
  4
BIGFONT.shx
  0
STYLE
  2
ANNOTATIVE
 70
     0
 40
0.0
 41
1.0
 50
0.0
 71
     0
 42
0.2
  3
txt
  4

  0
ENDTAB
  0
TABLE
  2
VIEW
 70
     1
  0
VIEW
  2
ALL
 70
     0
 40
4282.6198079999976
 10
0.0
 20
41.309903999999989
 41
5940.0
 11
0.0
 21
0.0
 31
1.0
 12
0.0
 22
0.0
 32
0.0
 42
50.0
 43
0.0
 44
0.0
 50
0.0
 71
     0
  0
ENDTAB
  0
TABLE
  2
UCS
 70
     0
  0
ENDTAB
  0
TABLE
  2
APPID
 70
    18
  0
APPID
  2
ACAD
 70
     0
  0
APPID
  2
ACADANNOTATIVE
 70
     0
  0
APPID
  2
AUTOCAD_POSTSCRIPT_FIGURE
 70
     0
  0
APPID
  2
ACAD_EXEMPT_FROM_CAD_STANDARDS
 70
     0
  0
APPID
  2
ACAD_PSEXT
 70
     0
  0
APPID
  2
ACAUTHENVIRON
 70
     0
  0
APPID
  2
GENIUS_GENOENT_13
 70
     0
  0
APPID
  2
GENIUS_GENCFG_13
 70
     0
  0
APPID
  2
GENIUS_GENCFG0_13
 70
     0
  0
APPID
  2
GENIUS_GENCFG1_13
 70
     0
  0
APPID
  2
GENIUS_GENCFG2_13
 70
     0
  0
APPID
  2
GENIUS_GENCFG3_13
 70
     0
  0
APPID
  2
GENIUS_GENCFG4_13
 70
     0
  0
APPID
  2
GENIUS_GEVCFG0_13
 70
     0
  0
APPID
  2
CONTENTBLOCKICON
 70
     0
  0
APPID
  2
CONTENTBLOCKDESCRIPTION
 70
     0
  0
APPID
  2
ACAD_NAV_VCDISPLAY
 70
     0
  0
APPID
  2
ACAD_MLEADERVER
 70
     0
  0
ENDTAB
  0
TABLE
  2
DIMSTYLE
 70
     2
  0
DIMSTYLE
  2
STANDARD
 70
     0
  3

  4

  5

  6

  7

 40
1.0
 41
0.18
 42
0.0625
 43
0.38
 44
0.18
 45
0.0
 46
0.0
 47
0.0
 48
0.0
140
0.18
141
0.09
142
0.0
143
25.399999999999999
144
1.0
145
0.0
146
1.0
147
0.09
 71
     0
 72
     0
 73
     1
 74
     1
 75
     0
 76
     0
 77
     0
 78
     0
170
     0
171
     2
172
     0
173
     0
174
     0
175
     0
176
     7
177
     7
178
     7
  0
DIMSTYLE
  2
ANNOTATIVE
 70
     0
  3

  4

  5

  6

  7

 40
1.0
 41
0.18
 42
0.0625
 43
0.38
 44
0.18
 45
0.0
 46
0.0
 47
0.0
 48
0.0
140
0.18
141
0.09
142
0.0
143
25.399999999999999
144
1.0
145
0.0
146
1.0
147
0.09
 71
     0
 72
     0
 73
     1
 74
     1
 75
     0
 76
     0
 77
     0
 78
     0
170
     0
171
     2
172
     0
173
     0
174
     0
175
     0
176
     0
177
     0
178
     0
  0
ENDTAB
  0
ENDSEC
  0
SECTION
  2
BLOCKS
  0
BLOCK
  8
0
  2
$MODEL_SPACE
 70
     0
 10
0.0
 20
0.0
 30
0.0
  3
$MODEL_SPACE
  1

  0
ENDBLK
  5
382
  8
0
  0
BLOCK
 67
     1
  8
0
  2
$PAPER_SPACE
 70
     0
 10
0.0
 20
0.0
 30
0.0
  3
$PAPER_SPACE
  1

  0
ENDBLK
  5
37E
 67
     1
  8
0
  0
BLOCK
  8
0
  2
DOT1
 70
     0
 10
0.0
 20
0.0
 30
0.0
  3
DOT1
  1

  0
CIRCLE
  5
44
  8
SIZE
  6
CONTINUOUS
 62
     7
 10
0.0
 20
0.0
 30
0.0
 40
3.0
  0
ENDBLK
  5
45
  8
0
  0
BLOCK
  8
0
  2
_ORIGIN
 70
     0
 10
0.0
 20
0.0
 30
0.0
  3
_ORIGIN
  1

  0
CIRCLE
  5
48
  8
0
  6
CONTINUOUS
 62
     7
 10
0.0
 20
0.0
 30
0.0
 40
0.5
  0
LINE
  5
49
  8
0
  6
CONTINUOUS
 62
     7
 10
0.0
 20
0.0
 30
0.0
 11
-1.0
 21
0.0
 31
0.0
  0
ENDBLK
  5
4A
  8
0
  0
ENDSEC
  0
SECTION
  2
ENTITIES
  0
CIRCLE
  5
4B
  8
ARRANGE
  6
CONTINUOUS
 62
     1
 10
0.0
 20
0.0
 30
0.0
 40
40.0
  0
POINT
  5
4C
  8
ARRANGE
  6
CONTINUOUS
 62
     1
 10
0.0
 20
0.0
 30
0.0
 39
50.0
 50
180.0
  0
TEXT
  5
4D
  8
ETC
  6
CONTINUOUS
 62
    61
 10
644.89740400000017
 20
1045.95964
 30
0.0
 40
64.0
  1
VD-18ZFVC2-HM_4
 41
0.9
  0
TEXT
  5
4E
  8
ETC
  6
CONTINUOUS
 62
    61
 10
640.71141
 20
928.00432999999998
 30
0.0
 40
64.0
  1
èÀïCÉ¯
 41
0.9
  0
TEXT
  5
4F
  8
ETC
  6
CONTINUOUS
 62
    61
 10
691.31891299999995
 20
821.083394
 30
0.0
 40
40.0
  1
VD-18ZFVC2-HM
 41
0.9
  0
LINE
  5
51
  8
BASIS
  6
DASHDOT
 62
     6
 39
50.0
 10
0.0
 20
-57.718819999999987
 30
0.0
 11
0.0
 21
210.53293099999999
 31
0.0
  0
TEXT
  5
52
  8
NOTE
  6
CONTINUOUS
 62
     4
 10
-599.12280599999997
 20
-417.02658299999979
 30
0.0
 40
64.0
  1
8-âË5
 41
0.9
  0
TEXT
  5
53
  8
NOTE
  6
CONTINUOUS
 62
     4
 10
-395.43618900000001
 20
81.199204000000023
 30
0.0
 40
64.0
  1
EA
 41
0.9
  0
LINE
  5
54
  8
NOTE
  6
CONTINUOUS
 62
     4
 39
50.0
 10
-166.777308
 20
-1.758173999999999
 30
0.0
 11
-344.51105200000001
 21
-428.51551699999999
 31
0.0
  0
LINE
  5
55
  8
NOTE
  6
CONTINUOUS
 62
     4
 39
50.0
 10
-617.08885299999997
 20
-428.51551699999999
 30
0.0
 11
-344.51105200000001
 21
-428.51551699999999
 31
0.0
  0
LINE
  5
56
  8
NOTE
  6
CONTINUOUS
 62
     4
 39
50.0
 10
-181.44508599999989
 20
-15.591063
 30
0.0
 11
-166.777308
 21
-1.758173999999999
 31
0.0
  0
LINE
  5
57
  8
NOTE
  6
CONTINUOUS
 62
     4
 39
50.0
 10
-166.777308
 20
-1.758173999999999
 30
0.0
 11
-168.36669499999991
 21
-22.289612999999989
 31
0.0
  0
LINE
  5
58
  8
NOTE
  6
CONTINUOUS
 62
     4
 39
50.0
 10
-165.0
 20
-7.477714999999999
 30
0.0
 11
-165.0
 21
9.9933689999999995
 31
0.0
  0
CIRCLE
  5
59
  8
FIX
  6
CONTINUOUS
 62
    11
 39
50.0
 10
-165.0
 20
0.0
 30
0.0
 40
2.5
  0
TEXT
  5
5A
  8
NOTE
  6
CONTINUOUS
 62
     4
 10
273.50875600000001
 20
78.720819999999975
 30
0.0
 40
64.0
  1
RA1
 41
0.9
  0
TEXT
  5
5B
  8
NOTE
  6
CONTINUOUS
 62
     4
 10
-72.909766000000005
 20
78.720819999999975
 30
0.0
 40
64.0
  1
RA2
 41
0.9
  0
TEXT
  5
5C
  8
NOTE
  6
CONTINUOUS
 62
     4
 10
304.68886700000002
 20
344.89109799999977
 30
0.0
 40
64.0
  1
AH 4-âË15ü~22
 41
0.9
  0
LINE
  5
5D
  8
NOTE
  6
CONTINUOUS
 62
     4
 39
50.0
 10
187.92324799999989
 20
174.397558
 30
0.0
 11
281.96266800000001
 21
321.2415069999999
 31
0.0
  0
LINE
  5
5E
  8
NOTE
  6
CONTINUOUS
 62
     4
 39
50.0
 10
920.30082400000003
 20
321.2415069999999
 30
0.0
 11
281.96266800000001
 21
321.2415069999999
 31
0.0
  0
LINE
  5
5F
  8
NOTE
  6
CONTINUOUS
 62
     4
 39
50.0
 10
204.29270500000001
 20
186.1675789999999
 30
0.0
 11
187.92324799999989
 21
174.397558
 31
0.0
  0
LINE
  5
60
  8
NOTE
  6
CONTINUOUS
 62
     4
 39
50.0
 10
187.92324799999989
 20
174.397558
 30
0.0
 11
192.21586600000001
 21
194.53805299999991
 31
0.0
  0
LINE
  5
61
  8
DETAIL
  6
CONTINUOUS
 62
     5
 10
54.600006
 20
169.428766
 30
0.0
 11
29.0
 21
169.428766
 31
0.0
  0
LINE
  5
62
  8
DETAIL
  6
CONTINUOUS
 62
     5
 10
54.600006
 20
169.428766
 30
0.0
 11
54.600006
 21
168.0
 31
0.0
  0
LINE
  5
63
  8
DETAIL
  6
CONTINUOUS
 62
     5
 10
54.100006
 20
193.900024
 30
0.0
 11
54.100006
 21
170.29485500000001
 31
0.0
  0
LINE
  5
64
  8
DETAIL
  6
CONTINUOUS
 62
     5
 10
54.600060999999997
 20
169.428766
 30
0.0
 11
54.100044999999987
 21
170.29485500000001
 31
0.0
  0
ARC
  5
65
  8
DETAIL
  6
CONTINUOUS
 62
     5
 10
48.0
 20
193.900024
 30
0.0
 40
6.0999999999999979
 50
0.000001
 51
90.0
  0
LINE
  5
66
  8
DETAIL
  6
CONTINUOUS
 62
     5
 10
48.0
 20
200.0
 30
0.0
 11
13.0
 21
200.0
 31
0.0
  0
LINE
  5
67
  8
DETAIL
  6
CONTINUOUS
 62
     5
 10
-28.100006
 20
193.900024
 30
0.0
 11
-28.100006
 21
173.49499
 31
0.0
  0
ARC
  5
68
  8
DETAIL
  6
CONTINUOUS
 62
     5
 10
-22.0
 20
193.900024
 30
0.0
 40
6.0999999999999979
 50
90.0
 51
179.999999
  0
LINE
  5
69
  8
DETAIL
  6
CONTINUOUS
 62
     5
 10
-22.0
 20
200.0
 30
0.0
 11
13.0
 21
200.0
 31
0.0
  0
LINE
  5
6A
  8
BASIS
  6
DASHDOT
 62
     6
 10
274.13550199999992
 20
109.0
 30
0.0
 11
-319.18855999999988
 21
109.0
 31
0.0
  0
LINE
  5
6B
  8
DETAIL
  6
CONTINUOUS
 62
     5
 10
-264.94818599999991
 20
82.876769999999979
 30
0.0
 11
-264.88202699999988
 21
82.882603000000003
 31
0.0
  0
LINE
  5
6C
  8
DETAIL
  6
CONTINUOUS
 62
     5
 10
-264.94818599999991
 20
82.876769999999979
 30
0.0
 11
-264.88202699999988
 21
82.882603000000003
 31
0.0
  0
LINE
  5
6D
  8
DETAIL
  6
CONTINUOUS
 62
     5
 10
-62.0
 20
167.995
 30
0.0
 11
-29.0
 21
167.995
 31
0.0
  0
LINE
  5
6E
  8
DETAIL
  6
CONTINUOUS
 62
     5
 10
-64.0
 20
164.995
 30
0.0
 11
-58.999747999999983
 21
164.995
 31
0.0
  0
LINE
  5
6F
  8
DETAIL
  6
CONTINUOUS
 62
     5
 10
-26.0
 20
167.995
 30
0.0
 11
26.0
 21
167.995
 31
0.0
  0
LINE
  5
70
  8
DETAIL
  6
CONTINUOUS
 62
     5
 10
29.0
 20
167.995
 30
0.0
 11
40.0
 21
167.995
 31
0.0
  0
LINE
  5
71
  8
DETAIL
  6
CONTINUOUS
 62
     5
 10
42.0
 20
164.995
 30
0.0
 11
42.0
 21
165.995
 31
0.0
  0
LINE
  5
72
  8
DETAIL
  6
CONTINUOUS
 62
     5
 10
-64.0
 20
164.995
 30
0.0
 11
-64.0
 21
165.995
 31
0.0
  0
LINE
  5
73
  8
DETAIL
  6
CONTINUOUS
 62
     5
 10
-59.166401
 20
164.995
 30
0.0
 11
42.0
 21
164.995
 31
0.0
  0
LINE
  5
74
  8
DETAIL
  6
CONTINUOUS
 62
     5
 10
-29.0
 20
167.995
 30
0.0
 11
-29.0
 21
171.71801600000001
 31
0.0
  0
LINE
  5
75
  8
DETAIL
  6
CONTINUOUS
 62
     5
 10
-26.0
 20
167.995
 30
0.0
 11
-26.0
 21
171.16404799999981
 31
0.0
  0
LINE
  5
76
  8
DETAIL
  6
CONTINUOUS
 62
     5
 10
26.0
 20
167.995
 30
0.0
 11
26.0
 21
171.16404799999981
 31
0.0
  0
LINE
  5
77
  8
DETAIL
  6
CONTINUOUS
 62
     5
 10
29.0
 20
167.995
 30
0.0
 11
29.0
 21
171.71801600000001
 31
0.0
  0
LINE
  5
78
  8
DETAIL
  6
CONTINUOUS
 62
     5
 10
23.291302999999999
 20
181.5094959999999
 30
0.0
 11
28.857493000000002
 21
172.23251200000001
 31
0.0
  0
LINE
  5
79
  8
DETAIL
  6
CONTINUOUS
 62
     5
 10
-23.291302999999999
 20
181.5094959999999
 30
0.0
 11
-28.857493000000002
 21
172.23251200000001
 31
0.0
  0
LINE
  5
7A
  8
DETAIL
  6
CONTINUOUS
 62
     5
 10
-22.433810000000001
 20
181.995
 30
0.0
 11
22.433810000000001
 21
181.995
 31
0.0
  0
ARC
  5
7B
  8
DETAIL
  6
CONTINUOUS
 62
     5
 10
-22.433810000000001
 20
180.995
 30
0.0
 40
1.0
 50
90.0
 51
149.0362429999999
  0
ARC
  5
7C
  8
DETAIL
  6
CONTINUOUS
 62
     5
 10
22.433810000000001
 20
180.995
 30
0.0
 40
1.0
 50
30.963757000000012
 51
90.0
  0
ARC
  5
7D
  8
DETAIL
  6
CONTINUOUS
 62
     5
 10
28.0
 20
171.71801600000001
 30
0.0
 40
1.0
 50
0.0
 51
30.963757000000012
  0
ARC
  5
7E
  8
DETAIL
  6
CONTINUOUS
 62
     5
 10
-28.0
 20
171.71801600000001
 30
0.0
 40
1.0
 50
149.0362429999999
 51
180.0
  0
LINE
  5
7F
  8
DETAIL
  6
CONTINUOUS
 62
     5
 10
21.301428999999999
 20
178.995
 30
0.0
 11
-21.301428999999999
 21
178.995
 31
0.0
  0
LINE
  5
80
  8
DETAIL
  6
CONTINUOUS
 62
     5
 10
-21.301428999999999
 20
178.995
 30
0.0
 11
-26.0
 21
171.16404799999981
 31
0.0
  0
LINE
  5
81
  8
DETAIL
  6
CONTINUOUS
 62
     5
 10
21.301428999999999
 20
178.995
 30
0.0
 11
26.0
 21
171.16404799999981
 31
0.0
  0
ARC
  5
82
  8
DETAIL
  6
CONTINUOUS
 62
     5
 10
-62.0
 20
165.995
 30
0.0
 40
2.0
 50
90.0
 51
180.0
  0
ARC
  5
83
  8
DETAIL
  6
CONTINUOUS
 62
     5
 10
40.0
 20
165.995
 30
0.0
 40
2.0
 50
0.0
 51
90.0
  0
LINE
  5
84
  8
DETAIL
  6
DASHED
 62
     5
 10
-265.00904400000002
 20
87.186581000000004
 30
0.0
 11
-257.23101400000002
 21
81.042466000000005
 31
0.0
  0
LINE
  5
85
  8
DETAIL
  6
DASHED
 62
     5
 10
-257.23101400000002
 20
81.042466000000005
 30
0.0
 11
-233.21864599999989
 21
82.425212000000002
 31
0.0
  0
LINE
  5
86
  8
DETAIL
  6
DASHED
 62
     5
 10
-233.72213699999989
 20
152.97326499999991
 30
0.0
 11
-257.556084
 21
150.55145899999999
 31
0.0
  0
LINE
  5
87
  8
DETAIL
  6
DASHED
 62
     5
 10
-266.12920400000002
 20
142.4420879999999
 30
0.0
 11
-257.556084
 21
150.55145899999999
 31
0.0
  0
LINE
  5
88
  8
DETAIL
  6
CONTINUOUS
 62
     5
 10
-277.31269900000001
 20
109.69797
 30
0.0
 11
-276.955623
 21
107.465121
 31
0.0
  0
LINE
  5
89
  8
DETAIL
  6
CONTINUOUS
 62
     5
 10
-276.955623
 20
107.465121
 30
0.0
 11
-276.45687099999992
 21
105.26563299999999
 31
0.0
  0
LINE
  5
8A
  8
DETAIL
  6
CONTINUOUS
 62
     5
 10
-276.45687099999992
 20
105.26563299999999
 30
0.0
 11
-275.81859300000002
 21
103.105982
 31
0.0
  0
LINE
  5
8B
  8
DETAIL
  6
CONTINUOUS
 62
     5
 10
-275.81859300000002
 20
103.105982
 30
0.0
 11
-275.60160400000001
 21
102.471339
 31
0.0
  0
LINE
  5
8C
  8
DETAIL
  6
CONTINUOUS
 62
     5
 10
-275.74052199999988
 20
102.865262
 30
0.0
 11
-275.95751100000001
 21
103.499906
 31
0.0
  0
LINE
  5
8D
  8
DETAIL
  6
CONTINUOUS
 62
     5
 10
-275.60160400000001
 20
102.471339
 30
0.0
 11
-275.0421
 21
100.99290499999979
 31
0.0
  0
LINE
  5
8E
  8
DETAIL
  6
CONTINUOUS
 62
     5
 10
-275.0421
 20
100.99290499999979
 30
0.0
 11
-274.13035799999989
 21
98.932579000000004
 31
0.0
  0
LINE
  5
8F
  8
DETAIL
  6
CONTINUOUS
 62
     5
 10
-274.13035799999989
 20
98.932579000000004
 30
0.0
 11
-273.0855049999999
 21
96.931483999999998
 31
0.0
  0
LINE
  5
90
  8
DETAIL
  6
CONTINUOUS
 62
     5
 10
-273.0855049999999
 20
96.931483999999998
 30
0.0
 11
-271.91132499999992
 21
94.995455000000007
 31
0.0
  0
LINE
  5
91
  8
DETAIL
  6
CONTINUOUS
 62
     5
 10
-271.91132499999992
 20
94.995455000000007
 30
0.0
 11
-270.61080499999991
 21
93.130706000000004
 31
0.0
  0
LINE
  5
92
  8
DETAIL
  6
CONTINUOUS
 62
     5
 10
-270.61080499999991
 20
93.130706000000004
 30
0.0
 11
-269.18847499999998
 21
91.342581000000024
 31
0.0
  0
LINE
  5
93
  8
DETAIL
  6
CONTINUOUS
 62
     5
 10
-277.59914800000001
 20
114.236099
 30
0.0
 11
-277.527646
 21
111.9572209999999
 31
0.0
  0
LINE
  5
94
  8
DETAIL
  6
CONTINUOUS
 62
     5
 10
-277.527646
 20
111.9572209999999
 30
0.0
 11
-277.31269900000001
 21
109.69797
 31
0.0
  0
LINE
  5
95
  8
DETAIL
  6
CONTINUOUS
 62
     5
 10
-269.18847499999998
 20
91.342581000000024
 30
0.0
 11
-267.64812199999989
 21
89.636892000000003
 31
0.0
  0
LINE
  5
96
  8
DETAIL
  6
CONTINUOUS
 62
     5
 10
-267.64812199999989
 20
89.636892000000003
 30
0.0
 11
-265.99497200000002
 21
88.018445999999983
 31
0.0
  0
LINE
  5
97
  8
DETAIL
  6
CONTINUOUS
 62
     5
 10
-265.99497200000002
 20
88.018445999999983
 30
0.0
 11
-265.00904400000002
 21
87.164278999999993
 31
0.0
  0
LINE
  5
98
  8
DETAIL
  6
CONTINUOUS
 62
     5
 10
-276.45687099999992
 20
123.40797999999999
 30
0.0
 11
-276.955623
 21
121.120548
 31
0.0
  0
LINE
  5
99
  8
DETAIL
  6
CONTINUOUS
 62
     5
 10
-276.955623
 20
121.120548
 30
0.0
 11
-277.31269900000001
 21
118.8247379999999
 31
0.0
  0
LINE
  5
9A
  8
DETAIL
  6
CONTINUOUS
 62
     5
 10
-277.31269900000001
 20
118.8247379999999
 30
0.0
 11
-277.527646
 21
116.527585
 31
0.0
  0
LINE
  5
9B
  8
DETAIL
  6
CONTINUOUS
 62
     5
 10
-277.527646
 20
116.527585
 30
0.0
 11
-277.59914800000001
 21
114.236099
 31
0.0
  0
LINE
  5
9C
  8
DETAIL
  6
CONTINUOUS
 62
     5
 10
-275.0421
 20
127.9301699999999
 30
0.0
 11
-275.81859300000002
 21
125.680176
 31
0.0
  0
LINE
  5
9D
  8
DETAIL
  6
CONTINUOUS
 62
     5
 10
-275.81859300000002
 20
125.680176
 30
0.0
 11
-276.45687099999992
 21
123.40797999999999
 31
0.0
  0
LINE
  5
9E
  8
DETAIL
  6
CONTINUOUS
 62
     5
 10
-271.91132499999992
 20
134.47966099999999
 30
0.0
 11
-273.0855049999999
 21
132.336592
 31
0.0
  0
LINE
  5
9F
  8
DETAIL
  6
CONTINUOUS
 62
     5
 10
-273.0855049999999
 20
132.336592
 30
0.0
 11
-274.13035799999989
 21
130.15126100000001
 31
0.0
  0
LINE
  5
A0
  8
DETAIL
  6
CONTINUOUS
 62
     5
 10
-274.13035799999989
 20
130.15126100000001
 30
0.0
 11
-275.0421
 21
127.9301699999999
 31
0.0
  0
LINE
  5
A1
  8
DETAIL
  6
CONTINUOUS
 62
     5
 10
-269.18847499999998
 20
138.6126459999999
 30
0.0
 11
-270.61080499999991
 21
136.57372599999991
 31
0.0
  0
LINE
  5
A2
  8
DETAIL
  6
CONTINUOUS
 62
     5
 10
-270.61080499999991
 20
136.57372599999991
 30
0.0
 11
-271.91132499999992
 21
134.47966099999999
 31
0.0
  0
LINE
  5
A3
  8
DETAIL
  6
CONTINUOUS
 62
     5
 10
-265.99497200000002
 20
142.49988200000001
 30
0.0
 11
-267.64812199999989
 21
140.5899399999999
 31
0.0
  0
LINE
  5
A4
  8
DETAIL
  6
CONTINUOUS
 62
     5
 10
-267.64812199999989
 20
140.5899399999999
 30
0.0
 11
-269.18847499999998
 21
138.6126459999999
 31
0.0
  0
LINE
  5
A5
  8
DETAIL
  6
CONTINUOUS
 62
     5
 10
-262.36974500000002
 20
146.01712900000001
 30
0.0
 11
-265.00904400000002
 21
143.527894
 31
0.0
  0
LINE
  5
A6
  8
DETAIL
  6
CONTINUOUS
 62
     5
 10
-265.00904400000002
 20
143.527894
 30
0.0
 11
-265.99497200000002
 21
142.49988200000001
 31
0.0
  0
LINE
  5
A7
  8
DETAIL
  6
CONTINUOUS
 62
     5
 10
-265.00904400000002
 20
87.164278999999993
 30
0.0
 11
-262.36974500000002
 21
85.140423999999996
 31
0.0
  0
LINE
  5
A8
  8
DETAIL
  6
CONTINUOUS
 62
     5
 10
-121.9460439999999
 20
175.5
 30
0.0
 11
-122.510385
 21
175.5
 31
0.0
  0
LINE
  5
A9
  8
DETAIL
  6
CONTINUOUS
 62
     5
 10
-78.999968999999965
 20
165.0
 30
0.0
 11
-53.997972999999988
 21
165.0
 31
0.0
  0
ARC
  5
AA
  8
DETAIL
  6
CONTINUOUS
 62
     5
 10
194.0
 20
-1.0
 30
0.0
 40
1.0
 50
0.0
 51
90.0
  0
ARC
  5
AB
  8
DETAIL
  6
CONTINUOUS
 62
     5
 10
-194.0
 20
-1.0
 30
0.0
 40
1.0
 50
90.0
 51
180.0
  0
LINE
  5
AC
  8
DETAIL
  6
CONTINUOUS
 62
     5
 10
193.03653
 20
-10.0
 30
0.0
 11
148.0
 21
-10.0
 31
0.0
  0
LINE
  5
AD
  8
DETAIL
  6
CONTINUOUS
 62
     5
 10
195.0
 20
-1.0
 30
0.0
 11
195.0
 21
-4.1489570000000002
 31
0.0
  0
LINE
  5
AE
  8
DETAIL
  6
CONTINUOUS
 62
     5
 10
145.5
 20
-10.0
 30
0.0
 11
0.0
 21
-10.0
 31
0.0
  0
LINE
  5
AF
  8
DETAIL
  6
CONTINUOUS
 62
     5
 10
195.0
 20
-1.0
 30
0.0
 11
195.0
 21
-5.8030919999999986
 31
0.0
  0
LINE
  5
B0
  8
DETAIL
  6
CONTINUOUS
 62
     5
 10
145.5
 20
-20.0
 30
0.0
 11
0.0
 21
-20.0
 31
0.0
  0
LINE
  5
B1
  8
DETAIL
  6
CONTINUOUS
 62
     5
 10
145.5
 20
0.0
 30
0.0
 11
145.5
 21
-20.0
 31
0.0
  0
ARC
  5
B2
  8
DETAIL
  6
CONTINUOUS
 62
     5
 10
147.0
 20
97.700000000000017
 30
0.0
 40
117.7
 50
270.4868009999999
 51
292.08657499999993
  0
LINE
  5
B3
  8
DETAIL
  6
CONTINUOUS
 62
     5
 10
145.5
 20
-19.0
 30
0.0
 11
148.0
 21
-19.0
 31
0.0
  0
LINE
  5
B4
  8
DETAIL
  6
CONTINUOUS
 62
     5
 10
148.0
 20
0.0
 30
0.0
 11
148.0
 21
-20.0
 31
0.0
  0
ARC
  5
B5
  8
DETAIL
  6
CONTINUOUS
 62
     5
 10
189.0
 20
-5.8030919999999986
 30
0.0
 40
6.0
 50
292.08657499999993
 51
0.0
  0
LINE
  5
B6
  8
DETAIL
  6
CONTINUOUS
 62
     5
 10
194.0
 20
0.0
 30
0.0
 11
0.0
 21
0.0
 31
0.0
  0
LINE
  5
B7
  8
DETAIL
  6
CONTINUOUS
 62
     5
 10
-193.03653
 20
-10.0
 30
0.0
 11
-148.0
 21
-10.0
 31
0.0
  0
LINE
  5
B8
  8
DETAIL
  6
CONTINUOUS
 62
     5
 10
-195.0
 20
-1.0
 30
0.0
 11
-195.0
 21
-4.1489570000000002
 31
0.0
  0
LINE
  5
B9
  8
DETAIL
  6
CONTINUOUS
 62
     5
 10
-145.5
 20
-10.0
 30
0.0
 11
0.0
 21
-10.0
 31
0.0
  0
LINE
  5
BA
  8
DETAIL
  6
CONTINUOUS
 62
     5
 10
-195.0
 20
-1.0
 30
0.0
 11
-195.0
 21
-5.8030919999999986
 31
0.0
  0
LINE
  5
BB
  8
DETAIL
  6
CONTINUOUS
 62
     5
 10
-145.5
 20
-20.0
 30
0.0
 11
0.0
 21
-20.0
 31
0.0
  0
LINE
  5
BC
  8
DETAIL
  6
CONTINUOUS
 62
     5
 10
-145.5
 20
0.0
 30
0.0
 11
-145.5
 21
-20.0
 31
0.0
  0
ARC
  5
BD
  8
DETAIL
  6
CONTINUOUS
 62
     5
 10
-147.0
 20
97.700000000000017
 30
0.0
 40
117.7
 50
247.9134249999999
 51
269.51319899999999
  0
LINE
  5
BE
  8
DETAIL
  6
CONTINUOUS
 62
     5
 10
-145.5
 20
-19.0
 30
0.0
 11
-148.0
 21
-19.0
 31
0.0
  0
LINE
  5
BF
  8
DETAIL
  6
CONTINUOUS
 62
     5
 10
-148.0
 20
0.0
 30
0.0
 11
-148.0
 21
-20.0
 31
0.0
  0
ARC
  5
C0
  8
DETAIL
  6
CONTINUOUS
 62
     5
 10
-189.0
 20
-5.8030919999999986
 30
0.0
 40
6.0
 50
180.0
 51
247.9134249999999
  0
LINE
  5
C1
  8
DETAIL
  6
CONTINUOUS
 62
     5
 10
-194.0
 20
0.0
 30
0.0
 11
0.0
 21
0.0
 31
0.0
  0
LINE
  5
C2
  8
DETAIL
  6
DASHED
 62
     5
 10
225.047516
 20
128.951998
 30
0.0
 11
204.256801
 21
128.951998
 31
0.0
  0
CIRCLE
  5
C3
  8
DETAIL
  6
DASHED
 62
     5
 10
214.3256319999999
 20
128.951998
 30
0.0
 40
3.0
  0
LINE
  5
C4
  8
DETAIL
  6
DASHED
 62
     5
 10
169.4243509999998
 20
82.636504000000016
 30
0.0
 11
232.35685499999991
 21
145.56900699999991
 31
0.0
  0
LINE
  5
C5
  8
DETAIL
  6
DASHED
 62
     5
 10
168.0101379999999
 20
84.050717000000006
 30
0.0
 11
230.9426409999999
 21
146.9832209999999
 31
0.0
  0
LINE
  5
C6
  8
DETAIL
  6
DASHED
 62
     5
 10
214.3256319999999
 20
64.451998000000003
 30
0.0
 11
214.3256319999999
 21
153.4519979999998
 31
0.0
  0
ARC
  5
C7
  8
DETAIL
  6
DASHED
 62
     5
 10
214.30691699999991
 20
128.93328299999999
 30
0.0
 40
64.481288000000006
 50
225.8886
 51
270.01662900000002
  0
ARC
  5
C8
  8
DETAIL
  6
CONTINUOUS
 62
     5
 10
-143.314787
 20
183.221451
 30
0.0
 40
0.5
 50
155.772255
 51
179.0
  0
LINE
  5
C9
  8
DETAIL
  6
CONTINUOUS
 62
     5
 10
-143.81471099999999
 20
183.23017799999991
 30
0.0
 11
-143.82745600000001
 21
182.5
 31
0.0
  0
LINE
  5
CA
  8
DETAIL
  6
CONTINUOUS
 62
     5
 10
-139.59540100000001
 20
192.70518200000001
 30
0.0
 11
-143.770747
 21
183.42663400000001
 31
0.0
  0
LINE
  5
CB
  8
DETAIL
  6
CONTINUOUS
 62
     5
 10
-59.16648399999999
 20
165.0
 30
0.0
 11
-144.128468
 21
164.98446299999981
 31
0.0
  0
LINE
  5
CC
  8
DETAIL
  6
CONTINUOUS
 62
     5
 10
-124.334791
 20
173.2876169999999
 30
0.0
 11
-124.52834900000001
 21
175.5
 31
0.0
  0
LINE
  5
CD
  8
DETAIL
  6
CONTINUOUS
 62
     5
 10
-136.36001200000001
 20
175.5
 30
0.0
 11
-136.26838000000001
 21
165.0
 31
0.0
  0
LINE
  5
CE
  8
DETAIL
  6
CONTINUOUS
 62
     5
 10
-138.66545300000001
 20
175.5
 30
0.0
 11
-138.75708499999999
 21
165.0
 31
0.0
  0
LINE
  5
CF
  8
DETAIL
  6
CONTINUOUS
 62
     5
 10
-126.732299
 20
187.26956599999991
 30
0.0
 11
-132.31628599999999
 21
192.85355299999989
 31
0.0
  0
LINE
  5
D0
  8
DETAIL
  6
CONTINUOUS
 62
     5
 10
-132.669839
 20
193.0
 30
0.0
 11
-139.13943999999981
 21
193.0
 31
0.0
  0
ARC
  5
D1
  8
DETAIL
  6
CONTINUOUS
 62
     5
 10
-130.26783299999991
 20
183.73403200000001
 30
0.0
 40
5.0
 50
4.9990649999999981
 51
45.0
  0
ARC
  5
D2
  8
DETAIL
  6
CONTINUOUS
 62
     5
 10
-138.017077
 20
192.5
 30
0.0
 40
0.5
 50
90.0
 51
179.49999999999989
  0
ARC
  5
D3
  8
DETAIL
  6
CONTINUOUS
 62
     5
 10
-137.00838799999991
 20
192.5
 30
0.0
 40
0.5
 50
0.5
 51
90.0
  0
ARC
  5
D4
  8
DETAIL
  6
CONTINUOUS
 62
     5
 10
-132.669839
 20
192.5
 30
0.0
 40
0.5
 50
45.0
 51
90.0
  0
ARC
  5
D5
  8
DETAIL
  6
CONTINUOUS
 62
     5
 10
-139.13943999999981
 20
192.5
 30
0.0
 40
0.5
 50
90.0
 51
155.772255
  0
LINE
  5
D6
  8
DETAIL
  6
CONTINUOUS
 62
     5
 10
-125.1407699999999
 20
182.5
 30
0.0
 11
-125.28685900000001
 21
184.16981100000001
 31
0.0
  0
LINE
  5
D7
  8
DETAIL
  6
CONTINUOUS
 62
     5
 10
-136.50840699999981
 20
192.5043629999999
 30
0.0
 11
-136.4211
 21
182.5
 31
0.0
  0
LINE
  5
D8
  8
DETAIL
  6
CONTINUOUS
 62
     5
 10
-138.51705799999999
 20
192.5043629999999
 30
0.0
 11
-138.6043649999998
 21
182.5
 31
0.0
  0
LINE
  5
D9
  8
DETAIL
  6
CONTINUOUS
 62
     5
 10
-29.608521
 20
168.0
 30
0.0
 11
-115.11340800000001
 21
168.0
 31
0.0
  0
LINE
  5
DA
  8
DETAIL
  6
CONTINUOUS
 62
     5
 10
94.355562000000006
 20
168.0
 30
0.0
 11
29.583054999999991
 21
168.0
 31
0.0
  0
LINE
  5
DB
  8
DETAIL
  6
CONTINUOUS
 62
     5
 10
-21.405623999999989
 20
187.50872599999991
 30
0.0
 11
-21.309380999999991
 21
181.995
 31
0.0
  0
LINE
  5
DC
  8
DETAIL
  6
CONTINUOUS
 62
     5
 10
-21.905548
 20
188.0
 30
0.0
 11
-22.119917000000001
 21
188.0
 31
0.0
  0
ARC
  5
DD
  8
DETAIL
  6
CONTINUOUS
 62
     5
 10
-21.905548
 20
187.49999600000001
 30
0.0
 40
0.5
 50
1.000472
 51
90.0
  0
ARC
  5
DE
  8
DETAIL
  6
CONTINUOUS
 62
     5
 10
-22.119917999999991
 20
187.49999600000001
 30
0.0
 40
0.5
 50
90.0
 51
178.99951100000001
  0
LINE
  5
DF
  8
DETAIL
  6
CONTINUOUS
 62
     5
 10
-22.619841000000001
 20
187.50872599999991
 30
0.0
 11
-22.716796999999989
 21
181.95412400000001
 31
0.0
  0
LINE
  5
E0
  8
DETAIL
  6
CONTINUOUS
 62
     5
 10
21.283916000000001
 20
181.995
 30
0.0
 11
21.380158999999999
 21
187.50872599999991
 31
0.0
  0
LINE
  5
E1
  8
DETAIL
  6
CONTINUOUS
 62
     5
 10
22.691206999999999
 20
181.96130600000001
 30
0.0
 11
22.594376
 21
187.50872599999991
 31
0.0
  0
LINE
  5
E2
  8
DETAIL
  6
CONTINUOUS
 62
     5
 10
22.094452
 20
188.0
 30
0.0
 11
21.880082999999988
 21
188.0
 31
0.0
  0
ARC
  5
E3
  8
DETAIL
  6
CONTINUOUS
 62
     5
 10
21.880082000000002
 20
187.4999949999999
 30
0.0
 40
0.5
 50
90.0
 51
178.99944099999999
  0
ARC
  5
E4
  8
DETAIL
  6
CONTINUOUS
 62
     5
 10
22.094452
 20
187.4999949999999
 30
0.0
 40
0.5
 50
1.000564999999999
 51
90.0
  0
LINE
  5
E5
  8
DETAIL
  6
CONTINUOUS
 62
     5
 10
21.252479000000001
 20
179.99722
 30
0.0
 11
21.249166999999989
 21
180.0
 31
0.0
  0
LINE
  5
E6
  8
DETAIL
  6
CONTINUOUS
 62
     5
 10
94.987267000000003
 20
165.0
 30
0.0
 11
94.854877000000002
 21
167.52616800000001
 31
0.0
  0
ARC
  5
E7
  8
DETAIL
  6
CONTINUOUS
 62
     5
 10
94.355562000000006
 20
167.5
 30
0.0
 40
0.5
 50
3.0
 51
90.0
  0
LINE
  5
E8
  8
DETAIL
  6
CONTINUOUS
 62
     5
 10
148.90908999999991
 20
165.0
 30
0.0
 11
42.0
 21
165.0
 31
0.0
  0
ARC
  5
E9
  8
DETAIL
  6
CONTINUOUS
 62
     5
 10
148.90908999999991
 20
162.0
 30
0.0
 40
3.0
 50
1.0
 51
90.0
  0
LINE
  5
EA
  8
DETAIL
  6
CONTINUOUS
 62
     5
 10
154.737267
 20
0.0
 30
0.0
 11
151.90863300000001
 21
162.052357
 31
0.0
  0
LINE
  5
EB
  8
DETAIL
  6
CONTINUOUS
 62
     5
 10
124.343835
 20
173.28777500000001
 30
0.0
 11
132.34948199999999
 21
186.91440800000001
 31
0.0
  0
LINE
  5
EC
  8
DETAIL
  6
CONTINUOUS
 62
     5
 10
134.2463469999999
 20
188.0
 30
0.0
 11
135.02386699999991
 21
188.0
 31
0.0
  0
ARC
  5
ED
  8
DETAIL
  6
CONTINUOUS
 62
     5
 10
135.02386699999991
 20
185.80000000000001
 30
0.0
 40
2.2000000000000002
 50
0.992294
 51
90.0
  0
ARC
  5
EE
  8
DETAIL
  6
CONTINUOUS
 62
     5
 10
134.2463469999999
 20
185.80000000000001
 30
0.0
 40
2.2000000000000002
 50
90.0
 51
149.565764
  0
LINE
  5
EF
  8
DETAIL
  6
CONTINUOUS
 62
     5
 10
-77.161289999999994
 20
165.0
 30
0.0
 11
-74.5
 21
0.0
 31
0.0
  0
LINE
  5
F0
  8
DETAIL
  6
CONTINUOUS
 62
     5
 10
52.5
 20
0.0
 30
0.0
 11
53.349612
 21
52.675935000000003
 31
0.0
  0
LINE
  5
F1
  8
DETAIL
  6
CONTINUOUS
 62
     5
 10
137.438614
 20
173.51634499999989
 30
0.0
 11
137.22353200000001
 21
185.83839499999991
 31
0.0
  0
LINE
  5
F2
  8
DETAIL
  6
CONTINUOUS
 62
     5
 10
153.12026299999991
 20
171.99992700000001
 30
0.0
 11
149.3994129999999
 21
171.99992700000001
 31
0.0
  0
LINE
  5
F3
  8
DETAIL
  6
CONTINUOUS
 62
     5
 10
123.1551339999999
 20
164.99992700000001
 30
0.0
 11
115.54122099999979
 21
164.99992700000001
 31
0.0
  0
LINE
  5
F4
  8
DETAIL
  6
CONTINUOUS
 62
     5
 10
173.38198099999991
 20
54.287388
 30
0.0
 11
154.03906499999991
 21
40.0
 31
0.0
  0
ARC
  5
F5
  8
DETAIL
  6
CONTINUOUS
 62
     5
 10
233.8256319999999
 20
59.495581999999992
 30
0.0
 40
0.5
 50
270.5
 51
0.0
  0
LINE
  5
F6
  8
DETAIL
  6
CONTINUOUS
 62
     5
 10
209.32563200000001
 20
58.781755000000011
 30
0.0
 11
204.82563200000001
 21
55.499927
 31
0.0
  0
LINE
  5
F7
  8
DETAIL
  6
CONTINUOUS
 62
     5
 10
209.32563200000001
 20
58.781755000000011
 30
0.0
 11
233.829995
 21
58.995601000000001
 31
0.0
  0
ARC
  5
F8
  8
DETAIL
  6
CONTINUOUS
 62
     5
 10
233.8256319999999
 20
156.3792709999999
 30
0.0
 40
0.5
 50
0.0
 51
89.500000000000014
  0
LINE
  5
F9
  8
DETAIL
  6
CONTINUOUS
 62
     5
 10
205.35939999999991
 20
160.07053999999999
 30
0.0
 11
209.05773300000001
 21
157.09543599999981
 31
0.0
  0
LINE
  5
FA
  8
DETAIL
  6
CONTINUOUS
 62
     5
 10
209.05773300000001
 20
157.09543599999981
 30
0.0
 11
233.829995
 21
156.87925200000001
 31
0.0
  0
ARC
  5
FB
  8
DETAIL
  6
CONTINUOUS
 62
     5
 10
204.1057909999999
 20
158.51218700000001
 30
0.0
 40
2.0
 50
51.185254999999998
 51
89.0
  0
LINE
  5
FC
  8
DETAIL
  6
CONTINUOUS
 62
     5
 10
182.481438
 20
160.88994600000001
 30
0.0
 11
204.14069599999991
 21
160.51188200000001
 31
0.0
  0
LINE
  5
FD
  8
DETAIL
  6
CONTINUOUS
 62
     5
 10
209.6022759999999
 20
157.09068400000001
 30
0.0
 11
209.6022759999999
 21
58.784168999999991
 31
0.0
  0
LINE
  5
FE
  8
DETAIL
  6
CONTINUOUS
 62
     5
 10
174.20251999999999
 20
54.965370999999998
 30
0.0
 11
174.20586
 21
54.965456999999986
 31
0.0
  0
LINE
  5
FF
  8
DETAIL
  6
CONTINUOUS
 62
     5
 10
174.20251899999991
 20
54.965387
 30
0.0
 11
174.15663000000001
 21
54.962162999999997
 31
0.0
  0
LINE
  5
100
  8
DETAIL
  6
CONTINUOUS
 62
     5
 10
174.15663000000001
 20
54.962162999999997
 30
0.0
 11
174.0985189999999
 21
54.951875999999999
 31
0.0
  0
LINE
  5
101
  8
DETAIL
  6
CONTINUOUS
 62
     5
 10
174.0985189999999
 20
54.951875999999999
 30
0.0
 11
174.04340400000001
 21
54.935319999999997
 31
0.0
  0
LINE
  5
102
  8
DETAIL
  6
CONTINUOUS
 62
     5
 10
174.04340400000001
 20
54.935319999999997
 30
0.0
 11
173.9919439999999
 21
54.913233999999981
 31
0.0
  0
LINE
  5
103
  8
DETAIL
  6
CONTINUOUS
 62
     5
 10
173.9919439999999
 20
54.913233999999981
 30
0.0
 11
173.944559
 21
54.886357999999987
 31
0.0
  0
LINE
  5
104
  8
DETAIL
  6
CONTINUOUS
 62
     5
 10
173.388901
 20
54.292921
 30
0.0
 11
173.38198099999991
 21
54.287388
 31
0.0
  0
LINE
  5
105
  8
DETAIL
  6
CONTINUOUS
 62
     5
 10
173.80021199999999
 20
54.744415000000011
 30
0.0
 11
173.798056
 21
54.742167000000002
 31
0.0
  0
LINE
  5
106
  8
DETAIL
  6
CONTINUOUS
 62
     5
 10
173.805294
 20
54.750343999999991
 30
0.0
 11
173.80021199999999
 21
54.744415000000011
 31
0.0
  0
LINE
  5
107
  8
DETAIL
  6
CONTINUOUS
 62
     5
 10
173.83983399999991
 20
54.79656099999999
 30
0.0
 11
173.83318299999999
 21
54.788660999999998
 31
0.0
  0
LINE
  5
108
  8
DETAIL
  6
CONTINUOUS
 62
     5
 10
173.83318299999999
 20
54.788660999999998
 30
0.0
 11
173.82449800000001
 21
54.777597999999998
 31
0.0
  0
LINE
  5
109
  8
DETAIL
  6
CONTINUOUS
 62
     5
 10
173.82449800000001
 20
54.777597999999998
 30
0.0
 11
173.805294
 21
54.750343999999991
 31
0.0
  0
LINE
  5
10A
  8
DETAIL
  6
CONTINUOUS
 62
     5
 10
173.693973
 20
54.597470000000001
 30
0.0
 11
173.6741209999999
 21
54.573225000000001
 31
0.0
  0
LINE
  5
10B
  8
DETAIL
  6
CONTINUOUS
 62
     5
 10
173.6741209999999
 20
54.573225000000001
 30
0.0
 11
173.65402299999991
 21
54.549447999999991
 31
0.0
  0
LINE
  5
10C
  8
DETAIL
  6
CONTINUOUS
 62
     5
 10
173.65402299999991
 20
54.549447999999991
 30
0.0
 11
173.633579
 21
54.526010999999983
 31
0.0
  0
LINE
  5
10D
  8
DETAIL
  6
CONTINUOUS
 62
     5
 10
173.633579
 20
54.526010999999983
 30
0.0
 11
173.61297300000001
 21
54.503112999999999
 31
0.0
  0
LINE
  5
10E
  8
DETAIL
  6
CONTINUOUS
 62
     5
 10
173.61297300000001
 20
54.503112999999999
 30
0.0
 11
173.59232299999999
 21
54.480859999999993
 31
0.0
  0
LINE
  5
10F
  8
DETAIL
  6
CONTINUOUS
 62
     5
 10
173.59232299999999
 20
54.480859999999993
 30
0.0
 11
173.57176699999991
 21
54.459366000000003
 31
0.0
  0
LINE
  5
110
  8
DETAIL
  6
CONTINUOUS
 62
     5
 10
173.57176699999991
 20
54.459366000000003
 30
0.0
 11
173.55146099999999
 21
54.438746999999999
 31
0.0
  0
LINE
  5
111
  8
DETAIL
  6
CONTINUOUS
 62
     5
 10
173.55146099999999
 20
54.438746999999999
 30
0.0
 11
173.53151
 21
54.419056999999988
 31
0.0
  0
LINE
  5
112
  8
DETAIL
  6
CONTINUOUS
 62
     5
 10
173.53151
 20
54.419056999999988
 30
0.0
 11
173.51207600000001
 21
54.400399
 31
0.0
  0
LINE
  5
113
  8
DETAIL
  6
CONTINUOUS
 62
     5
 10
173.51207600000001
 20
54.400399
 30
0.0
 11
173.49316899999991
 21
54.382719000000002
 31
0.0
  0
LINE
  5
114
  8
DETAIL
  6
CONTINUOUS
 62
     5
 10
173.49316899999991
 20
54.382719000000002
 30
0.0
 11
173.474807
 21
54.365981000000012
 31
0.0
  0
LINE
  5
115
  8
DETAIL
  6
CONTINUOUS
 62
     5
 10
173.474807
 20
54.365981000000012
 30
0.0
 11
173.4571159999999
 21
54.350243000000013
 31
0.0
  0
LINE
  5
116
  8
DETAIL
  6
CONTINUOUS
 62
     5
 10
173.4571159999999
 20
54.350243000000013
 30
0.0
 11
173.43982
 21
54.335214000000001
 31
0.0
  0
LINE
  5
117
  8
DETAIL
  6
CONTINUOUS
 62
     5
 10
173.43982
 20
54.335214000000001
 30
0.0
 11
173.42415199999991
 21
54.321894999999991
 31
0.0
  0
LINE
  5
118
  8
DETAIL
  6
CONTINUOUS
 62
     5
 10
173.42415199999991
 20
54.321894999999991
 30
0.0
 11
173.41141899999991
 21
54.311272999999993
 31
0.0
  0
LINE
  5
119
  8
DETAIL
  6
CONTINUOUS
 62
     5
 10
173.41141899999991
 20
54.311272999999993
 30
0.0
 11
173.4012689999999
 21
54.302934
 31
0.0
  0
LINE
  5
11A
  8
DETAIL
  6
CONTINUOUS
 62
     5
 10
173.4012689999999
 20
54.302934
 30
0.0
 11
173.388901
 21
54.292921
 31
0.0
  0
LINE
  5
11B
  8
DETAIL
  6
CONTINUOUS
 62
     5
 10
173.75222400000001
 20
54.673407999999981
 30
0.0
 11
173.733037
 21
54.64755499999999
 31
0.0
  0
LINE
  5
11C
  8
DETAIL
  6
CONTINUOUS
 62
     5
 10
173.733037
 20
54.64755499999999
 30
0.0
 11
173.71361999999991
 21
54.622250000000001
 31
0.0
  0
LINE
  5
11D
  8
DETAIL
  6
CONTINUOUS
 62
     5
 10
173.71361999999991
 20
54.622250000000001
 30
0.0
 11
173.693973
 21
54.597470000000001
 31
0.0
  0
LINE
  5
11E
  8
DETAIL
  6
CONTINUOUS
 62
     5
 10
173.77114399999991
 20
54.699780000000011
 30
0.0
 11
173.75222400000001
 21
54.673407999999981
 31
0.0
  0
LINE
  5
11F
  8
DETAIL
  6
CONTINUOUS
 62
     5
 10
173.7897669999999
 20
54.726652999999999
 30
0.0
 11
173.77114399999991
 21
54.699780000000011
 31
0.0
  0
LINE
  5
120
  8
DETAIL
  6
CONTINUOUS
 62
     5
 10
173.81076399999989
 20
54.758113999999999
 30
0.0
 11
173.81045399999991
 21
54.757638
 31
0.0
  0
ARC
  5
121
  8
DETAIL
  6
CONTINUOUS
 62
     5
 10
174.21458699999999
 20
54.465478000000012
 30
0.0
 40
0.5000550000000003
 50
91.382819999999995
 51
146.405092
  0
ARC
  5
122
  8
DETAIL
  6
CONTINUOUS
 62
     5
 10
172.132115
 20
55.848801999999999
 30
0.0
 40
2.0
 50
308.29016300000001
 51
326.40509300000002
  0
LINE
  5
123
  8
DETAIL
  6
CONTINUOUS
 62
     5
 10
174.20586
 20
54.965456999999986
 30
0.0
 11
204.82563200000001
 21
55.499927
 31
0.0
  0
LINE
  5
124
  8
DETAIL
  6
CONTINUOUS
 62
     5
 10
171.71453199999999
 20
52.970981000000009
 30
0.0
 11
171.71453199999999
 21
158.71646699999991
 31
0.0
  0
LINE
  5
125
  8
DETAIL
  6
CONTINUOUS
 62
     5
 10
234.32563200000001
 20
59.495581999999992
 30
0.0
 11
234.32563200000001
 21
156.5042709999999
 31
0.0
  0
LINE
  5
126
  8
DETAIL
  6
CONTINUOUS
 62
     5
 10
210.57547699999989
 20
63.607948
 30
0.0
 11
211.32444899999999
 21
63.568695999999989
 31
0.0
  0
LINE
  5
127
  8
DETAIL
  6
CONTINUOUS
 62
     5
 10
-235.82723399999989
 20
158.25474199999999
 30
0.0
 11
-264.51340699999992
 21
158.004402
 31
0.0
  0
LINE
  5
128
  8
DETAIL
  6
CONTINUOUS
 62
     5
 10
-235.82723399999989
 20
158.25474199999999
 30
0.0
 11
-264.51340699999992
 21
158.004402
 31
0.0
  0
LINE
  5
129
  8
DETAIL
  6
CONTINUOUS
 62
     5
 10
-265.00904400000002
 20
157.50442100000001
 30
0.0
 11
-265.00904400000002
 21
60.495578999999992
 31
0.0
  0
ARC
  5
12A
  8
DETAIL
  6
CONTINUOUS
 62
     5
 10
-264.50904400000002
 20
157.50442100000001
 30
0.0
 40
0.5
 50
90.5
 51
180.0
  0
LINE
  5
12B
  8
DETAIL
  6
CONTINUOUS
 62
     5
 10
-235.82723399999989
 20
59.745257999999993
 30
0.0
 11
-264.51340699999992
 21
59.995598000000001
 31
0.0
  0
LINE
  5
12C
  8
DETAIL
  6
CONTINUOUS
 62
     5
 10
-234.430474
 20
59.159548000000001
 30
0.0
 11
-232.168847
 21
56.897920999999997
 31
0.0
  0
ARC
  5
12D
  8
DETAIL
  6
CONTINUOUS
 62
     5
 10
-235.84468699999999
 20
57.745334
 30
0.0
 40
2.0
 50
45.0
 51
89.500000000000014
  0
ARC
  5
12E
  8
DETAIL
  6
CONTINUOUS
 62
     5
 10
-230.75463400000001
 20
58.312134999999998
 30
0.0
 40
2.0
 50
225.0
 51
269.5
  0
ARC
  5
12F
  8
DETAIL
  6
CONTINUOUS
 62
     5
 10
-264.50904400000002
 20
60.495578999999992
 30
0.0
 40
0.5
 50
180.0
 51
269.5
  0
ARC
  5
130
  8
DETAIL
  6
CONTINUOUS
 62
     5
 10
-264.50904400000002
 20
60.495578999999992
 30
0.0
 40
0.5
 50
180.0
 51
269.5
  0
ARC
  5
131
  8
DETAIL
  6
CONTINUOUS
 62
     5
 10
-230.75463400000001
 20
58.312134999999998
 30
0.0
 40
2.0
 50
225.0
 51
269.5
  0
ARC
  5
132
  8
DETAIL
  6
CONTINUOUS
 62
     5
 10
-235.84468699999999
 20
57.745334
 30
0.0
 40
2.0
 50
45.0
 51
89.500000000000014
  0
LINE
  5
133
  8
DETAIL
  6
CONTINUOUS
 62
     5
 10
-234.430474
 20
59.159548000000001
 30
0.0
 11
-232.168847
 21
56.897920999999997
 31
0.0
  0
LINE
  5
134
  8
DETAIL
  6
CONTINUOUS
 62
     5
 10
-235.82723399999989
 20
59.745257999999993
 30
0.0
 11
-264.51340699999992
 21
59.995598000000001
 31
0.0
  0
LINE
  5
135
  8
DETAIL
  6
CONTINUOUS
 62
     5
 10
-195.11533199999991
 20
56.001038999999999
 30
0.0
 11
-230.772087
 21
56.312210999999998
 31
0.0
  0
LINE
  5
136
  8
DETAIL
  6
CONTINUOUS
 62
     5
 10
-195.11533199999991
 20
56.001038999999999
 30
0.0
 11
-230.772087
 21
56.312210999999998
 31
0.0
  0
LINE
  5
137
  8
DETAIL
  6
CONTINUOUS
 62
     5
 10
-155.0184679999999
 20
52.176713999999997
 30
0.0
 11
-195.11533199999991
 21
56.001038999999999
 31
0.0
  0
LINE
  5
138
  8
DETAIL
  6
CONTINUOUS
 62
     5
 10
-155.0184679999999
 20
52.176713999999997
 30
0.0
 11
-195.11533199999991
 21
56.001038999999999
 31
0.0
  0
LINE
  5
139
  8
DETAIL
  6
CONTINUOUS
 62
     5
 10
-195.0090439999999
 20
58.0
 30
0.0
 11
-195.0090439999999
 21
58.013089999999991
 31
0.0
  0
LINE
  5
13A
  8
DETAIL
  6
CONTINUOUS
 62
     5
 10
-195.0090439999999
 20
57.999999000000003
 30
0.0
 11
-195.0090439999999
 21
58.0
 31
0.0
  0
LINE
  5
13B
  8
DETAIL
  6
CONTINUOUS
 62
     5
 10
-195.0090439999999
 20
58.513089999999998
 30
0.0
 11
-195.0090439999999
 21
58.517454000000001
 31
0.0
  0
LINE
  5
13C
  8
DETAIL
  6
CONTINUOUS
 62
     5
 10
-195.0090439999999
 20
58.513089999999998
 30
0.0
 11
-195.0090439999999
 21
58.517454000000001
 31
0.0
  0
LINE
  5
13D
  8
DETAIL
  6
CONTINUOUS
 62
     5
 10
-195.0090439999999
 20
57.999999000000003
 30
0.0
 11
-195.0090439999999
 21
58.0
 31
0.0
  0
LINE
  5
13E
  8
DETAIL
  6
CONTINUOUS
 62
     5
 10
-195.0090439999999
 20
58.0
 30
0.0
 11
-195.0090439999999
 21
58.013089999999991
 31
0.0
  0
LINE
  5
13F
  8
DETAIL
  6
CONTINUOUS
 62
     5
 10
-231.59027699999999
 20
85.620975999999985
 30
0.0
 11
-231.59027699999999
 21
109.0
 31
0.0
  0
LINE
  5
140
  8
DETAIL
  6
CONTINUOUS
 62
     5
 10
-231.59027699999999
 20
85.620975999999985
 30
0.0
 11
-231.59027699999999
 21
109.0
 31
0.0
  0
LINE
  5
141
  8
DETAIL
  6
CONTINUOUS
 62
     5
 10
-195.0090439999999
 20
56.00011099999999
 30
0.0
 11
-195.0090439999999
 21
162.0001169999999
 31
0.0
  0
LINE
  5
142
  8
DETAIL
  6
CONTINUOUS
 62
     5
 10
-231.59027699999999
 20
56.495077000000002
 30
0.0
 11
-231.59027699999999
 21
161.50492299999991
 31
0.0
  0
LINE
  5
143
  8
DETAIL
  6
CONTINUOUS
 62
     5
 10
-235.0090439999999
 20
158.43760800000001
 30
0.0
 11
-235.0090439999999
 21
59.562392000000003
 31
0.0
  0
ARC
  5
144
  8
DETAIL
  6
CONTINUOUS
 62
     5
 10
-230.75463400000001
 20
159.6878649999999
 30
0.0
 40
2.0
 50
90.5
 51
135.0
  0
ARC
  5
145
  8
DETAIL
  6
CONTINUOUS
 62
     5
 10
-235.84468699999999
 20
160.2546659999999
 30
0.0
 40
2.0
 50
270.5
 51
315.0
  0
LINE
  5
146
  8
DETAIL
  6
CONTINUOUS
 62
     5
 10
-195.0352199999999
 20
161.99966000000001
 30
0.0
 11
-230.772087
 21
161.6877889999999
 31
0.0
  0
LINE
  5
147
  8
DETAIL
  6
CONTINUOUS
 62
     5
 10
-195.0352199999999
 20
161.99966000000001
 30
0.0
 11
-230.772087
 21
161.6877889999999
 31
0.0
  0
ARC
  5
148
  8
DETAIL
  6
CONTINUOUS
 62
     5
 10
-235.84468699999999
 20
160.2546659999999
 30
0.0
 40
2.0
 50
270.5
 51
315.0
  0
LINE
  5
149
  8
DETAIL
  6
CONTINUOUS
 62
     5
 10
-234.430474
 20
158.840452
 30
0.0
 11
-232.168847
 21
161.1020789999998
 31
0.0
  0
ARC
  5
14A
  8
DETAIL
  6
CONTINUOUS
 62
     5
 10
-230.75463400000001
 20
159.6878649999999
 30
0.0
 40
2.0
 50
90.5
 51
135.0
  0
LINE
  5
14B
  8
DETAIL
  6
CONTINUOUS
 62
     5
 10
-145.9460439999998
 20
177.5
 30
0.0
 11
-149.946044
 21
177.5
 31
0.0
  0
ARC
  5
14C
  8
DETAIL
  6
CONTINUOUS
 62
     5
 10
-149.946044
 20
175.5
 30
0.0
 40
2.0
 50
90.0
 51
180.0
  0
ARC
  5
14D
  8
DETAIL
  6
CONTINUOUS
 62
     5
 10
-149.946044
 20
175.5
 30
0.0
 40
2.0
 50
90.0
 51
180.0
  0
LINE
  5
14E
  8
DETAIL
  6
CONTINUOUS
 62
     5
 10
-145.9460439999998
 20
177.5
 30
0.0
 11
-149.946044
 21
177.5
 31
0.0
  0
LINE
  5
14F
  8
DETAIL
  6
CONTINUOUS
 62
     5
 10
-195.0352199999999
 20
161.99966000000001
 30
0.0
 11
-182.45832799999991
 21
162.21395100000001
 31
0.0
  0
LINE
  5
150
  8
DETAIL
  6
CONTINUOUS
 62
     5
 10
-158.95037600000001
 20
162.6144909999999
 30
0.0
 11
-156.66510299999999
 21
162.65342899999999
 31
0.0
  0
LINE
  5
151
  8
DETAIL
  6
CONTINUOUS
 62
     5
 10
-195.0352199999999
 20
161.99966000000001
 30
0.0
 11
-152.16857999999999
 21
162.73004299999999
 31
0.0
  0
LINE
  5
152
  8
DETAIL
  6
CONTINUOUS
 62
     5
 10
-158.95037600000001
 20
162.6144909999999
 30
0.0
 11
-156.66510299999999
 21
162.65342899999999
 31
0.0
  0
LINE
  5
153
  8
DETAIL
  6
CONTINUOUS
 62
     5
 10
-145.73167100000001
 20
181.787453
 30
0.0
 11
-145.9460439999998
 21
177.5
 31
0.0
  0
LINE
  5
154
  8
DETAIL
  6
CONTINUOUS
 62
     5
 10
-145.73167100000001
 20
181.787453
 30
0.0
 11
-145.9460439999998
 21
177.5
 31
0.0
  0
ARC
  5
155
  8
DETAIL
  6
CONTINUOUS
 62
     5
 10
-144.982607
 20
181.75
 30
0.0
 40
0.75
 50
90.0
 51
177.137595
  0
LINE
  5
156
  8
DETAIL
  6
CONTINUOUS
 62
     5
 10
-144.982607
 20
182.5
 30
0.0
 11
-116.919736
 21
182.5
 31
0.0
  0
LINE
  5
157
  8
DETAIL
  6
CONTINUOUS
 62
     5
 10
-144.982607
 20
182.5
 30
0.0
 11
-144.909481
 21
182.5
 31
0.0
  0
LINE
  5
158
  8
DETAIL
  6
CONTINUOUS
 62
     5
 10
-144.982607
 20
182.5
 30
0.0
 11
-144.909481
 21
182.5
 31
0.0
  0
LINE
  5
159
  8
DETAIL
  6
CONTINUOUS
 62
     5
 10
-144.982607
 20
182.5
 30
0.0
 11
-116.919736
 21
182.5
 31
0.0
  0
ARC
  5
15A
  8
DETAIL
  6
CONTINUOUS
 62
     5
 10
-144.982607
 20
181.75
 30
0.0
 40
0.75
 50
90.0
 51
177.137595
  0
LINE
  5
15B
  8
DETAIL
  6
CONTINUOUS
 62
     5
 10
-116.982607
 20
182.5
 30
0.0
 11
-116.919736
 21
182.5
 31
0.0
  0
LINE
  5
15C
  8
DETAIL
  6
CONTINUOUS
 62
     5
 10
-116.1702139999999
 20
181.776769
 30
0.0
 11
-115.9460439999999
 21
175.5
 31
0.0
  0
ARC
  5
15D
  8
DETAIL
  6
CONTINUOUS
 62
     5
 10
-116.919736
 20
181.75
 30
0.0
 40
0.75
 50
2.0454080000000001
 51
90.0
  0
ARC
  5
15E
  8
DETAIL
  6
CONTINUOUS
 62
     5
 10
-116.919736
 20
181.75
 30
0.0
 40
0.75
 50
2.0454080000000001
 51
90.0
  0
LINE
  5
15F
  8
DETAIL
  6
CONTINUOUS
 62
     5
 10
-116.1702139999999
 20
181.776769
 30
0.0
 11
-115.9460439999999
 21
175.5
 31
0.0
  0
LINE
  5
160
  8
DETAIL
  6
CONTINUOUS
 62
     5
 10
-116.982607
 20
182.5
 30
0.0
 11
-116.919736
 21
182.5
 31
0.0
  0
LINE
  5
161
  8
DETAIL
  6
CONTINUOUS
 62
     5
 10
-115.9460439999999
 20
175.5
 30
0.0
 11
-143.9449179999998
 21
175.5
 31
0.0
  0
LINE
  5
162
  8
DETAIL
  6
CONTINUOUS
 62
     5
 10
-143.9449179999998
 20
175.5
 30
0.0
 11
-144.128197
 21
165.0
 31
0.0
  0
LINE
  5
163
  8
DETAIL
  6
CONTINUOUS
 62
     5
 10
-151.94568000000001
 20
175.5
 30
0.0
 11
-155.0090439999999
 21
0.0
 31
0.0
  0
ARC
  5
164
  8
DETAIL
  6
CONTINUOUS
 62
     5
 10
-155.1158199999999
 20
51.181463999999998
 30
0.0
 40
1.0
 50
359.0
 51
84.413291000000001
  0
ARC
  5
165
  8
DETAIL
  6
CONTINUOUS
 62
     5
 10
-155.1158199999999
 20
51.181463999999998
 30
0.0
 40
1.0
 50
359.0
 51
84.413291000000001
  0
LINE
  5
166
  8
NOTE
  6
CONTINUOUS
 62
     4
 39
50.0
 10
-100.0
 20
-7.477714999999999
 30
0.0
 11
-100.0
 21
9.9933689999999995
 31
0.0
  0
CIRCLE
  5
167
  8
FIX
  6
CONTINUOUS
 62
    11
 39
50.0
 10
-100.0
 20
0.0
 30
0.0
 40
2.5
  0
LINE
  5
168
  8
NOTE
  6
CONTINUOUS
 62
     4
 39
50.0
 10
100.0
 20
-7.477714999999999
 30
0.0
 11
100.0
 21
9.9933689999999995
 31
0.0
  0
CIRCLE
  5
169
  8
FIX
  6
CONTINUOUS
 62
    11
 39
50.0
 10
100.0
 20
0.0
 30
0.0
 40
2.5
  0
LINE
  5
16A
  8
NOTE
  6
CONTINUOUS
 62
     4
 39
50.0
 10
165.0
 20
-7.477714999999999
 30
0.0
 11
165.0
 21
9.9933689999999995
 31
0.0
  0
CIRCLE
  5
16B
  8
FIX
  6
CONTINUOUS
 62
    11
 39
50.0
 10
165.0
 20
0.0
 30
0.0
 40
2.5
  0
LINE
  5
16C
  8
SIZE
  6
CONTINUOUS
 62
    30
 10
100.0
 20
-27.477715000000011
 30
0.0
 11
100.0
 21
-204.05244999999999
 31
0.0
  0
LINE
  5
16D
  8
SIZE
  6
CONTINUOUS
 62
    30
 10
-100.0
 20
-27.477715000000011
 30
0.0
 11
-100.0
 21
-204.05244999999999
 31
0.0
  0
LINE
  5
16E
  8
SIZE
  6
CONTINUOUS
 62
    30
 10
88.0
 20
-184.05244999999991
 30
0.0
 11
-88.0
 21
-184.05244999999991
 31
0.0
  0
CIRCLE
  5
16F
  8
SIZE
  6
CONTINUOUS
 62
    30
 10
100.0
 20
-184.05244999999991
 30
0.0
 40
6.0
  0
LINE
  5
170
  8
SIZE
  6
CONTINUOUS
 62
    30
 10
100.0
 20
-184.05244999999991
 30
0.0
 11
88.0
 21
-184.05244999999991
 31
0.0
  0
CIRCLE
  5
171
  8
SIZE
  6
CONTINUOUS
 62
    30
 10
-100.0
 20
-184.05244999999991
 30
0.0
 40
6.0
  0
LINE
  5
172
  8
SIZE
  6
CONTINUOUS
 62
    30
 10
-100.0
 20
-184.05244999999991
 30
0.0
 11
-88.0
 21
-184.05244999999991
 31
0.0
  0
TEXT
  5
173
  8
SIZE
  6
CONTINUOUS
 62
    30
 10
-74.05714285714285
 20
-159.05244999999991
 30
0.0
 40
64.0
  1
200
 41
0.9
 72
     1
 11
0.0
 21
-159.05244999999991
 31
0.0
  0
POINT
  5
174
  8
DEFPOINTS
  6
CONTINUOUS
 62
    30
 10
100.0
 20
-7.477714999999999
 30
0.0
  0
POINT
  5
175
  8
DEFPOINTS
  6
CONTINUOUS
 62
    30
 10
-100.0
 20
-7.477714999999999
 30
0.0
  0
POINT
  5
176
  8
DEFPOINTS
  6
CONTINUOUS
 62
    30
 10
-100.0
 20
-184.05244999999991
 30
0.0
  0
LINE
  5
177
  8
SIZE
  6
CONTINUOUS
 62
    30
 10
165.0
 20
-27.477715000000011
 30
0.0
 11
165.0
 21
-347.638329
 31
0.0
  0
LINE
  5
178
  8
SIZE
  6
CONTINUOUS
 62
    30
 10
-165.0
 20
-27.477715000000011
 30
0.0
 11
-165.0
 21
-347.638329
 31
0.0
  0
LINE
  5
179
  8
SIZE
  6
CONTINUOUS
 62
    30
 10
153.0
 20
-327.638329
 30
0.0
 11
-153.0
 21
-327.638329
 31
0.0
  0
CIRCLE
  5
17A
  8
SIZE
  6
CONTINUOUS
 62
    30
 10
165.0
 20
-327.638329
 30
0.0
 40
6.0
  0
LINE
  5
17B
  8
SIZE
  6
CONTINUOUS
 62
    30
 10
165.0
 20
-327.638329
 30
0.0
 11
153.0
 21
-327.638329
 31
0.0
  0
CIRCLE
  5
17C
  8
SIZE
  6
CONTINUOUS
 62
    30
 10
-165.0
 20
-327.638329
 30
0.0
 40
6.0
  0
LINE
  5
17D
  8
SIZE
  6
CONTINUOUS
 62
    30
 10
-165.0
 20
-327.638329
 30
0.0
 11
-153.0
 21
-327.638329
 31
0.0
  0
TEXT
  5
17E
  8
SIZE
  6
CONTINUOUS
 62
    30
 10
-74.057142857142864
 20
-302.638329
 30
0.0
 40
64.0
  1
330
 41
0.9
 72
     1
 11
0.0
 21
-302.638329
 31
0.0
  0
POINT
  5
17F
  8
DEFPOINTS
  6
CONTINUOUS
 62
    30
 10
165.0
 20
-7.477714999999999
 30
0.0
  0
POINT
  5
180
  8
DEFPOINTS
  6
CONTINUOUS
 62
    30
 10
-165.0
 20
-7.477714999999999
 30
0.0
  0
POINT
  5
181
  8
DEFPOINTS
  6
CONTINUOUS
 62
    30
 10
-165.0
 20
-327.638329
 30
0.0
  0
LINE
  5
182
  8
DETAIL
  6
CONTINUOUS
 62
     5
 10
-124.334791
 20
173.2876169999999
 30
0.0
 11
-115.0322129999999
 21
173.12523999999991
 31
0.0
  0
LINE
  5
183
  8
DETAIL
  6
CONTINUOUS
 62
     5
 10
-188.0
 20
170.0
 30
0.0
 11
-187.92323999999999
 21
174.397558
 31
0.0
  0
LINE
  5
184
  8
DETAIL
  6
CONTINUOUS
 62
     5
 10
-187.92323999999999
 20
174.397558
 30
0.0
 11
-156.7788929999999
 21
173.85393099999999
 31
0.0
  0
LINE
  5
185
  8
NOTE
  6
CONTINUOUS
 62
     4
 10
-132.7734369999998
 20
186.418657
 30
0.0
 11
-133.31018499999999
 21
155.66838100000001
 31
0.0
  0
ARC
  5
186
  8
DETAIL
  6
CONTINUOUS
 62
     5
 10
-181.21238099999991
 20
181.81075299999989
 30
0.0
 40
0.9037449999999999
 50
89.0
 51
179.0
  0
LINE
  5
187
  8
DETAIL
  6
CONTINUOUS
 62
     5
 10
-182.1943259999999
 20
177.33860699999991
 30
0.0
 11
-182.1159889999999
 21
181.826526
 31
0.0
  0
LINE
  5
188
  8
DETAIL
  6
CONTINUOUS
 62
     5
 10
-182.1943259999999
 20
177.33860699999991
 30
0.0
 11
-158.700524
 21
176.9285209999999
 31
0.0
  0
LINE
  5
189
  8
DETAIL
  6
CONTINUOUS
 62
     5
 10
-180.439685
 20
174.29503600000001
 30
0.0
 11
-180.38711000000001
 21
177.307062
 31
0.0
  0
LINE
  5
18A
  8
DETAIL
  6
CONTINUOUS
 62
     5
 10
-160.560315
 20
173.9480409999999
 30
0.0
 11
-160.5077389999999
 21
176.9600669999999
 31
0.0
  0
LINE
  5
18B
  8
DETAIL
  6
CONTINUOUS
 62
     5
 10
-181.196609
 20
182.714361
 30
0.0
 11
-159.51002199999991
 21
182.3358199999999
 31
0.0
  0
ARC
  5
18C
  8
DETAIL
  6
CONTINUOUS
 62
     5
 10
-158.39321000000001
 20
167.67544499999991
 30
0.0
 40
1.8074909999999991
 50
359.0
 51
89.0
  0
LINE
  5
18D
  8
DETAIL
  6
CONTINUOUS
 62
     5
 10
-159.235784
 20
0.026288
 30
0.0
 11
-158.40632400000001
 21
52.49983799999999
 31
0.0
  0
LINE
  5
18E
  8
DETAIL
  6
CONTINUOUS
 62
     5
 10
-182.32366099999999
 20
169.929024
 30
0.0
 11
-158.82985899999991
 21
169.51893799999991
 31
0.0
  0
LINE
  5
18F
  8
DETAIL
  6
CONTINUOUS
 62
     5
 10
-182.45832799999991
 20
162.21395100000001
 30
0.0
 11
-182.32366099999999
 21
169.929024
 31
0.0
  0
LINE
  5
190
  8
DETAIL
  6
CONTINUOUS
 62
     5
 10
-158.95037600000001
 20
162.6144909999999
 30
0.0
 11
-158.82985899999991
 21
169.51893799999991
 31
0.0
  0
LINE
  5
191
  8
DETAIL
  6
CONTINUOUS
 62
     5
 10
-188.0
 20
170.0
 30
0.0
 11
-158.3616649999999
 21
169.48266099999981
 31
0.0
  0
ARC
  5
192
  8
DETAIL
  6
CONTINUOUS
 62
     5
 10
-156.86090999999999
 20
169.15517099999991
 30
0.0
 40
4.699475999999998
 50
359.0
 51
89.0
  0
LINE
  5
193
  8
NOTE
  6
CONTINUOUS
 62
     4
 10
170.27392699999999
 20
187.07323
 30
0.0
 11
170.8106749999998
 21
156.32295400000001
 31
0.0
  0
LINE
  5
194
  8
DETAIL
  6
CONTINUOUS
 62
     5
 10
-123.9493479999999
 20
168.881992
 30
0.0
 11
-115.1018819999999
 21
168.72755900000001
 31
0.0
  0
LINE
  5
195
  8
DETAIL
  6
CONTINUOUS
 62
     5
 10
-115.16093499999999
 20
165.0
 30
0.0
 11
-115.0322129999999
 21
173.12523999999991
 31
0.0
  0
LINE
  5
196
  8
NOTE
  6
CONTINUOUS
 62
     4
 10
-170.2734369999998
 20
187.0732219999999
 30
0.0
 11
-170.81018499999999
 21
156.322946
 31
0.0
  0
ARC
  5
197
  8
DETAIL
  6
CONTINUOUS
 62
     5
 10
-159.52481399999991
 20
181.43219500000001
 30
0.0
 40
0.9037449999999999
 50
359.0
 51
89.0
  0
LINE
  5
198
  8
DETAIL
  6
CONTINUOUS
 62
     5
 10
-158.69954299999981
 20
176.92850399999989
 30
0.0
 11
-158.621206
 21
181.41642300000001
 31
0.0
  0
LINE
  5
199
  8
NOTE
  6
CONTINUOUS
 62
     4
 10
132.7734369999998
 20
186.418657
 30
0.0
 11
133.31018499999999
 21
155.66838100000001
 31
0.0
  0
CIRCLE
  5
19A
  8
DETAIL
  6
CONTINUOUS
 62
     5
 39
50.0
 10
0.0
 20
109.0
 30
0.0
 40
49.0
  0
CIRCLE
  5
19B
  8
DETAIL
  6
CONTINUOUS
 62
     5
 39
50.0
 10
0.0
 20
109.0
 30
0.0
 40
52.5
  0
LINE
  5
19C
  8
SIZE
  6
CONTINUOUS
 62
    30
 10
195.0
 20
-24.148956999999999
 30
0.0
 11
195.0
 21
-496.68354299999987
 31
0.0
  0
LINE
  5
19D
  8
SIZE
  6
CONTINUOUS
 62
    30
 10
-195.0
 20
-24.148956999999999
 30
0.0
 11
-195.0
 21
-496.68354299999987
 31
0.0
  0
LINE
  5
19E
  8
SIZE
  6
CONTINUOUS
 62
    30
 10
183.0
 20
-476.68354299999987
 30
0.0
 11
-183.0
 21
-476.68354299999987
 31
0.0
  0
CIRCLE
  5
19F
  8
SIZE
  6
CONTINUOUS
 62
    30
 10
195.0
 20
-476.68354299999987
 30
0.0
 40
6.0
  0
LINE
  5
1A0
  8
SIZE
  6
CONTINUOUS
 62
    30
 10
195.0
 20
-476.68354299999987
 30
0.0
 11
183.0
 21
-476.68354299999987
 31
0.0
  0
CIRCLE
  5
1A1
  8
SIZE
  6
CONTINUOUS
 62
    30
 10
-195.0
 20
-476.68354299999987
 30
0.0
 40
6.0
  0
LINE
  5
1A2
  8
SIZE
  6
CONTINUOUS
 62
    30
 10
-195.0
 20
-476.68354299999987
 30
0.0
 11
-183.0
 21
-476.68354299999987
 31
0.0
  0
TEXT
  5
1A3
  8
SIZE
  6
CONTINUOUS
 62
    30
 10
-110.5371428571428
 20
-451.68354299999987
 30
0.0
 40
64.0
  1
üá390
 41
0.9
 72
     1
 11
0.0
 21
-451.68354299999987
 31
0.0
  0
POINT
  5
1A4
  8
DEFPOINTS
  6
CONTINUOUS
 62
    30
 10
195.0
 20
-4.1489570000000002
 30
0.0
  0
POINT
  5
1A5
  8
DEFPOINTS
  6
CONTINUOUS
 62
    30
 10
-195.0
 20
-4.1489570000000002
 30
0.0
  0
POINT
  5
1A6
  8
DEFPOINTS
  6
CONTINUOUS
 62
    30
 10
-195.0
 20
-476.68354299999987
 30
0.0
  0
LINE
  5
1A7
  8
SIZE
  6
CONTINUOUS
 62
    30
 10
54.100006
 20
213.900024
 30
0.0
 11
54.100006
 21
557.10685099999989
 31
0.0
  0
LINE
  5
1A8
  8
SIZE
  6
CONTINUOUS
 62
    30
 10
-28.100006
 20
213.900024
 30
0.0
 11
-28.100006
 21
557.10685099999989
 31
0.0
  0
LINE
  5
1A9
  8
SIZE
  6
CONTINUOUS
 62
    30
 10
42.100005999999993
 20
537.10685099999978
 30
0.0
 11
-16.100006
 21
537.10685099999978
 31
0.0
  0
LINE
  5
1AA
  8
SIZE
  6
CONTINUOUS
 62
    30
 10
-28.100006
 20
537.10685099999978
 30
0.0
 11
-491.83487599999989
 21
537.10685099999978
 31
0.0
  0
CIRCLE
  5
1AB
  8
SIZE
  6
CONTINUOUS
 62
    30
 10
54.100006
 20
537.10685099999978
 30
0.0
 40
6.0
  0
LINE
  5
1AC
  8
SIZE
  6
CONTINUOUS
 62
    30
 10
54.100006
 20
537.10685099999978
 30
0.0
 11
42.100005999999993
 21
537.10685099999978
 31
0.0
  0
CIRCLE
  5
1AD
  8
SIZE
  6
CONTINUOUS
 62
    30
 10
-28.100006
 20
537.10685099999978
 30
0.0
 40
6.0
  0
LINE
  5
1AE
  8
SIZE
  6
CONTINUOUS
 62
    30
 10
-28.100006
 20
537.10685099999978
 30
0.0
 11
-16.100006
 21
537.10685099999978
 31
0.0
  0
TEXT
  5
1AF
  8
SIZE
  6
CONTINUOUS
 62
    30
 10
-481.09773342857142
 20
562.10685099999978
 30
0.0
 40
64.0
  1
âË82
 41
0.9
 72
     1
 11
-394.14916199999988
 21
562.10685099999978
 31
0.0
  0
POINT
  5
1B0
  8
DEFPOINTS
  6
CONTINUOUS
 62
    30
 10
54.100006
 20
193.900024
 30
0.0
  0
POINT
  5
1B1
  8
DEFPOINTS
  6
CONTINUOUS
 62
    30
 10
-28.100006
 20
193.900024
 30
0.0
  0
POINT
  5
1B2
  8
DEFPOINTS
  6
CONTINUOUS
 62
    30
 10
-28.100006
 20
537.10685099999978
 30
0.0
  0
LINE
  5
1B3
  8
SIZE
  6
CONTINUOUS
 62
    30
 10
133.0
 20
193.4388689999999
 30
0.0
 11
133.0
 21
699.245182
 31
0.0
  0
LINE
  5
1B4
  8
SIZE
  6
CONTINUOUS
 62
    30
 10
-133.0
 20
193.4388689999999
 30
0.0
 11
-133.0
 21
699.245182
 31
0.0
  0
LINE
  5
1B5
  8
SIZE
  6
CONTINUOUS
 62
    30
 10
121.0
 20
679.245182
 30
0.0
 11
-121.0
 21
679.245182
 31
0.0
  0
CIRCLE
  5
1B6
  8
SIZE
  6
CONTINUOUS
 62
    30
 10
133.0
 20
679.245182
 30
0.0
 40
6.0
  0
LINE
  5
1B7
  8
SIZE
  6
CONTINUOUS
 62
    30
 10
133.0
 20
679.245182
 30
0.0
 11
121.0
 21
679.245182
 31
0.0
  0
CIRCLE
  5
1B8
  8
SIZE
  6
CONTINUOUS
 62
    30
 10
-133.0
 20
679.245182
 30
0.0
 40
6.0
  0
LINE
  5
1B9
  8
SIZE
  6
CONTINUOUS
 62
    30
 10
-133.0
 20
679.245182
 30
0.0
 11
-121.0
 21
679.245182
 31
0.0
  0
TEXT
  5
1BA
  8
SIZE
  6
CONTINUOUS
 62
    30
 10
-96.000000285714293
 20
704.245182
 30
0.0
 40
64.0
  1
266
 41
0.9
 72
     1
 11
-23.314285999999999
 21
704.245182
 31
0.0
  0
POINT
  5
1BB
  8
DEFPOINTS
  6
CONTINUOUS
 62
    30
 10
133.0
 20
173.4388689999999
 30
0.0
  0
POINT
  5
1BC
  8
DEFPOINTS
  6
CONTINUOUS
 62
    30
 10
-133.0
 20
173.4388689999999
 30
0.0
  0
POINT
  5
1BD
  8
DEFPOINTS
  6
CONTINUOUS
 62
    30
 10
-133.0
 20
679.245182
 30
0.0
  0
LINE
  5
1BE
  8
SIZE
  6
CONTINUOUS
 62
    30
 10
-155.0090439999999
 20
20.0
 30
0.0
 11
-155.0090439999999
 21
946.31082099999992
 31
0.0
  0
LINE
  5
1BF
  8
SIZE
  6
CONTINUOUS
 62
    30
 10
154.737267
 20
20.0
 30
0.0
 11
154.737267
 21
946.31082099999992
 31
0.0
  0
LINE
  5
1C0
  8
SIZE
  6
CONTINUOUS
 62
    30
 10
-143.0090439999999
 20
926.31082100000003
 30
0.0
 11
142.737267
 21
926.31082100000003
 31
0.0
  0
CIRCLE
  5
1C1
  8
SIZE
  6
CONTINUOUS
 62
    30
 10
-155.0090439999999
 20
926.31082100000003
 30
0.0
 40
6.0
  0
LINE
  5
1C2
  8
SIZE
  6
CONTINUOUS
 62
    30
 10
-155.0090439999999
 20
926.31082100000003
 30
0.0
 11
-143.0090439999999
 21
926.31082100000003
 31
0.0
  0
CIRCLE
  5
1C3
  8
SIZE
  6
CONTINUOUS
 62
    30
 10
154.737267
 20
926.31082100000003
 30
0.0
 40
6.0
  0
LINE
  5
1C4
  8
SIZE
  6
CONTINUOUS
 62
    30
 10
154.737267
 20
926.31082100000003
 30
0.0
 11
142.737267
 21
926.31082100000003
 31
0.0
  0
TEXT
  5
1C5
  8
SIZE
  6
CONTINUOUS
 62
    30
 10
-105.1873165714285
 20
951.31082100000003
 30
0.0
 40
64.0
  1
üá310
 41
0.9
 72
     1
 11
-0.135888
 21
951.31082100000003
 31
0.0
  0
POINT
  5
1C6
  8
DEFPOINTS
  6
CONTINUOUS
 62
    30
 10
-155.0090439999999
 20
0.0
 30
0.0
  0
POINT
  5
1C7
  8
DEFPOINTS
  6
CONTINUOUS
 62
    30
 10
154.737267
 20
0.0
 30
0.0
  0
POINT
  5
1C8
  8
DEFPOINTS
  6
CONTINUOUS
 62
    30
 10
154.737267
 20
926.31082100000003
 30
0.0
  0
LINE
  5
1C9
  8
SIZE
  6
CONTINUOUS
 62
    30
 10
-170.5
 20
194.093434
 30
0.0
 11
-170.5
 21
1097.3224230000001
 31
0.0
  0
LINE
  5
1CA
  8
SIZE
  6
CONTINUOUS
 62
    30
 10
170.5004899999999
 20
194.0934419999999
 30
0.0
 11
170.5004899999999
 21
1097.3224230000001
 31
0.0
  0
LINE
  5
1CB
  8
SIZE
  6
CONTINUOUS
 62
    30
 10
-158.4999999999998
 20
1077.3224230000001
 30
0.0
 11
158.5004899999999
 21
1077.3224230000001
 31
0.0
  0
CIRCLE
  5
1CC
  8
SIZE
  6
CONTINUOUS
 62
    30
 10
-170.5
 20
1077.3224230000001
 30
0.0
 40
6.0
  0
LINE
  5
1CD
  8
SIZE
  6
CONTINUOUS
 62
    30
 10
-170.5
 20
1077.3224230000001
 30
0.0
 11
-158.4999999999998
 21
1077.3224230000001
 31
0.0
  0
CIRCLE
  5
1CE
  8
SIZE
  6
CONTINUOUS
 62
    30
 10
170.5004899999999
 20
1077.3224230000001
 30
0.0
 40
6.0
  0
LINE
  5
1CF
  8
SIZE
  6
CONTINUOUS
 62
    30
 10
170.5004899999999
 20
1077.3224230000001
 30
0.0
 11
158.5004899999999
 21
1077.3224230000001
 31
0.0
  0
TEXT
  5
1D0
  8
SIZE
  6
CONTINUOUS
 62
    30
 10
-61.714040714285709
 20
1102.3224230000001
 30
0.0
 40
64.0
  1
341
 41
0.9
 72
     1
 11
0.000245
 21
1102.3224230000001
 31
0.0
  0
POINT
  5
1D1
  8
DEFPOINTS
  6
CONTINUOUS
 62
    30
 10
-170.5
 20
174.093434
 30
0.0
  0
POINT
  5
1D2
  8
DEFPOINTS
  6
CONTINUOUS
 62
    30
 10
170.5004899999999
 20
174.0934419999999
 30
0.0
  0
POINT
  5
1D3
  8
DEFPOINTS
  6
CONTINUOUS
 62
    30
 10
170.5004899999999
 20
1077.3224230000001
 30
0.0
  0
LINE
  5
1D4
  8
SIZE
  6
CONTINUOUS
 62
    30
 10
-494.53762199999989
 20
430.87151599999999
 30
0.0
 11
-51.125114000000004
 21
142.274957
 31
0.0
  0
LINE
  5
1D5
  8
SIZE
  6
CONTINUOUS
 62
    30
 10
51.125114000000004
 20
75.725042999999999
 30
0.0
 11
61.182513
 21
69.179150000000007
 31
0.0
  0
TEXT
  5
1D6
  8
SIZE
  6
CONTINUOUS
 62
    30
 10
-471.9013724742511
 20
445.96739015230429
 30
0.0
 40
64.0
  1
âË98
 50
326.94178699999998
 41
0.9
 72
     1
 11
-399.02831600000002
 21
398.53773999999993
 31
0.0
  0
LINE
  5
1D7
  8
SIZE
  6
CONTINUOUS
 62
    30
 10
41.067714000000002
 20
82.270937000000004
 30
0.0
 11
-41.067714000000002
 21
135.729063
 31
0.0
  0
CIRCLE
  5
1D8
  8
SIZE
  6
CONTINUOUS
 62
    30
 10
41.067714000000002
 20
82.270937000000004
 30
0.0
 40
6.0
  0
LINE
  5
1D9
  8
SIZE
  6
CONTINUOUS
 62
    30
 10
41.067714000000002
 20
82.270937000000004
 30
0.0
 11
51.125112999999999
 21
75.725043999999983
 31
0.0
  0
CIRCLE
  5
1DA
  8
SIZE
  6
CONTINUOUS
 62
    30
 10
-41.067714000000002
 20
135.729063
 30
0.0
 40
6.0
  0
LINE
  5
1DB
  8
SIZE
  6
CONTINUOUS
 62
    30
 10
-41.067714000000002
 20
135.729063
 30
0.0
 11
-51.125112999999999
 21
142.2749559999998
 31
0.0
  0
POINT
  5
1DC
  8
DEFPOINTS
  6
CONTINUOUS
 62
    30
 10
-41.067714000000002
 20
135.729063
 30
0.0
  0
POINT
  5
1DD
  8
DEFPOINTS
  6
CONTINUOUS
 62
    30
 10
41.067714000000002
 20
82.270937000000004
 30
0.0
  0
LINE
  5
1DE
  8
SIZE
  6
CONTINUOUS
 62
    30
 10
-557.35064
 20
253.950019
 30
0.0
 11
-62.423492000000003
 21
125.234459
 31
0.0
  0
LINE
  5
1DF
  8
SIZE
  6
CONTINUOUS
 62
    30
 10
62.423492000000003
 20
92.765541000000013
 30
0.0
 11
74.037165000000002
 21
89.745176000000001
 31
0.0
  0
TEXT
  5
1E0
  8
SIZE
  6
CONTINUOUS
 62
    30
 10
-540.66674164412871
 20
275.44266038005429
 30
0.0
 40
64.0
  1
âË105
 50
345.42204399999991
 41
0.9
 72
     1
 11
-435.28095499999989
 21
248.03501199999999
 31
0.0
  0
LINE
  5
1E1
  8
SIZE
  6
CONTINUOUS
 62
    30
 10
50.809818999999997
 20
95.785905
 30
0.0
 11
-50.809818999999997
 21
122.214095
 31
0.0
  0
CIRCLE
  5
1E2
  8
SIZE
  6
CONTINUOUS
 62
    30
 10
50.809818999999997
 20
95.785905
 30
0.0
 40
6.0
  0
LINE
  5
1E3
  8
SIZE
  6
CONTINUOUS
 62
    30
 10
50.809818999999997
 20
95.785905
 30
0.0
 11
62.423492000000003
 21
92.765541000000013
 31
0.0
  0
CIRCLE
  5
1E4
  8
SIZE
  6
CONTINUOUS
 62
    30
 10
-50.809818999999997
 20
122.214095
 30
0.0
 40
6.0
  0
LINE
  5
1E5
  8
SIZE
  6
CONTINUOUS
 62
    30
 10
-50.809818999999997
 20
122.214095
 30
0.0
 11
-62.423492000000003
 21
125.234459
 31
0.0
  0
POINT
  5
1E6
  8
DEFPOINTS
  6
CONTINUOUS
 62
    30
 10
-50.809818999999997
 20
122.214095
 30
0.0
  0
POINT
  5
1E7
  8
DEFPOINTS
  6
CONTINUOUS
 62
    30
 10
50.809818999999997
 20
95.785905
 30
0.0
  0
LINE
  5
1E8
  8
SIZE
  6
CONTINUOUS
 62
    30
 10
-284.51340699999992
 20
59.995598000000001
 30
0.0
 11
-573.67735800000003
 21
59.995598000000001
 31
0.0
  0
LINE
  5
1E9
  8
SIZE
  6
CONTINUOUS
 62
    30
 10
-284.51340699999992
 20
158.004402
 30
0.0
 11
-573.67735800000003
 21
158.004402
 31
0.0
  0
LINE
  5
1EA
  8
SIZE
  6
CONTINUOUS
 62
    30
 10
-553.67735800000003
 20
146.00440199999991
 30
0.0
 11
-553.67735800000003
 21
71.995598000000001
 31
0.0
  0
LINE
  5
1EB
  8
SIZE
  6
CONTINUOUS
 62
    30
 10
-553.67735800000003
 20
59.995598000000001
 30
0.0
 11
-553.67735800000003
 21
-216.06212199999999
 31
0.0
  0
CIRCLE
  5
1EC
  8
SIZE
  6
CONTINUOUS
 62
    30
 10
-553.67735800000003
 20
158.004402
 30
0.0
 40
6.0
  0
LINE
  5
1ED
  8
SIZE
  6
CONTINUOUS
 62
    30
 10
-553.67735800000003
 20
158.004402
 30
0.0
 11
-553.67735800000003
 21
146.00440199999991
 31
0.0
  0
CIRCLE
  5
1EE
  8
SIZE
  6
CONTINUOUS
 62
    30
 10
-553.67735800000003
 20
59.995598000000001
 30
0.0
 40
6.0
  0
LINE
  5
1EF
  8
SIZE
  6
CONTINUOUS
 62
    30
 10
-553.67735800000003
 20
59.995598000000001
 30
0.0
 11
-553.67735800000003
 21
71.995598000000001
 31
0.0
  0
TEXT
  5
1F0
  8
SIZE
  6
CONTINUOUS
 62
    30
 10
-578.67735800000003
 20
-205.32497842857151
 30
0.0
 40
64.0
  1
âË98
 50
90.0
 41
0.9
 72
     1
 11
-578.67735800000003
 21
-118.376407
 31
0.0
  0
POINT
  5
1F1
  8
DEFPOINTS
  6
CONTINUOUS
 62
    30
 10
-264.51340699999992
 20
59.995598000000001
 30
0.0
  0
POINT
  5
1F2
  8
DEFPOINTS
  6
CONTINUOUS
 62
    30
 10
-264.51340699999992
 20
158.004402
 30
0.0
  0
POINT
  5
1F3
  8
DEFPOINTS
  6
CONTINUOUS
 62
    30
 10
-553.67735800000003
 20
158.004402
 30
0.0
  0
LINE
  5
1F4
  8
SIZE
  6
CONTINUOUS
 62
    30
 10
-250.77208699999991
 20
56.312210999999998
 30
0.0
 11
-699.71138299999996
 21
56.312210999999998
 31
0.0
  0
LINE
  5
1F5
  8
SIZE
  6
CONTINUOUS
 62
    30
 10
-250.77208699999991
 20
161.6877889999999
 30
0.0
 11
-699.71138299999996
 21
161.6877889999999
 31
0.0
  0
LINE
  5
1F6
  8
SIZE
  6
CONTINUOUS
 62
    30
 10
-679.71138299999996
 20
149.6877889999999
 30
0.0
 11
-679.71138299999996
 21
68.312211000000005
 31
0.0
  0
LINE
  5
1F7
  8
SIZE
  6
CONTINUOUS
 62
    30
 10
-679.71138299999996
 20
56.312210999999998
 30
0.0
 11
-679.71138299999996
 21
-240.524474
 31
0.0
  0
CIRCLE
  5
1F8
  8
SIZE
  6
CONTINUOUS
 62
    30
 10
-679.71138299999996
 20
161.6877889999999
 30
0.0
 40
6.0
  0
LINE
  5
1F9
  8
SIZE
  6
CONTINUOUS
 62
    30
 10
-679.71138299999996
 20
161.6877889999999
 30
0.0
 11
-679.71138299999996
 21
149.6877889999999
 31
0.0
  0
CIRCLE
  5
1FA
  8
SIZE
  6
CONTINUOUS
 62
    30
 10
-679.71138299999996
 20
56.312210999999998
 30
0.0
 40
6.0
  0
LINE
  5
1FB
  8
SIZE
  6
CONTINUOUS
 62
    30
 10
-679.71138299999996
 20
56.312210999999998
 30
0.0
 11
-679.71138299999996
 21
68.312211000000005
 31
0.0
  0
TEXT
  5
1FC
  8
SIZE
  6
CONTINUOUS
 62
    30
 10
-704.71138299999996
 20
-229.78733157142861
 30
0.0
 40
64.0
  1
âË105
 50
90.0
 41
0.9
 72
     1
 11
-704.71138299999996
 21
-120.895903
 31
0.0
  0
POINT
  5
1FD
  8
DEFPOINTS
  6
CONTINUOUS
 62
    30
 10
-230.772087
 20
56.312210999999998
 30
0.0
  0
POINT
  5
1FE
  8
DEFPOINTS
  6
CONTINUOUS
 62
    30
 10
-230.772087
 20
161.6877889999999
 30
0.0
  0
POINT
  5
1FF
  8
DEFPOINTS
  6
CONTINUOUS
 62
    30
 10
-679.71138299999996
 20
161.6877889999999
 30
0.0
  0
LINE
  5
200
  8
SIZE
  6
CONTINUOUS
 62
    30
 10
-214.0
 20
0.0
 30
0.0
 11
-821.62712699999975
 21
0.0
 31
0.0
  0
LINE
  5
201
  8
SIZE
  6
CONTINUOUS
 62
    30
 10
-339.18856
 20
109.0
 30
0.0
 11
-821.62712699999975
 21
109.0
 31
0.0
  0
LINE
  5
202
  8
SIZE
  6
CONTINUOUS
 62
    30
 10
-801.62712699999975
 20
97.0
 30
0.0
 11
-801.62712699999975
 21
12.0
 31
0.0
  0
LINE
  5
203
  8
SIZE
  6
CONTINUOUS
 62
    30
 10
-801.62712699999975
 20
0.0
 30
0.0
 11
-801.62712699999975
 21
-196.40000000000001
 31
0.0
  0
CIRCLE
  5
204
  8
SIZE
  6
CONTINUOUS
 62
    30
 10
-801.62712699999975
 20
109.0
 30
0.0
 40
6.0
  0
LINE
  5
205
  8
SIZE
  6
CONTINUOUS
 62
    30
 10
-801.62712699999975
 20
109.0
 30
0.0
 11
-801.62712699999975
 21
97.0
 31
0.0
  0
CIRCLE
  5
206
  8
SIZE
  6
CONTINUOUS
 62
    30
 10
-801.62712699999975
 20
0.0
 30
0.0
 40
6.0
  0
LINE
  5
207
  8
SIZE
  6
CONTINUOUS
 62
    30
 10
-801.62712699999975
 20
0.0
 30
0.0
 11
-801.62712699999975
 21
12.0
 31
0.0
  0
TEXT
  5
208
  8
SIZE
  6
CONTINUOUS
 62
    30
 10
-826.62712699999975
 20
-171.39999999999989
 30
0.0
 40
64.0
  1
109
 50
90.0
 41
0.9
 72
     1
 11
-826.62712699999975
 21
-104.2
 31
0.0
  0
POINT
  5
209
  8
DEFPOINTS
  6
CONTINUOUS
 62
    30
 10
-194.0
 20
0.0
 30
0.0
  0
POINT
  5
20A
  8
DEFPOINTS
  6
CONTINUOUS
 62
    30
 10
-319.18855999999988
 20
109.0
 30
0.0
  0
POINT
  5
20B
  8
DEFPOINTS
  6
CONTINUOUS
 62
    30
 10
-801.62712699999975
 20
109.0
 30
0.0
  0
LINE
  5
20C
  8
SIZE
  6
CONTINUOUS
 62
    30
 10
-214.0
 20
0.0
 30
0.0
 11
-450.16402399999993
 21
0.0
 31
0.0
  0
LINE
  5
20D
  8
SIZE
  6
CONTINUOUS
 62
    30
 10
-175.0090439999999
 20
52.175747000000001
 30
0.0
 11
-450.16402399999993
 21
52.175747000000001
 31
0.0
  0
LINE
  5
20E
  8
SIZE
  6
CONTINUOUS
 62
    30
 10
-430.16402399999998
 20
64.175747000000001
 30
0.0
 11
-430.16402399999998
 21
76.175747000000001
 31
0.0
  0
LINE
  5
20F
  8
SIZE
  6
CONTINUOUS
 62
    30
 10
-430.16402399999998
 20
-12.0
 30
0.0
 11
-430.16402399999998
 21
-167.2571429999999
 31
0.0
  0
LINE
  5
210
  8
SIZE
  6
CONTINUOUS
 62
    30
 10
-430.16402399999998
 20
52.175747000000001
 30
0.0
 11
-430.16402399999998
 21
0.0
 31
0.0
  0
CIRCLE
  5
211
  8
SIZE
  6
CONTINUOUS
 62
    30
 10
-430.16402399999998
 20
52.175747000000001
 30
0.0
 40
6.0
  0
LINE
  5
212
  8
SIZE
  6
CONTINUOUS
 62
    30
 10
-430.16402399999998
 20
52.175747000000001
 30
0.0
 11
-430.16402399999998
 21
64.175747000000001
 31
0.0
  0
CIRCLE
  5
213
  8
SIZE
  6
CONTINUOUS
 62
    30
 10
-430.16402399999998
 20
0.0
 30
0.0
 40
6.0
  0
LINE
  5
214
  8
SIZE
  6
CONTINUOUS
 62
    30
 10
-430.16402399999998
 20
0.0
 30
0.0
 11
-430.16402399999998
 21
-12.0
 31
0.0
  0
TEXT
  5
215
  8
SIZE
  6
CONTINUOUS
 62
    30
 10
-455.16402399999998
 20
-142.2571424285714
 30
0.0
 40
64.0
  1
52
 50
90.0
 41
0.9
 72
     1
 11
-455.16402399999998
 21
-95.628570999999994
 31
0.0
  0
POINT
  5
216
  8
DEFPOINTS
  6
CONTINUOUS
 62
    30
 10
-194.0
 20
0.0
 30
0.0
  0
POINT
  5
217
  8
DEFPOINTS
  6
CONTINUOUS
 62
    30
 10
-155.0090439999999
 20
52.175747000000001
 30
0.0
  0
POINT
  5
218
  8
DEFPOINTS
  6
CONTINUOUS
 62
    30
 10
-430.16402399999998
 20
52.175747000000001
 30
0.0
  0
LINE
  5
219
  8
SIZE
  6
CONTINUOUS
 62
    30
 10
-155.0090439999999
 20
20.0
 30
0.0
 11
-155.0090439999999
 21
946.31082099999992
 31
0.0
  0
LINE
  5
21A
  8
SIZE
  6
CONTINUOUS
 62
    30
 10
-265.00904400000002
 20
177.50442100000001
 30
0.0
 11
-265.00904400000002
 21
946.31082099999992
 31
0.0
  0
LINE
  5
21B
  8
SIZE
  6
CONTINUOUS
 62
    30
 10
-167.0090439999999
 20
926.31082100000003
 30
0.0
 11
-253.0090439999999
 21
926.31082100000003
 31
0.0
  0
CIRCLE
  5
21C
  8
SIZE
  6
CONTINUOUS
 62
    30
 10
-155.0090439999999
 20
926.31082100000003
 30
0.0
 40
6.0
  0
LINE
  5
21D
  8
SIZE
  6
CONTINUOUS
 62
    30
 10
-155.0090439999999
 20
926.31082100000003
 30
0.0
 11
-167.0090439999999
 21
926.31082100000003
 31
0.0
  0
CIRCLE
  5
21E
  8
SIZE
  6
CONTINUOUS
 62
    30
 10
-265.00904400000002
 20
926.31082100000003
 30
0.0
 40
6.0
  0
LINE
  5
21F
  8
SIZE
  6
CONTINUOUS
 62
    30
 10
-265.00904400000002
 20
926.31082100000003
 30
0.0
 11
-253.0090439999999
 21
926.31082100000003
 31
0.0
  0
TEXT
  5
220
  8
SIZE
  6
CONTINUOUS
 62
    30
 10
-273.09475828571419
 20
951.31082100000003
 30
0.0
 40
64.0
  1
110
 41
0.9
 72
     1
 11
-210.0090439999999
 21
951.31082100000003
 31
0.0
  0
POINT
  5
221
  8
DEFPOINTS
  6
CONTINUOUS
 62
    30
 10
-155.0090439999999
 20
0.0
 30
0.0
  0
POINT
  5
222
  8
DEFPOINTS
  6
CONTINUOUS
 62
    30
 10
-265.00904400000002
 20
157.50442100000001
 30
0.0
  0
POINT
  5
223
  8
DEFPOINTS
  6
CONTINUOUS
 62
    30
 10
-265.00904400000002
 20
926.31082100000003
 30
0.0
  0
LINE
  5
224
  8
SIZE
  6
CONTINUOUS
 62
    30
 10
-265.00904400000002
 20
177.50442100000001
 30
0.0
 11
-265.00904400000002
 21
699.245182
 31
0.0
  0
LINE
  5
225
  8
SIZE
  6
CONTINUOUS
 62
    30
 10
-235.0090439999999
 20
178.43760800000001
 30
0.0
 11
-235.0090439999999
 21
699.245182
 31
0.0
  0
LINE
  5
226
  8
SIZE
  6
CONTINUOUS
 62
    30
 10
-223.00904399999999
 20
679.245182
 30
0.0
 11
-211.00904399999999
 21
679.245182
 31
0.0
  0
LINE
  5
227
  8
SIZE
  6
CONTINUOUS
 62
    30
 10
-277.00904400000002
 20
679.245182
 30
0.0
 11
-451.53928300000001
 21
679.245182
 31
0.0
  0
LINE
  5
228
  8
SIZE
  6
CONTINUOUS
 62
    30
 10
-235.0090439999999
 20
679.245182
 30
0.0
 11
-265.00904400000002
 21
679.245182
 31
0.0
  0
CIRCLE
  5
229
  8
SIZE
  6
CONTINUOUS
 62
    30
 10
-235.0090439999999
 20
679.245182
 30
0.0
 40
6.0
  0
LINE
  5
22A
  8
SIZE
  6
CONTINUOUS
 62
    30
 10
-235.0090439999999
 20
679.245182
 30
0.0
 11
-223.00904399999999
 21
679.245182
 31
0.0
  0
CIRCLE
  5
22B
  8
SIZE
  6
CONTINUOUS
 62
    30
 10
-265.00904400000002
 20
679.245182
 30
0.0
 40
6.0
  0
LINE
  5
22C
  8
SIZE
  6
CONTINUOUS
 62
    30
 10
-265.00904400000002
 20
679.245182
 30
0.0
 11
-277.00904400000002
 21
679.245182
 31
0.0
  0
TEXT
  5
22D
  8
SIZE
  6
CONTINUOUS
 62
    30
 10
-426.53928242857143
 20
704.245182
 30
0.0
 40
64.0
  1
30
 41
0.9
 72
     1
 11
-379.91071099999999
 21
704.245182
 31
0.0
  0
POINT
  5
22E
  8
DEFPOINTS
  6
CONTINUOUS
 62
    30
 10
-265.00904400000002
 20
157.50442100000001
 30
0.0
  0
POINT
  5
22F
  8
DEFPOINTS
  6
CONTINUOUS
 62
    30
 10
-235.0090439999999
 20
158.43760800000001
 30
0.0
  0
POINT
  5
230
  8
DEFPOINTS
  6
CONTINUOUS
 62
    30
 10
-235.0090439999999
 20
679.245182
 30
0.0
  0
LINE
  5
231
  8
SIZE
  6
CONTINUOUS
 62
    30
 10
-265.00904400000002
 20
177.50442100000001
 30
0.0
 11
-265.00904400000002
 21
946.31082099999992
 31
0.0
  0
LINE
  5
232
  8
SIZE
  6
CONTINUOUS
 62
    30
 10
-277.59914800000001
 20
134.23609899999991
 30
0.0
 11
-277.59914800000001
 21
946.31082099999992
 31
0.0
  0
LINE
  5
233
  8
SIZE
  6
CONTINUOUS
 62
    30
 10
-253.0090439999999
 20
926.31082100000003
 30
0.0
 11
-241.0090439999999
 21
926.31082100000003
 31
0.0
  0
LINE
  5
234
  8
SIZE
  6
CONTINUOUS
 62
    30
 10
-289.59914800000001
 20
926.31082100000003
 30
0.0
 11
-550.73057699999993
 21
926.31082100000003
 31
0.0
  0
LINE
  5
235
  8
SIZE
  6
CONTINUOUS
 62
    30
 10
-265.00904400000002
 20
926.31082100000003
 30
0.0
 11
-277.59914800000001
 21
926.31082100000003
 31
0.0
  0
CIRCLE
  5
236
  8
SIZE
  6
CONTINUOUS
 62
    30
 10
-265.00904400000002
 20
926.31082100000003
 30
0.0
 40
6.0
  0
LINE
  5
237
  8
SIZE
  6
CONTINUOUS
 62
    30
 10
-265.00904400000002
 20
926.31082100000003
 30
0.0
 11
-253.0090439999999
 21
926.31082100000003
 31
0.0
  0
CIRCLE
  5
238
  8
SIZE
  6
CONTINUOUS
 62
    30
 10
-277.59914800000001
 20
926.31082100000003
 30
0.0
 40
6.0
  0
LINE
  5
239
  8
SIZE
  6
CONTINUOUS
 62
    30
 10
-277.59914800000001
 20
926.31082100000003
 30
0.0
 11
-289.59914800000001
 21
926.31082100000003
 31
0.0
  0
TEXT
  5
23A
  8
SIZE
  6
CONTINUOUS
 62
    30
 10
-535.05629157142835
 20
951.31082100000003
 30
0.0
 40
64.0
  1
üi13üj
 41
0.9
 72
     1
 11
-426.1648629999998
 21
951.31082100000003
 31
0.0
  0
POINT
  5
23B
  8
DEFPOINTS
  6
CONTINUOUS
 62
    30
 10
-265.00904400000002
 20
157.50442100000001
 30
0.0
  0
POINT
  5
23C
  8
DEFPOINTS
  6
CONTINUOUS
 62
    30
 10
-277.59914800000001
 20
114.236099
 30
0.0
  0
POINT
  5
23D
  8
DEFPOINTS
  6
CONTINUOUS
 62
    30
 10
-277.59914800000001
 20
926.31082100000003
 30
0.0
  0
LINE
  5
23E
  8
SIZE
  6
CONTINUOUS
 62
    30
 10
154.737267
 20
20.0
 30
0.0
 11
154.737267
 21
946.31082099999992
 31
0.0
  0
LINE
  5
23F
  8
SIZE
  6
CONTINUOUS
 62
    30
 10
234.32563200000001
 20
176.3792709999999
 30
0.0
 11
234.32563200000001
 21
946.31082099999992
 31
0.0
  0
LINE
  5
240
  8
SIZE
  6
CONTINUOUS
 62
    30
 10
166.7372669999998
 20
926.31082100000003
 30
0.0
 11
222.3256319999999
 21
926.31082100000003
 31
0.0
  0
LINE
  5
241
  8
SIZE
  6
CONTINUOUS
 62
    30
 10
234.32563200000001
 20
926.31082100000003
 30
0.0
 11
389.58277500000003
 21
926.31082100000003
 31
0.0
  0
CIRCLE
  5
242
  8
SIZE
  6
CONTINUOUS
 62
    30
 10
154.737267
 20
926.31082100000003
 30
0.0
 40
6.0
  0
LINE
  5
243
  8
SIZE
  6
CONTINUOUS
 62
    30
 10
154.737267
 20
926.31082100000003
 30
0.0
 11
166.7372669999998
 21
926.31082100000003
 31
0.0
  0
CIRCLE
  5
244
  8
SIZE
  6
CONTINUOUS
 62
    30
 10
234.32563200000001
 20
926.31082100000003
 30
0.0
 40
6.0
  0
LINE
  5
245
  8
SIZE
  6
CONTINUOUS
 62
    30
 10
234.32563200000001
 20
926.31082100000003
 30
0.0
 11
222.3256319999999
 21
926.31082100000003
 31
0.0
  0
TEXT
  5
246
  8
SIZE
  6
CONTINUOUS
 62
    30
 10
271.32563157142857
 20
951.31082100000003
 30
0.0
 40
64.0
  1
80
 41
0.9
 72
     1
 11
317.95420300000001
 21
951.31082100000003
 31
0.0
  0
POINT
  5
247
  8
DEFPOINTS
  6
CONTINUOUS
 62
    30
 10
154.737267
 20
0.0
 30
0.0
  0
POINT
  5
248
  8
DEFPOINTS
  6
CONTINUOUS
 62
    30
 10
234.32563200000001
 20
156.3792709999999
 30
0.0
  0
POINT
  5
249
  8
DEFPOINTS
  6
CONTINUOUS
 62
    30
 10
234.32563200000001
 20
926.31082100000003
 30
0.0
  0
LINE
  5
24A
  8
SIZE
  6
CONTINUOUS
 62
    30
 10
234.32563200000001
 20
176.3792709999999
 30
0.0
 11
234.32563200000001
 21
822.74830199999985
 31
0.0
  0
LINE
  5
24B
  8
SIZE
  6
CONTINUOUS
 62
    30
 10
209.6022759999999
 20
177.09068400000001
 30
0.0
 11
209.6022759999999
 21
822.74830199999985
 31
0.0
  0
LINE
  5
24C
  8
SIZE
  6
CONTINUOUS
 62
    30
 10
197.60227599999999
 20
802.74830199999985
 30
0.0
 11
185.6022759999999
 21
802.74830199999985
 31
0.0
  0
LINE
  5
24D
  8
SIZE
  6
CONTINUOUS
 62
    30
 10
246.3256319999999
 20
802.74830199999985
 30
0.0
 11
401.58277500000003
 21
802.74830199999985
 31
0.0
  0
LINE
  5
24E
  8
SIZE
  6
CONTINUOUS
 62
    30
 10
209.6022759999999
 20
802.74830199999985
 30
0.0
 11
234.32563200000001
 21
802.74830199999985
 31
0.0
  0
CIRCLE
  5
24F
  8
SIZE
  6
CONTINUOUS
 62
    30
 10
209.6022759999999
 20
802.74830199999985
 30
0.0
 40
6.0
  0
LINE
  5
250
  8
SIZE
  6
CONTINUOUS
 62
    30
 10
209.6022759999999
 20
802.74830199999985
 30
0.0
 11
197.60227599999999
 21
802.74830199999985
 31
0.0
  0
CIRCLE
  5
251
  8
SIZE
  6
CONTINUOUS
 62
    30
 10
234.32563200000001
 20
802.74830199999985
 30
0.0
 40
6.0
  0
LINE
  5
252
  8
SIZE
  6
CONTINUOUS
 62
    30
 10
234.32563200000001
 20
802.74830199999985
 30
0.0
 11
246.3256319999999
 21
802.74830199999985
 31
0.0
  0
TEXT
  5
253
  8
SIZE
  6
CONTINUOUS
 62
    30
 10
283.32563157142857
 20
827.74830199999985
 30
0.0
 40
64.0
  1
25
 41
0.9
 72
     1
 11
329.95420300000001
 21
827.74830199999985
 31
0.0
  0
POINT
  5
254
  8
DEFPOINTS
  6
CONTINUOUS
 62
    30
 10
234.32563200000001
 20
156.3792709999999
 30
0.0
  0
POINT
  5
255
  8
DEFPOINTS
  6
CONTINUOUS
 62
    30
 10
209.6022759999999
 20
157.09068400000001
 30
0.0
  0
POINT
  5
256
  8
DEFPOINTS
  6
CONTINUOUS
 62
    30
 10
209.6022759999999
 20
802.74830199999985
 30
0.0
  0
LINE
  5
257
  8
SIZE
  6
CONTINUOUS
 62
    30
 10
253.829995
 20
156.87925200000001
 30
0.0
 11
461.23933799999992
 21
156.87925200000001
 31
0.0
  0
LINE
  5
258
  8
SIZE
  6
CONTINUOUS
 62
    30
 10
253.829995
 20
58.995601000000001
 30
0.0
 11
461.23933799999992
 21
58.995601000000001
 31
0.0
  0
LINE
  5
259
  8
SIZE
  6
CONTINUOUS
 62
    30
 10
441.23933799999998
 20
144.87925200000001
 30
0.0
 11
441.23933799999998
 21
70.995601000000022
 31
0.0
  0
LINE
  5
25A
  8
SIZE
  6
CONTINUOUS
 62
    30
 10
441.23933799999998
 20
58.995601000000001
 30
0.0
 11
441.23933799999998
 21
-212.38728599999999
 31
0.0
  0
CIRCLE
  5
25B
  8
SIZE
  6
CONTINUOUS
 62
    30
 10
441.23933799999998
 20
156.87925200000001
 30
0.0
 40
6.0
  0
LINE
  5
25C
  8
SIZE
  6
CONTINUOUS
 62
    30
 10
441.23933799999998
 20
156.87925200000001
 30
0.0
 11
441.23933799999998
 21
144.87925200000001
 31
0.0
  0
CIRCLE
  5
25D
  8
SIZE
  6
CONTINUOUS
 62
    30
 10
441.23933799999998
 20
58.995601000000001
 30
0.0
 40
6.0
  0
LINE
  5
25E
  8
SIZE
  6
CONTINUOUS
 62
    30
 10
441.23933799999998
 20
58.995601000000001
 30
0.0
 11
441.23933799999998
 21
70.995601000000022
 31
0.0
  0
TEXT
  5
25F
  8
SIZE
  6
CONTINUOUS
 62
    30
 10
416.23933799999998
 20
-201.65014342857131
 30
0.0
 40
64.0
  1
âË98
 50
90.0
 41
0.9
 72
     1
 11
416.23933799999998
 21
-114.7015719999999
 31
0.0
  0
POINT
  5
260
  8
DEFPOINTS
  6
CONTINUOUS
 62
    30
 10
233.829995
 20
156.87925200000001
 30
0.0
  0
POINT
  5
261
  8
DEFPOINTS
  6
CONTINUOUS
 62
    30
 10
233.829995
 20
58.995601000000001
 30
0.0
  0
POINT
  5
262
  8
DEFPOINTS
  6
CONTINUOUS
 62
    30
 10
441.23933799999998
 20
58.995601000000001
 30
0.0
  0
LINE
  5
263
  8
SIZE
  6
CONTINUOUS
 62
    30
 10
224.8256319999999
 20
55.499927
 30
0.0
 11
578.106672
 21
55.499927
 31
0.0
  0
LINE
  5
264
  8
SIZE
  6
CONTINUOUS
 62
    30
 10
224.14069599999991
 20
160.51188200000001
 30
0.0
 11
578.106672
 21
160.51188200000001
 31
0.0
  0
LINE
  5
265
  8
SIZE
  6
CONTINUOUS
 62
    30
 10
558.10667199999989
 20
148.51188200000001
 30
0.0
 11
558.10667199999989
 21
67.499926999999985
 31
0.0
  0
LINE
  5
266
  8
SIZE
  6
CONTINUOUS
 62
    30
 10
558.10667199999989
 20
55.499927
 30
0.0
 11
558.10667199999989
 21
-258.41514000000001
 31
0.0
  0
CIRCLE
  5
267
  8
SIZE
  6
CONTINUOUS
 62
    30
 10
558.10667199999989
 20
160.51188200000001
 30
0.0
 40
6.0
  0
LINE
  5
268
  8
SIZE
  6
CONTINUOUS
 62
    30
 10
558.10667199999989
 20
160.51188200000001
 30
0.0
 11
558.10667199999989
 21
148.51188200000001
 31
0.0
  0
CIRCLE
  5
269
  8
SIZE
  6
CONTINUOUS
 62
    30
 10
558.10667199999989
 20
55.499927
 30
0.0
 40
6.0
  0
LINE
  5
26A
  8
SIZE
  6
CONTINUOUS
 62
    30
 10
558.10667199999989
 20
55.499927
 30
0.0
 11
558.10667199999989
 21
67.499926999999985
 31
0.0
  0
TEXT
  5
26B
  8
SIZE
  6
CONTINUOUS
 62
    30
 10
533.10667199999989
 20
-247.67799757142851
 30
0.0
 40
64.0
  1
âË105
 50
90.0
 41
0.9
 72
     1
 11
533.10667199999989
 21
-138.7865689999999
 31
0.0
  0
POINT
  5
26C
  8
DEFPOINTS
  6
CONTINUOUS
 62
    30
 10
204.82563200000001
 20
55.499927
 30
0.0
  0
POINT
  5
26D
  8
DEFPOINTS
  6
CONTINUOUS
 62
    30
 10
204.14069599999991
 20
160.51188200000001
 30
0.0
  0
POINT
  5
26E
  8
DEFPOINTS
  6
CONTINUOUS
 62
    30
 10
558.10667199999989
 20
160.51188200000001
 30
0.0
  0
LINE
  5
26F
  8
SIZE
  6
CONTINUOUS
 62
    30
 10
174.03906499999991
 20
40.0
 30
0.0
 11
327.3339049999999
 21
40.0
 31
0.0
  0
LINE
  5
270
  8
SIZE
  6
CONTINUOUS
 62
    30
 10
214.0
 20
0.0
 30
0.0
 11
327.3339049999999
 21
0.0
 31
0.0
  0
LINE
  5
271
  8
SIZE
  6
CONTINUOUS
 62
    30
 10
307.3339049999999
 20
52.0
 30
0.0
 11
307.3339049999999
 21
64.0
 31
0.0
  0
LINE
  5
272
  8
SIZE
  6
CONTINUOUS
 62
    30
 10
307.3339049999999
 20
-12.0
 30
0.0
 11
307.3339049999999
 21
-167.2571429999999
 31
0.0
  0
LINE
  5
273
  8
SIZE
  6
CONTINUOUS
 62
    30
 10
307.3339049999999
 20
40.0
 30
0.0
 11
307.3339049999999
 21
0.0
 31
0.0
  0
CIRCLE
  5
274
  8
SIZE
  6
CONTINUOUS
 62
    30
 10
307.3339049999999
 20
40.0
 30
0.0
 40
6.0
  0
LINE
  5
275
  8
SIZE
  6
CONTINUOUS
 62
    30
 10
307.3339049999999
 20
40.0
 30
0.0
 11
307.3339049999999
 21
52.0
 31
0.0
  0
CIRCLE
  5
276
  8
SIZE
  6
CONTINUOUS
 62
    30
 10
307.3339049999999
 20
0.0
 30
0.0
 40
6.0
  0
LINE
  5
277
  8
SIZE
  6
CONTINUOUS
 62
    30
 10
307.3339049999999
 20
0.0
 30
0.0
 11
307.3339049999999
 21
-12.0
 31
0.0
  0
TEXT
  5
278
  8
SIZE
  6
CONTINUOUS
 62
    30
 10
282.3339049999999
 20
-142.2571424285714
 30
0.0
 40
64.0
  1
40
 50
90.0
 41
0.9
 72
     1
 11
282.3339049999999
 21
-95.628570999999994
 31
0.0
  0
POINT
  5
279
  8
DEFPOINTS
  6
CONTINUOUS
 62
    30
 10
154.03906499999991
 20
40.0
 30
0.0
  0
POINT
  5
27A
  8
DEFPOINTS
  6
CONTINUOUS
 62
    30
 10
194.0
 20
0.0
 30
0.0
  0
POINT
  5
27B
  8
DEFPOINTS
  6
CONTINUOUS
 62
    30
 10
307.3339049999999
 20
0.0
 30
0.0
  0
LINE
  5
27C
  8
SIZE
  6
CONTINUOUS
 62
    30
 10
168.0
 20
-20.0
 30
0.0
 11
719.94618099999968
 21
-20.0
 31
0.0
  0
LINE
  5
27D
  8
SIZE
  6
CONTINUOUS
 62
    30
 10
214.0
 20
0.0
 30
0.0
 11
719.94618099999968
 21
0.0
 31
0.0
  0
LINE
  5
27E
  8
SIZE
  6
CONTINUOUS
 62
    30
 10
699.94618099999968
 20
12.0
 30
0.0
 11
699.94618099999968
 21
24.0
 31
0.0
  0
LINE
  5
27F
  8
SIZE
  6
CONTINUOUS
 62
    30
 10
699.94618099999968
 20
-32.0
 30
0.0
 11
699.94618099999968
 21
-187.2571429999999
 31
0.0
  0
LINE
  5
280
  8
SIZE
  6
CONTINUOUS
 62
    30
 10
699.94618099999968
 20
0.0
 30
0.0
 11
699.94618099999968
 21
-20.0
 31
0.0
  0
CIRCLE
  5
281
  8
SIZE
  6
CONTINUOUS
 62
    30
 10
699.94618099999968
 20
0.0
 30
0.0
 40
6.0
  0
LINE
  5
282
  8
SIZE
  6
CONTINUOUS
 62
    30
 10
699.94618099999968
 20
0.0
 30
0.0
 11
699.94618099999968
 21
12.0
 31
0.0
  0
CIRCLE
  5
283
  8
SIZE
  6
CONTINUOUS
 62
    30
 10
699.94618099999968
 20
-20.0
 30
0.0
 40
6.0
  0
LINE
  5
284
  8
SIZE
  6
CONTINUOUS
 62
    30
 10
699.94618099999968
 20
-20.0
 30
0.0
 11
699.94618099999968
 21
-32.0
 31
0.0
  0
TEXT
  5
285
  8
SIZE
  6
CONTINUOUS
 62
    30
 10
674.94618099999968
 20
-162.25714242857131
 30
0.0
 40
64.0
  1
20
 50
90.0
 41
0.9
 72
     1
 11
674.94618099999968
 21
-115.62857099999979
 31
0.0
  0
POINT
  5
286
  8
DEFPOINTS
  6
CONTINUOUS
 62
    30
 10
148.0
 20
-20.0
 30
0.0
  0
POINT
  5
287
  8
DEFPOINTS
  6
CONTINUOUS
 62
    30
 10
194.0
 20
0.0
 30
0.0
  0
POINT
  5
288
  8
DEFPOINTS
  6
CONTINUOUS
 62
    30
 10
699.94618099999968
 20
0.0
 30
0.0
  0
LINE
  5
289
  8
SIZE
  6
CONTINUOUS
 62
    30
 10
68.0
 20
200.00002499999991
 30
0.0
 11
719.94618099999968
 21
200.00002499999991
 31
0.0
  0
LINE
  5
28A
  8
SIZE
  6
CONTINUOUS
 62
    30
 10
214.0
 20
0.0
 30
0.0
 11
719.94618099999968
 21
0.0
 31
0.0
  0
LINE
  5
28B
  8
SIZE
  6
CONTINUOUS
 62
    30
 10
699.94618099999968
 20
188.00002499999991
 30
0.0
 11
699.94618099999968
 21
12.0
 31
0.0
  0
CIRCLE
  5
28C
  8
SIZE
  6
CONTINUOUS
 62
    30
 10
699.94618099999968
 20
200.00002499999991
 30
0.0
 40
6.0
  0
LINE
  5
28D
  8
SIZE
  6
CONTINUOUS
 62
    30
 10
699.94618099999968
 20
200.00002499999991
 30
0.0
 11
699.94618099999968
 21
188.00002499999991
 31
0.0
  0
CIRCLE
  5
28E
  8
SIZE
  6
CONTINUOUS
 62
    30
 10
699.94618099999968
 20
0.0
 30
0.0
 40
6.0
  0
LINE
  5
28F
  8
SIZE
  6
CONTINUOUS
 62
    30
 10
699.94618099999968
 20
0.0
 30
0.0
 11
699.94618099999968
 21
12.0
 31
0.0
  0
TEXT
  5
290
  8
SIZE
  6
CONTINUOUS
 62
    30
 10
674.94618099999968
 20
25.942869142857049
 30
0.0
 40
64.0
  1
200
 50
90.0
 41
0.9
 72
     1
 11
674.94618099999968
 21
100.0000119999999
 31
0.0
  0
POINT
  5
291
  8
DEFPOINTS
  6
CONTINUOUS
 62
    30
 10
48.0
 20
200.00002499999991
 30
0.0
  0
POINT
  5
292
  8
DEFPOINTS
  6
CONTINUOUS
 62
    30
 10
194.0
 20
0.0
 30
0.0
  0
POINT
  5
293
  8
DEFPOINTS
  6
CONTINUOUS
 62
    30
 10
699.94618099999968
 20
0.0
 30
0.0
  0
LINE
  5
294
  8
OUTLINE
  6
CONTINUOUS
 62
     3
 10
54.100006
 20
193.900024
 30
0.0
 11
54.100006
 21
165.0
 31
0.0
  0
ARC
  5
295
  8
OUTLINE
  6
CONTINUOUS
 62
     3
 10
48.0
 20
193.900024
 30
0.0
 40
6.0999999999999979
 50
0.000001
 51
90.0
  0
LINE
  5
296
  8
OUTLINE
  6
CONTINUOUS
 62
     3
 10
48.0
 20
200.0
 30
0.0
 11
13.0
 21
200.0
 31
0.0
  0
LINE
  5
297
  8
OUTLINE
  6
CONTINUOUS
 62
     3
 10
-28.100006
 20
193.900024
 30
0.0
 11
-28.100006
 21
165.0
 31
0.0
  0
ARC
  5
298
  8
OUTLINE
  6
CONTINUOUS
 62
     3
 10
-22.0
 20
193.900024
 30
0.0
 40
6.0999999999999979
 50
90.0
 51
179.999999
  0
LINE
  5
299
  8
OUTLINE
  6
CONTINUOUS
 62
     3
 10
-22.0
 20
200.0
 30
0.0
 11
13.0
 21
200.0
 31
0.0
  0
LINE
  5
29A
  8
OUTLINE
  6
CONTINUOUS
 62
     3
 10
-121.9460439999999
 20
175.5
 30
0.0
 11
-122.510385
 21
175.5
 31
0.0
  0
ARC
  5
29B
  8
OUTLINE
  6
CONTINUOUS
 62
     3
 10
194.0
 20
-1.0
 30
0.0
 40
1.0
 50
0.0
 51
90.0
  0
ARC
  5
29C
  8
OUTLINE
  6
CONTINUOUS
 62
     3
 10
-194.0
 20
-1.0
 30
0.0
 40
1.0
 50
90.0
 51
180.0
  0
LINE
  5
29D
  8
OUTLINE
  6
CONTINUOUS
 62
     3
 10
195.0
 20
-1.0
 30
0.0
 11
195.0
 21
-4.1489570000000002
 31
0.0
  0
LINE
  5
29E
  8
OUTLINE
  6
CONTINUOUS
 62
     3
 10
195.0
 20
-1.0
 30
0.0
 11
195.0
 21
-5.8030919999999986
 31
0.0
  0
LINE
  5
29F
  8
OUTLINE
  6
CONTINUOUS
 62
     3
 10
145.5
 20
-20.0
 30
0.0
 11
0.0
 21
-20.0
 31
0.0
  0
LINE
  5
2A0
  8
OUTLINE
  6
CONTINUOUS
 62
     3
 10
145.5
 20
-19.0
 30
0.0
 11
145.5
 21
-20.0
 31
0.0
  0
ARC
  5
2A1
  8
OUTLINE
  6
CONTINUOUS
 62
     3
 10
147.0
 20
97.700000000000017
 30
0.0
 40
117.7
 50
270.4868009999999
 51
292.08657499999993
  0
LINE
  5
2A2
  8
OUTLINE
  6
CONTINUOUS
 62
     3
 10
145.5
 20
-19.0
 30
0.0
 11
148.0
 21
-19.0
 31
0.0
  0
LINE
  5
2A3
  8
OUTLINE
  6
CONTINUOUS
 62
     3
 10
148.0
 20
-19.0
 30
0.0
 11
148.0
 21
-20.0
 31
0.0
  0
ARC
  5
2A4
  8
OUTLINE
  6
CONTINUOUS
 62
     3
 10
189.0
 20
-5.8030919999999986
 30
0.0
 40
6.0
 50
292.08657499999993
 51
0.0
  0
LINE
  5
2A5
  8
OUTLINE
  6
CONTINUOUS
 62
     3
 10
194.0
 20
0.0
 30
0.0
 11
0.0
 21
0.0
 31
0.0
  0
LINE
  5
2A6
  8
OUTLINE
  6
CONTINUOUS
 62
     3
 10
-195.0
 20
-1.0
 30
0.0
 11
-195.0
 21
-4.1489570000000002
 31
0.0
  0
LINE
  5
2A7
  8
OUTLINE
  6
CONTINUOUS
 62
     3
 10
-195.0
 20
-1.0
 30
0.0
 11
-195.0
 21
-5.8030919999999986
 31
0.0
  0
LINE
  5
2A8
  8
OUTLINE
  6
CONTINUOUS
 62
     3
 10
-145.5
 20
-20.0
 30
0.0
 11
0.0
 21
-20.0
 31
0.0
  0
LINE
  5
2A9
  8
OUTLINE
  6
CONTINUOUS
 62
     3
 10
-145.5
 20
-19.0
 30
0.0
 11
-145.5
 21
-20.0
 31
0.0
  0
ARC
  5
2AA
  8
OUTLINE
  6
CONTINUOUS
 62
     3
 10
-147.0
 20
97.700000000000017
 30
0.0
 40
117.7
 50
247.9134249999999
 51
269.51319899999999
  0
LINE
  5
2AB
  8
OUTLINE
  6
CONTINUOUS
 62
     3
 10
-145.5
 20
-19.0
 30
0.0
 11
-148.0
 21
-19.0
 31
0.0
  0
LINE
  5
2AC
  8
OUTLINE
  6
CONTINUOUS
 62
     3
 10
-148.0
 20
-19.0
 30
0.0
 11
-148.0
 21
-20.0
 31
0.0
  0
ARC
  5
2AD
  8
OUTLINE
  6
CONTINUOUS
 62
     3
 10
-189.0
 20
-5.8030919999999986
 30
0.0
 40
6.0
 50
180.0
 51
247.9134249999999
  0
LINE
  5
2AE
  8
OUTLINE
  6
CONTINUOUS
 62
     3
 10
-194.0
 20
0.0
 30
0.0
 11
0.0
 21
0.0
 31
0.0
  0
ARC
  5
2AF
  8
OUTLINE
  6
CONTINUOUS
 62
     3
 10
-143.314787
 20
183.221451
 30
0.0
 40
0.5
 50
155.772255
 51
179.0
  0
LINE
  5
2B0
  8
OUTLINE
  6
CONTINUOUS
 62
     3
 10
-143.81471099999999
 20
183.23017799999991
 30
0.0
 11
-143.82745600000001
 21
182.5
 31
0.0
  0
LINE
  5
2B1
  8
OUTLINE
  6
CONTINUOUS
 62
     3
 10
-139.59540100000001
 20
192.70518200000001
 30
0.0
 11
-143.770747
 21
183.42663400000001
 31
0.0
  0
LINE
  5
2B2
  8
OUTLINE
  6
CONTINUOUS
 62
     3
 10
-123.6097179999999
 20
165.0
 30
0.0
 11
-124.52834900000001
 21
175.5
 31
0.0
  0
LINE
  5
2B3
  8
OUTLINE
  6
CONTINUOUS
 62
     3
 10
-126.732299
 20
187.26956599999991
 30
0.0
 11
-132.31628599999999
 21
192.85355299999989
 31
0.0
  0
LINE
  5
2B4
  8
OUTLINE
  6
CONTINUOUS
 62
     3
 10
-132.669839
 20
193.0
 30
0.0
 11
-139.13943999999981
 21
193.0
 31
0.0
  0
ARC
  5
2B5
  8
OUTLINE
  6
CONTINUOUS
 62
     3
 10
-130.26783299999991
 20
183.73403200000001
 30
0.0
 40
5.0
 50
4.9990649999999981
 51
45.0
  0
ARC
  5
2B6
  8
OUTLINE
  6
CONTINUOUS
 62
     3
 10
-132.669839
 20
192.5
 30
0.0
 40
0.5
 50
45.0
 51
90.0
  0
ARC
  5
2B7
  8
OUTLINE
  6
CONTINUOUS
 62
     3
 10
-139.13943999999981
 20
192.5
 30
0.0
 40
0.5
 50
90.0
 51
155.772255
  0
LINE
  5
2B8
  8
OUTLINE
  6
CONTINUOUS
 62
     3
 10
-125.1407699999999
 20
182.5
 30
0.0
 11
-125.28685900000001
 21
184.16981100000001
 31
0.0
  0
LINE
  5
2B9
  8
OUTLINE
  6
CONTINUOUS
 62
     3
 10
148.90908999999991
 20
165.0
 30
0.0
 11
-123.6097179999999
 21
165.0
 31
0.0
  0
ARC
  5
2BA
  8
OUTLINE
  6
CONTINUOUS
 62
     3
 10
148.90908999999991
 20
162.0
 30
0.0
 40
3.0
 50
1.0
 51
90.0
  0
LINE
  5
2BB
  8
OUTLINE
  6
CONTINUOUS
 62
     3
 10
154.737267
 20
0.0
 30
0.0
 11
151.90863300000001
 21
162.052357
 31
0.0
  0
LINE
  5
2BC
  8
OUTLINE
  6
CONTINUOUS
 62
     3
 10
119.4747669999999
 20
165.0
 30
0.0
 11
132.34948199999999
 21
186.91440800000001
 31
0.0
  0
LINE
  5
2BD
  8
OUTLINE
  6
CONTINUOUS
 62
     3
 10
134.2463469999999
 20
188.0
 30
0.0
 11
135.02386699999991
 21
188.0
 31
0.0
  0
ARC
  5
2BE
  8
OUTLINE
  6
CONTINUOUS
 62
     3
 10
124.70845799999999
 20
171.93426700000001
 30
0.0
 40
1.0
 50
149.56613300000001
 51
179.0
  0
ARC
  5
2BF
  8
OUTLINE
  6
CONTINUOUS
 62
     3
 10
135.02386699999991
 20
185.80000000000001
 30
0.0
 40
2.2000000000000002
 50
0.992294
 51
90.0
  0
ARC
  5
2C0
  8
OUTLINE
  6
CONTINUOUS
 62
     3
 10
134.2463469999999
 20
185.80000000000001
 30
0.0
 40
2.2000000000000002
 50
90.0
 51
149.565764
  0
LINE
  5
2C1
  8
OUTLINE
  6
CONTINUOUS
 62
     3
 10
137.58726699999991
 20
165.0
 30
0.0
 11
137.22353200000001
 21
185.83839499999991
 31
0.0
  0
LINE
  5
2C2
  8
OUTLINE
  6
CONTINUOUS
 62
     3
 10
-145.9460439999998
 20
177.5
 30
0.0
 11
-149.946044
 21
177.5
 31
0.0
  0
ARC
  5
2C3
  8
OUTLINE
  6
CONTINUOUS
 62
     3
 10
-149.946044
 20
175.5
 30
0.0
 40
2.0
 50
90.0
 51
180.0
  0
ARC
  5
2C4
  8
OUTLINE
  6
CONTINUOUS
 62
     3
 10
-149.946044
 20
175.5
 30
0.0
 40
2.0
 50
90.0
 51
180.0
  0
LINE
  5
2C5
  8
OUTLINE
  6
CONTINUOUS
 62
     3
 10
-145.9460439999998
 20
177.5
 30
0.0
 11
-149.946044
 21
177.5
 31
0.0
  0
LINE
  5
2C6
  8
OUTLINE
  6
CONTINUOUS
 62
     3
 10
-145.73167100000001
 20
181.787453
 30
0.0
 11
-145.9460439999998
 21
177.5
 31
0.0
  0
LINE
  5
2C7
  8
OUTLINE
  6
CONTINUOUS
 62
     3
 10
-145.73167100000001
 20
181.787453
 30
0.0
 11
-145.9460439999998
 21
177.5
 31
0.0
  0
ARC
  5
2C8
  8
OUTLINE
  6
CONTINUOUS
 62
     3
 10
-144.982607
 20
181.75
 30
0.0
 40
0.75
 50
90.0
 51
177.137595
  0
LINE
  5
2C9
  8
OUTLINE
  6
CONTINUOUS
 62
     3
 10
-144.982607
 20
182.5
 30
0.0
 11
-143.82745600000001
 21
182.5
 31
0.0
  0
LINE
  5
2CA
  8
OUTLINE
  6
CONTINUOUS
 62
     3
 10
-125.1407699999999
 20
182.5
 30
0.0
 11
-116.919736
 21
182.5
 31
0.0
  0
LINE
  5
2CB
  8
OUTLINE
  6
CONTINUOUS
 62
     3
 10
-144.982607
 20
182.5
 30
0.0
 11
-144.909481
 21
182.5
 31
0.0
  0
LINE
  5
2CC
  8
OUTLINE
  6
CONTINUOUS
 62
     3
 10
-144.982607
 20
182.5
 30
0.0
 11
-144.909481
 21
182.5
 31
0.0
  0
LINE
  5
2CD
  8
OUTLINE
  6
CONTINUOUS
 62
     3
 10
-144.982607
 20
182.5
 30
0.0
 11
-143.82745600000001
 21
182.5
 31
0.0
  0
LINE
  5
2CE
  8
OUTLINE
  6
CONTINUOUS
 62
     3
 10
-125.1407699999999
 20
182.5
 30
0.0
 11
-116.919736
 21
182.5
 31
0.0
  0
ARC
  5
2CF
  8
OUTLINE
  6
CONTINUOUS
 62
     3
 10
-144.982607
 20
181.75
 30
0.0
 40
0.75
 50
90.0
 51
177.137595
  0
LINE
  5
2D0
  8
OUTLINE
  6
CONTINUOUS
 62
     3
 10
-116.982607
 20
182.5
 30
0.0
 11
-116.919736
 21
182.5
 31
0.0
  0
LINE
  5
2D1
  8
OUTLINE
  6
CONTINUOUS
 62
     3
 10
-116.1702139999999
 20
181.776769
 30
0.0
 11
-115.9460439999999
 21
175.5
 31
0.0
  0
ARC
  5
2D2
  8
OUTLINE
  6
CONTINUOUS
 62
     3
 10
-116.919736
 20
181.75
 30
0.0
 40
0.75
 50
2.0454080000000001
 51
90.0
  0
ARC
  5
2D3
  8
OUTLINE
  6
CONTINUOUS
 62
     3
 10
-116.919736
 20
181.75
 30
0.0
 40
0.75
 50
2.0454080000000001
 51
90.0
  0
LINE
  5
2D4
  8
OUTLINE
  6
CONTINUOUS
 62
     3
 10
-116.1702139999999
 20
181.776769
 30
0.0
 11
-115.9460439999999
 21
175.5
 31
0.0
  0
LINE
  5
2D5
  8
OUTLINE
  6
CONTINUOUS
 62
     3
 10
-116.982607
 20
182.5
 30
0.0
 11
-116.919736
 21
182.5
 31
0.0
  0
LINE
  5
2D6
  8
OUTLINE
  6
CONTINUOUS
 62
     3
 10
-115.9460439999999
 20
175.5
 30
0.0
 11
-124.52834900000001
 21
175.5
 31
0.0
  0
LINE
  5
2D7
  8
OUTLINE
  6
CONTINUOUS
 62
     3
 10
-151.94568000000001
 20
175.5
 30
0.0
 11
-155.0090439999999
 21
0.0
 31
0.0
  0
LINE
  5
2D8
  8
DETAIL
  6
CONTINUOUS
 62
     5
 10
149.36930899999999
 20
173.72459599999991
 30
0.0
 11
115.0322129999999
 21
173.12523999999991
 31
0.0
  0
LINE
  5
2D9
  8
DETAIL
  6
CONTINUOUS
 62
     5
 10
188.0
 20
170.0
 30
0.0
 11
187.92323999999999
 21
174.397558
 31
0.0
  0
LINE
  5
2DA
  8
DETAIL
  6
CONTINUOUS
 62
     5
 10
187.92323999999999
 20
174.397558
 30
0.0
 11
156.7788929999999
 21
173.85393099999999
 31
0.0
  0
ARC
  5
2DB
  8
DETAIL
  6
CONTINUOUS
 62
     5
 10
181.21238099999991
 20
181.81075299999989
 30
0.0
 40
0.9037449999999999
 50
1.0
 51
91.0
  0
LINE
  5
2DC
  8
DETAIL
  6
CONTINUOUS
 62
     5
 10
182.1943259999999
 20
177.33860699999991
 30
0.0
 11
182.1159889999999
 21
181.826526
 31
0.0
  0
LINE
  5
2DD
  8
DETAIL
  6
CONTINUOUS
 62
     5
 10
182.1943259999999
 20
177.33860699999991
 30
0.0
 11
158.700524
 21
176.9285209999999
 31
0.0
  0
LINE
  5
2DE
  8
DETAIL
  6
CONTINUOUS
 62
     5
 10
180.439685
 20
174.29503600000001
 30
0.0
 11
180.38711000000001
 21
177.307062
 31
0.0
  0
LINE
  5
2DF
  8
DETAIL
  6
CONTINUOUS
 62
     5
 10
160.560315
 20
173.9480409999999
 30
0.0
 11
160.5077389999999
 21
176.9600669999999
 31
0.0
  0
LINE
  5
2E0
  8
DETAIL
  6
CONTINUOUS
 62
     5
 10
181.196609
 20
182.714361
 30
0.0
 11
159.51002199999991
 21
182.3358199999999
 31
0.0
  0
ARC
  5
2E1
  8
DETAIL
  6
CONTINUOUS
 62
     5
 10
158.39321000000001
 20
167.67544499999991
 30
0.0
 40
1.8074909999999991
 50
91.0
 51
181.0
  0
LINE
  5
2E2
  8
DETAIL
  6
CONTINUOUS
 62
     5
 10
181.61247800000001
 20
158.88923600000001
 30
0.0
 11
159.92589099999981
 21
158.510695
 31
0.0
  0
ARC
  5
2E3
  8
DETAIL
  6
CONTINUOUS
 62
     5
 10
159.9101189999999
 20
159.4143029999999
 30
0.0
 40
0.9037449999999999
 50
181.0
 51
271.0
  0
ARC
  5
2E4
  8
DETAIL
  6
CONTINUOUS
 62
     5
 10
181.59670499999999
 20
159.792844
 30
0.0
 40
0.9037449999999999
 50
271.0
 51
1.0
  0
LINE
  5
2E5
  8
DETAIL
  6
CONTINUOUS
 62
     5
 10
182.32366099999999
 20
169.929024
 30
0.0
 11
158.82985899999991
 21
169.51893799999991
 31
0.0
  0
LINE
  5
2E6
  8
DETAIL
  6
CONTINUOUS
 62
     5
 10
182.50031299999989
 20
159.808617
 30
0.0
 11
182.32366099999999
 21
169.929024
 31
0.0
  0
LINE
  5
2E7
  8
DETAIL
  6
CONTINUOUS
 62
     5
 10
159.00651099999999
 20
159.39853099999999
 30
0.0
 11
158.82985899999991
 21
169.51893799999991
 31
0.0
  0
LINE
  5
2E8
  8
DETAIL
  6
CONTINUOUS
 62
     5
 10
188.0
 20
170.0
 30
0.0
 11
158.3616649999999
 21
169.48266099999981
 31
0.0
  0
ARC
  5
2E9
  8
DETAIL
  6
CONTINUOUS
 62
     5
 10
156.86090999999999
 20
169.15517099999991
 30
0.0
 40
4.699475999999998
 50
91.0
 51
181.0
  0
LINE
  5
2EA
  8
DETAIL
  6
CONTINUOUS
 62
     5
 10
152.15689199999991
 20
169.37435600000001
 30
0.0
 11
115.1018819999999
 21
168.72755900000001
 31
0.0
  0
LINE
  5
2EB
  8
DETAIL
  6
CONTINUOUS
 62
     5
 10
149.44606799999991
 20
169.3270389999999
 30
0.0
 11
149.36930899999999
 21
173.72459599999991
 31
0.0
  0
LINE
  5
2EC
  8
DETAIL
  6
CONTINUOUS
 62
     5
 10
117.74298999999991
 20
2.0136769999999991
 30
0.0
 11
115.0322129999999
 21
173.12523999999991
 31
0.0
  0
ARC
  5
2ED
  8
DETAIL
  6
CONTINUOUS
 62
     5
 10
159.52481399999991
 20
181.43219500000001
 30
0.0
 40
0.9037449999999999
 50
91.0
 51
181.0
  0
LINE
  5
2EE
  8
DETAIL
  6
CONTINUOUS
 62
     5
 10
158.69954299999981
 20
176.92850399999989
 30
0.0
 11
158.621206
 21
181.41642300000001
 31
0.0
  0
LINE
  5
2EF
  8
DETAIL
  6
CONTINUOUS
 62
     5
 10
159.235784
 20
0.026288
 30
0.0
 11
156.5857189999999
 21
167.67544499999991
 31
0.0
  0
LINE
  5
2F0
  8
DETAIL
  6
CONTINUOUS
 62
     5
 10
-156.66510299999999
 20
162.65342899999999
 30
0.0
 11
-156.5857189999999
 21
167.67544499999991
 31
0.0
  0
LINE
  5
2F1
  8
SIZE
  6
CONTINUOUS
 62
    30
 10
-265.00904400000002
 20
175.090925
 30
0.0
 11
-265.00904400000002
 21
823.16065199999969
 31
0.0
  0
LINE
  5
2F2
  8
SIZE
  6
CONTINUOUS
 62
    30
 10
-195.0090439999999
 20
182.0001169999999
 30
0.0
 11
-195.0090439999999
 21
823.16065199999969
 31
0.0
  0
LINE
  5
2F3
  8
SIZE
  6
CONTINUOUS
 62
    30
 10
-183.00904399999999
 20
803.16065199999957
 30
0.0
 11
-171.0090439999999
 21
803.16065199999957
 31
0.0
  0
LINE
  5
2F4
  8
SIZE
  6
CONTINUOUS
 62
    30
 10
-277.00904400000002
 20
803.16065199999957
 30
0.0
 11
-432.266187
 21
803.16065199999957
 31
0.0
  0
LINE
  5
2F5
  8
SIZE
  6
CONTINUOUS
 62
    30
 10
-195.0090439999999
 20
803.16065199999957
 30
0.0
 11
-265.00904400000002
 21
803.16065199999957
 31
0.0
  0
CIRCLE
  5
2F6
  8
SIZE
  6
CONTINUOUS
 62
    30
 10
-195.0090439999999
 20
803.16065199999957
 30
0.0
 40
6.0
  0
LINE
  5
2F7
  8
SIZE
  6
CONTINUOUS
 62
    30
 10
-195.0090439999999
 20
803.16065199999957
 30
0.0
 11
-183.00904399999999
 21
803.16065199999957
 31
0.0
  0
CIRCLE
  5
2F8
  8
SIZE
  6
CONTINUOUS
 62
    30
 10
-265.00904400000002
 20
803.16065199999957
 30
0.0
 40
6.0
  0
LINE
  5
2F9
  8
SIZE
  6
CONTINUOUS
 62
    30
 10
-265.00904400000002
 20
803.16065199999957
 30
0.0
 11
-277.00904400000002
 21
803.16065199999957
 31
0.0
  0
TEXT
  5
2FA
  8
SIZE
  6
CONTINUOUS
 62
    30
 10
-407.26618642857142
 20
828.16065199999957
 30
0.0
 40
64.0
  1
70
 41
0.9
 72
     1
 11
-360.63761499999998
 21
828.16065199999957
 31
0.0
  0
POINT
  5
2FB
  8
DEFPOINTS
  6
CONTINUOUS
 62
    30
 10
-265.00904400000002
 20
155.090925
 30
0.0
  0
POINT
  5
2FC
  8
DEFPOINTS
  6
CONTINUOUS
 62
    30
 10
-195.0090439999999
 20
162.0001169999999
 30
0.0
  0
POINT
  5
2FD
  8
DEFPOINTS
  6
CONTINUOUS
 62
    30
 10
-195.0090439999999
 20
803.16065199999957
 30
0.0
  0
LINE
  5
2FE
  8
DETAIL
  6
CONTINUOUS
 62
     5
 10
0.0
 20
51.810985000000002
 30
0.0
 11
47.996305
 21
51.810985000000002
 31
0.0
  0
ARC
  5
2FF
  8
DETAIL
  6
CONTINUOUS
 62
     5
 10
47.996305
 20
68.809677000000008
 30
0.0
 40
16.998691000000001
 50
270.0
 51
0.0
  0
LINE
  5
300
  8
DETAIL
  6
CONTINUOUS
 62
     5
 10
0.0
 20
162.84613200000001
 30
0.0
 11
48.77622800000001
 21
162.84613200000001
 31
0.0
  0
LINE
  5
301
  8
DETAIL
  6
CONTINUOUS
 62
     5
 10
64.994996999999998
 20
68.809677000000008
 30
0.0
 11
64.994996999999998
 21
145.865342
 31
0.0
  0
ARC
  5
302
  8
DETAIL
  6
CONTINUOUS
 62
     5
 10
47.996305
 20
145.865342
 30
0.0
 40
16.998691000000001
 50
0.0
 51
90.0
  0
LINE
  5
303
  8
DETAIL
  6
CONTINUOUS
 62
     5
 10
0.0
 20
51.810985000000002
 30
0.0
 11
-47.996305
 21
51.810985000000002
 31
0.0
  0
ARC
  5
304
  8
DETAIL
  6
CONTINUOUS
 62
     5
 10
-47.996305
 20
68.809677000000008
 30
0.0
 40
16.998691000000001
 50
180.0
 51
270.0
  0
LINE
  5
305
  8
DETAIL
  6
CONTINUOUS
 62
     5
 10
0.0
 20
162.84613200000001
 30
0.0
 11
-48.77622800000001
 21
162.84613200000001
 31
0.0
  0
ARC
  5
306
  8
DETAIL
  6
CONTINUOUS
 62
     5
 10
-47.996305
 20
145.865342
 30
0.0
 40
16.998691000000001
 50
90.0
 51
180.0
  0
LINE
  5
307
  8
DETAIL
  6
CONTINUOUS
 62
     5
 10
-64.994996999999998
 20
68.809677000000008
 30
0.0
 11
-64.994996999999998
 21
145.865342
 31
0.0
  0
LINE
  5
308
  8
DETAIL
  6
CONTINUOUS
 62
     5
 10
55.101737999999997
 20
161.307762
 30
0.0
 11
55.161290000000001
 21
165.0
 31
0.0
  0
ENDSEC
  0
EOF
