  0
SECTION
  2
HEADER
  9
$ACADVER
  1
AC1009
  9
$INSBASE
 10
0.0
 20
0.0
 30
0.0
  9
$EXTMIN
 10
-1107.586653923601
 20
-1103.576649217373
 30
-0.0000000698494069
  9
$EXTMAX
 10
1219.523632397784
 20
703.03345541822819
 30
0.0000000465733773
  9
$LIMMIN
 10
-2970.0
 20
-2100.0
  9
$LIMMAX
 10
2970.0
 20
2100.0
  9
$ORTHOMODE
 70
     1
  9
$REGENMODE
 70
     1
  9
$FILLMODE
 70
     1
  9
$QTEXTMODE
 70
     0
  9
$MIRRTEXT
 70
     0
  9
$DRAGMODE
 70
     2
  9
$LTSCALE
 40
20.0
  9
$OSMODE
 70
    32
  9
$ATTMODE
 70
     1
  9
$TEXTSIZE
 40
64.0
  9
$TRACEWID
 40
0.05
  9
$TEXTSTYLE
  7
STANDARD
  9
$CLAYER
  8
ETC
  9
$CELTYPE
  6
CONTINUOUS
  9
$CECOLOR
 62
     3
  9
$DIMSCALE
 40
1.0
  9
$DIMASZ
 40
12.0
  9
$DIMEXO
 40
20.0
  9
$DIMDLI
 40
200.0
  9
$DIMRND
 40
0.0
  9
$DIMDLE
 40
0.0
  9
$DIMEXE
 40
20.0
  9
$DIMTP
 40
0.0
  9
$DIMTM
 40
0.0
  9
$DIMTXT
 40
64.0
  9
$DIMCEN
 40
0.09
  9
$DIMTSZ
 40
0.0
  9
$DIMTOL
 70
     0
  9
$DIMLIM
 70
     0
  9
$DIMTIH
 70
     0
  9
$DIMTOH
 70
     0
  9
$DIMSE1
 70
     0
  9
$DIMSE2
 70
     0
  9
$DIMTAD
 70
     1
  9
$DIMZIN
 70
     8
  9
$DIMBLK
  1
DOT1
  9
$DIMASO
 70
     1
  9
$DIMSHO
 70
     0
  9
$DIMPOST
  1

  9
$DIMAPOST
  1

  9
$DIMALT
 70
     0
  9
$DIMALTD
 70
     2
  9
$DIMALTF
 40
25.399999999999999
  9
$DIMLFAC
 40
1.0
  9
$DIMTOFL
 70
     1
  9
$DIMTVP
 40
0.0
  9
$DIMTIX
 70
     1
  9
$DIMSOXD
 70
     0
  9
$DIMSAH
 70
     1
  9
$DIMBLK1
  1
ORIGIN
  9
$DIMBLK2
  1
ORIGIN
  9
$DIMSTYLE
  2
STANDARD
  9
$DIMCLRD
 70
     7
  9
$DIMCLRE
 70
     7
  9
$DIMCLRT
 70
     7
  9
$DIMTFAC
 40
1.0
  9
$DIMGAP
 40
25.0
  9
$LUNITS
 70
     2
  9
$LUPREC
 70
     4
  9
$SKETCHINC
 40
0.1
  9
$FILLETRAD
 40
5.0
  9
$AUNITS
 70
     1
  9
$AUPREC
 70
     3
  9
$MENU
  1
ACAD
  9
$ELEVATION
 40
0.0
  9
$PELEVATION
 40
0.0
  9
$THICKNESS
 40
50.0
  9
$LIMCHECK
 70
     0
  9
$BLIPMODE
 70
     0
  9
$CHAMFERA
 40
0.0
  9
$CHAMFERB
 40
0.0
  9
$SKPOLY
 70
     0
  9
$TDCREATE
 40
2453412.6369513432
  9
$TDUPDATE
 40
2454728.5385486921
  9
$TDINDWG
 40
0.0921485995
  9
$TDUSRTIMER
 40
0.0921484259
  9
$USRTIMER
 70
     1
  9
$ANGBASE
 50
0.0
  9
$ANGDIR
 70
     0
  9
$PDMODE
 70
     3
  9
$PDSIZE
 40
-2.0
  9
$PLINEWID
 40
0.0
  9
$COORDS
 70
     1
  9
$SPLFRAME
 70
     0
  9
$SPLINETYPE
 70
     6
  9
$SPLINESEGS
 70
     8
  9
$ATTDIA
 70
     0
  9
$ATTREQ
 70
     1
  9
$HANDLING
 70
     1
  9
$HANDSEED
  5
2B5
  9
$SURFTAB1
 70
     6
  9
$SURFTAB2
 70
     6
  9
$SURFTYPE
 70
     6
  9
$SURFU
 70
     6
  9
$SURFV
 70
     6
  9
$UCSNAME
  2

  9
$UCSORG
 10
0.0
 20
0.0
 30
0.0
  9
$UCSXDIR
 10
1.0
 20
0.0
 30
0.0
  9
$UCSYDIR
 10
0.0
 20
1.0
 30
0.0
  9
$PUCSNAME
  2

  9
$PUCSORG
 10
0.0
 20
0.0
 30
0.0
  9
$PUCSXDIR
 10
1.0
 20
0.0
 30
0.0
  9
$PUCSYDIR
 10
0.0
 20
1.0
 30
0.0
  9
$USERI1
 70
     0
  9
$USERI2
 70
     0
  9
$USERI3
 70
     0
  9
$USERI4
 70
     0
  9
$USERI5
 70
     0
  9
$USERR1
 40
20.0
  9
$USERR2
 40
0.0
  9
$USERR3
 40
0.0
  9
$USERR4
 40
0.0
  9
$USERR5
 40
0.0
  9
$WORLDVIEW
 70
     1
  9
$SHADEDGE
 70
     3
  9
$SHADEDIF
 70
    70
  9
$TILEMODE
 70
     1
  9
$MAXACTVP
 70
    48
  9
$PLIMCHECK
 70
     0
  9
$PEXTMIN
 10
-1.0000000000000000E+020
 20
-1.0000000000000000E+020
 30
-1.0000000000000000E+020
  9
$PEXTMAX
 10
1.0000000000000000E+020
 20
1.0000000000000000E+020
 30
1.0000000000000000E+020
  9
$PLIMMIN
 10
0.0
 20
0.0
  9
$PLIMMAX
 10
12.0
 20
9.0
  9
$UNITMODE
 70
     0
  9
$VISRETAIN
 70
     0
  9
$PLINEGEN
 70
     0
  9
$PSLTSCALE
 70
     0
  0
ENDSEC
  0
SECTION
  2
TABLES
  0
TABLE
  2
VPORT
 70
     1
  0
VPORT
  2
*ACTIVE
 70
     0
 10
0.0
 20
0.0
 11
1.0
 21
1.0
 12
55.968489237091433
 22
-200.27159689957259
 13
0.0
 23
0.0
 14
1.0
 24
1.0
 15
0.0
 25
0.0
 16
0.0
 26
0.0
 36
1.0
 17
0.0
 27
0.0
 37
0.0
 40
1821.623485006535
 41
1.7517337031900131
 42
50.0
 43
0.0
 44
0.0
 50
0.0
 51
0.0
 71
     0
 72
  1000
 73
     1
 74
     0
 75
     0
 76
     0
 77
     0
 78
     0
  0
ENDTAB
  0
TABLE
  2
LTYPE
 70
     4
  0
LTYPE
  2
CONTINUOUS
 70
     0
  3
実線
 72
    65
 73
     0
 40
0.0
  0
LTYPE
  2
DASHDOT
 70
     0
  3
____ _ ____ _ ____ _ ____ _ ____ _ ____ _ ____
 72
    65
 73
     4
 40
5.5
 49
4.0
 49
-0.6
 49
0.3
 49
-0.6
  0
LTYPE
  2
DASHED
 70
     0
  3
-- -- -- -- -- -- -- -- -- -- -- -- -- -- --
 72
    65
 73
     2
 40
0.75
 49
0.5
 49
-0.25
  0
ENDTAB
  0
TABLE
  2
LAYER
 70
    12
  0
LAYER
  2
0
 70
     0
 62
     7
  6
CONTINUOUS
  0
LAYER
  2
OUTLINE
 70
     0
 62
     3
  6
CONTINUOUS
  0
LAYER
  2
BASIS
 70
     0
 62
     6
  6
DASHDOT
  0
LAYER
  2
DETAIL
 70
     0
 62
     5
  6
CONTINUOUS
  0
LAYER
  2
SIZE
 70
     0
 62
    30
  6
CONTINUOUS
  0
LAYER
  2
ARRANGE
 70
     0
 62
     1
  6
CONTINUOUS
  0
LAYER
  2
DEFPOINTS
 70
     0
 62
     7
  6
CONTINUOUS
  0
LAYER
  2
ETC
 70
     0
 62
    61
  6
CONTINUOUS
  0
LAYER
  2
FIX
 70
     0
 62
    11
  6
CONTINUOUS
  0
LAYER
  2
NOTE
 70
     0
 62
     4
  6
CONTINUOUS
  0
LAYER
  2
SERVICESPACE
 70
     0
 62
     2
  6
DASHDOT
  0
LAYER
  2
SYMBOLLINE
 70
     0
 62
    15
  6
CONTINUOUS
  0
ENDTAB
  0
TABLE
  2
STYLE
 70
     2
  0
STYLE
  2
STANDARD
 70
     0
 40
64.0
 41
0.9
 50
0.0
 71
     0
 42
64.0
  3
SIMPLEX.shx
  4
BIGFONT.shx
  0
STYLE
  2
ANNOTATIVE
 70
     0
 40
0.0
 41
1.0
 50
0.0
 71
     0
 42
0.2
  3
txt
  4

  0
ENDTAB
  0
TABLE
  2
VIEW
 70
     1
  0
VIEW
  2
ALL
 70
     0
 40
4282.6198079999986
 10
0.0
 20
41.309903999999989
 41
5940.0
 11
0.0
 21
0.0
 31
1.0
 12
0.0
 22
0.0
 32
0.0
 42
50.0
 43
0.0
 44
0.0
 50
0.0
 71
     0
  0
ENDTAB
  0
TABLE
  2
UCS
 70
     0
  0
ENDTAB
  0
TABLE
  2
APPID
 70
     5
  0
APPID
  2
ACAD
 70
     0
  0
APPID
  2
ACADANNOTATIVE
 70
     0
  0
APPID
  2
ACAD_MLEADERVER
 70
     0
  0
APPID
  2
AUTOCAD_POSTSCRIPT_FIGURE
 70
     0
  0
APPID
  2
ACAD_EXEMPT_FROM_CAD_STANDARDS
 70
     0
  0
ENDTAB
  0
TABLE
  2
DIMSTYLE
 70
     2
  0
DIMSTYLE
  2
STANDARD
 70
     0
  3

  4

  5

  6

  7

 40
1.0
 41
0.18
 42
0.0625
 43
0.38
 44
0.18
 45
0.0
 46
0.0
 47
0.0
 48
0.0
140
0.18
141
0.09
142
0.0
143
25.399999999999999
144
1.0
145
0.0
146
1.0
147
0.09
 71
     0
 72
     0
 73
     1
 74
     1
 75
     0
 76
     0
 77
     0
 78
     0
170
     0
171
     2
172
     0
173
     0
174
     0
175
     0
176
     7
177
     7
178
     7
  0
DIMSTYLE
  2
ANNOTATIVE
 70
     0
  3

  4

  5

  6

  7

 40
1.0
 41
0.18
 42
0.0625
 43
0.38
 44
0.18
 45
0.0
 46
0.0
 47
0.0
 48
0.0
140
0.18
141
0.09
142
0.0
143
25.399999999999999
144
1.0
145
0.0
146
1.0
147
0.09
 71
     0
 72
     0
 73
     1
 74
     1
 75
     0
 76
     0
 77
     0
 78
     0
170
     0
171
     2
172
     0
173
     0
174
     0
175
     0
176
     0
177
     0
178
     0
  0
ENDTAB
  0
ENDSEC
  0
SECTION
  2
BLOCKS
  0
BLOCK
  8
0
  2
$MODEL_SPACE
 70
     0
 10
0.0
 20
0.0
 30
0.0
  3
$MODEL_SPACE
  1

  0
ENDBLK
  5
76
  8
0
  0
BLOCK
 67
     1
  8
0
  2
$PAPER_SPACE
 70
     0
 10
0.0
 20
0.0
 30
0.0
  3
$PAPER_SPACE
  1

  0
ENDBLK
  5
72
 67
     1
  8
0
  0
BLOCK
  8
0
  2
DOT1
 70
     0
 10
0.0
 20
0.0
 30
0.0
  3
DOT1
  1

  0
CIRCLE
  5
8D
  8
SIZE
  6
CONTINUOUS
 62
     7
 10
0.0
 20
0.0
 30
0.0
 40
3.0
  0
ENDBLK
  5
8E
  8
0
  0
BLOCK
  8
0
  2
_ORIGIN
 70
     0
 10
0.0
 20
0.0
 30
0.0
  3
_ORIGIN
  1

  0
CIRCLE
  5
91
  8
0
  6
CONTINUOUS
 62
     7
 10
0.0
 20
0.0
 30
0.0
 40
0.5
  0
LINE
  5
92
  8
0
  6
CONTINUOUS
 62
     7
 10
0.0
 20
0.0
 30
0.0
 11
-1.0
 21
0.0
 31
0.0
  0
ENDBLK
  5
93
  8
0
  0
ENDSEC
  0
SECTION
  2
ENTITIES
  0
TEXT
  5
94
  8
ETC
  6
CONTINUOUS
 62
    61
 10
600.88965499999995
 20
623.40253600000005
 30
0.0
 40
40.0
  1
VD-18ZL8_1
 41
0.9
  0
TEXT
  5
95
  8
ETC
  6
CONTINUOUS
 62
    61
 10
606.84070799999995
 20
551.90146200000004
 30
0.0
 40
40.0
  1
換気扇
 41
0.9
  0
LINE
  5
96
  8
NOTE
  6
CONTINUOUS
 62
     4
 10
-152.0
 20
100.0
 30
0.0
 11
-346.90177299999999
 21
315.07503000000003
 31
0.0
  0
LINE
  5
97
  8
NOTE
  6
CONTINUOUS
 62
     4
 10
111.5
 20
-99.500000000000014
 30
0.0
 11
209.488416
 21
-280.71899999999999
 31
0.0
  0
LINE
  5
98
  8
NOTE
  6
CONTINUOUS
 62
     4
 10
209.488416
 20
-280.71899999999999
 30
0.0
 11
325.36949900000002
 21
-280.71899999999999
 31
0.0
  0
TEXT
  5
99
  8
NOTE
  6
CONTINUOUS
 62
     4
 10
217.649899
 20
-253.418924
 30
0.0
 40
64.0
  1
EL
 41
0.9
  0
CIRCLE
  5
9A
  8
DETAIL
  6
CONTINUOUS
 62
     5
 10
111.5
 20
-99.500000000000014
 30
0.0
 40
9.5
  0
LINE
  5
9B
  8
NOTE
  6
CONTINUOUS
 62
     4
 10
-186.0103
 20
121.05467899999999
 30
0.0
 11
-152.0
 21
100.0
 31
0.0
  0
LINE
  5
9C
  8
NOTE
  6
CONTINUOUS
 62
     4
 10
-152.0
 20
100.0
 30
0.0
 11
-170.926444
 21
135.239037
 31
0.0
  0
LINE
  5
9D
  8
NOTE
  6
CONTINUOUS
 62
     4
 10
146.49238799999989
 20
170.66230899999999
 30
0.0
 11
115.0
 21
146.0
 31
0.0
  0
LINE
  5
9E
  8
NOTE
  6
CONTINUOUS
 62
     4
 10
115.0
 20
146.0
 30
0.0
 11
154.60436299999989
 21
151.61199199999999
 31
0.0
  0
LINE
  5
9F
  8
NOTE
  6
CONTINUOUS
 62
     4
 10
115.0
 20
146.0
 30
0.0
 11
369.92550699999998
 21
253.61132699999999
 31
0.0
  0
LINE
  5
A0
  8
NOTE
  6
CONTINUOUS
 62
     4
 10
139.346881
 20
-128.215
 30
0.0
 11
111.5
 21
-99.500000000000014
 31
0.0
  0
LINE
  5
A1
  8
NOTE
  6
CONTINUOUS
 62
     4
 10
111.5
 20
-99.500000000000014
 30
0.0
 11
121.258605
 21
-138.29136
 31
0.0
  0
LINE
  5
A2
  8
NOTE
  6
CONTINUOUS
 62
     4
 10
635.18364699999995
 20
253.61132699999999
 30
0.0
 11
369.92550699999998
 21
253.61132699999999
 31
0.0
  0
TEXT
  5
A3
  8
NOTE
  6
CONTINUOUS
 62
     4
 10
400.65912300000002
 20
280.142583
 30
0.0
 40
64.0
  1
8×φ5
 41
0.9
  0
CIRCLE
  5
A4
  8
FIX
  6
CONTINUOUS
 62
    11
 10
-146.0
 20
-115.0
 30
0.0
 40
2.5
  0
CIRCLE
  5
A5
  8
FIX
  6
CONTINUOUS
 62
    11
 10
-146.0
 20
115.0
 30
0.0
 40
2.5
  0
LINE
  5
A6
  8
NOTE
  6
CONTINUOUS
 62
     4
 10
-146.0
 20
-95.0
 30
0.0
 11
-146.0
 21
-135.0
 31
0.0
  0
LINE
  5
A7
  8
NOTE
  6
CONTINUOUS
 62
     4
 10
-126.0
 20
-115.0
 30
0.0
 11
-166.0
 21
-115.0
 31
0.0
  0
LINE
  5
A8
  8
NOTE
  6
CONTINUOUS
 62
     4
 10
-146.0
 20
135.0
 30
0.0
 11
-146.0
 21
95.0
 31
0.0
  0
LINE
  5
A9
  8
NOTE
  6
CONTINUOUS
 62
     4
 10
-126.0
 20
115.0
 30
0.0
 11
-166.0
 21
115.0
 31
0.0
  0
CIRCLE
  5
AA
  8
FIX
  6
CONTINUOUS
 62
    11
 10
146.0
 20
115.0
 30
0.0
 40
2.5
  0
LINE
  5
AB
  8
NOTE
  6
CONTINUOUS
 62
     4
 10
146.0
 20
135.0
 30
0.0
 11
146.0
 21
95.0
 31
0.0
  0
LINE
  5
AC
  8
NOTE
  6
CONTINUOUS
 62
     4
 10
126.0
 20
115.0
 30
0.0
 11
166.0
 21
115.0
 31
0.0
  0
CIRCLE
  5
AD
  8
FIX
  6
CONTINUOUS
 62
    11
 10
146.0
 20
-115.0
 30
0.0
 40
2.5
  0
LINE
  5
AE
  8
NOTE
  6
CONTINUOUS
 62
     4
 10
-115.0
 20
166.0
 30
0.0
 11
-115.0
 21
126.0
 31
0.0
  0
LINE
  5
AF
  8
NOTE
  6
CONTINUOUS
 62
     4
 10
-135.0
 20
146.0
 30
0.0
 11
-95.0
 21
146.0
 31
0.0
  0
TEXT
  5
B0
  8
NOTE
  6
CONTINUOUS
 62
     4
 10
-107.637322
 20
-369.64950899999991
 30
0.0
 40
64.0
  1
EA
 41
0.9
  0
CIRCLE
  5
B1
  8
FIX
  6
CONTINUOUS
 62
    11
 10
152.0
 20
-100.0
 30
0.0
 40
7.5
  0
CIRCLE
  5
B2
  8
FIX
  6
CONTINUOUS
 62
    11
 10
-152.0
 20
-100.0
 30
0.0
 40
7.5
  0
CIRCLE
  5
B3
  8
FIX
  6
CONTINUOUS
 62
    11
 10
152.0
 20
100.0
 30
0.0
 40
7.5
  0
CIRCLE
  5
B4
  8
FIX
  6
CONTINUOUS
 62
    11
 10
-152.0
 20
100.0
 30
0.0
 40
7.5
  0
LINE
  5
B5
  8
DETAIL
  6
CONTINUOUS
 62
     5
 10
-156.0
 20
-156.0
 30
0.0
 11
-156.0
 21
-138.0
 31
0.0
  0
LINE
  5
B6
  8
DETAIL
  6
CONTINUOUS
 62
     5
 10
-156.0
 20
-70.0
 30
0.0
 11
-156.0
 21
70.0
 31
0.0
  0
LINE
  5
B7
  8
DETAIL
  6
CONTINUOUS
 62
     5
 10
-156.0
 20
130.0
 30
0.0
 11
-156.0
 21
156.0
 31
0.0
  0
LINE
  5
B8
  8
DETAIL
  6
CONTINUOUS
 62
     5
 10
-156.0
 20
156.0
 30
0.0
 11
156.0
 21
156.0
 31
0.0
  0
LINE
  5
B9
  8
DETAIL
  6
CONTINUOUS
 62
     5
 10
-167.25
 20
-125.0
 30
0.0
 11
-167.25
 21
-75.0
 31
0.0
  0
LINE
  5
BA
  8
DETAIL
  6
CONTINUOUS
 62
     5
 10
-136.75
 20
-130.0
 30
0.0
 11
-136.75
 21
-70.0
 31
0.0
  0
LINE
  5
BB
  8
DETAIL
  6
CONTINUOUS
 62
     5
 10
-159.5
 20
-103.5
 30
0.0
 11
-159.5
 21
-96.5
 31
0.0
  0
LINE
  5
BC
  8
DETAIL
  6
CONTINUOUS
 62
     5
 10
-144.5
 20
-103.5
 30
0.0
 11
-144.5
 21
-96.5
 31
0.0
  0
ARC
  5
BD
  8
DETAIL
  6
CONTINUOUS
 62
     5
 10
-152.0
 20
-96.5
 30
0.0
 40
7.5
 50
0.0
 51
180.0
  0
ARC
  5
BE
  8
DETAIL
  6
CONTINUOUS
 62
     5
 10
-152.0
 20
-103.5
 30
0.0
 40
7.5
 50
180.0
 51
0.0
  0
LINE
  5
BF
  8
NOTE
  6
CONTINUOUS
 62
     4
 10
-152.0
 20
-120.0
 30
0.0
 11
-152.0
 21
-80.0
 31
0.0
  0
LINE
  5
C0
  8
NOTE
  6
CONTINUOUS
 62
     4
 10
-132.0
 20
-100.0
 30
0.0
 11
-172.0
 21
-100.0
 31
0.0
  0
LINE
  5
C1
  8
DETAIL
  6
CONTINUOUS
 62
     5
 10
-136.75
 20
-130.0
 30
0.0
 11
-162.25
 21
-130.0
 31
0.0
  0
LINE
  5
C2
  8
DETAIL
  6
CONTINUOUS
 62
     5
 10
-136.75
 20
-70.0
 30
0.0
 11
-162.25
 21
-70.0
 31
0.0
  0
LINE
  5
C3
  8
DETAIL
  6
CONTINUOUS
 62
     5
 10
-136.75
 20
-130.0
 30
0.0
 11
-135.0
 21
-130.0
 31
0.0
  0
LINE
  5
C4
  8
DETAIL
  6
CONTINUOUS
 62
     5
 10
-136.75
 20
-70.0
 30
0.0
 11
-135.0
 21
-70.0
 31
0.0
  0
LINE
  5
C5
  8
DETAIL
  6
CONTINUOUS
 62
     5
 10
136.75
 20
-70.0
 30
0.0
 11
135.0
 21
-70.0
 31
0.0
  0
LINE
  5
C6
  8
DETAIL
  6
CONTINUOUS
 62
     5
 10
136.75
 20
-130.0
 30
0.0
 11
135.0
 21
-130.0
 31
0.0
  0
LINE
  5
C7
  8
DETAIL
  6
CONTINUOUS
 62
     5
 10
136.75
 20
-70.0
 30
0.0
 11
162.25
 21
-70.0
 31
0.0
  0
LINE
  5
C8
  8
DETAIL
  6
CONTINUOUS
 62
     5
 10
136.75
 20
-130.0
 30
0.0
 11
162.25
 21
-130.0
 31
0.0
  0
LINE
  5
C9
  8
NOTE
  6
CONTINUOUS
 62
     4
 10
132.0
 20
-100.0
 30
0.0
 11
172.0
 21
-100.0
 31
0.0
  0
LINE
  5
CA
  8
NOTE
  6
CONTINUOUS
 62
     4
 10
152.0
 20
-120.0
 30
0.0
 11
152.0
 21
-80.0
 31
0.0
  0
ARC
  5
CB
  8
DETAIL
  6
CONTINUOUS
 62
     5
 10
152.0
 20
-103.5
 30
0.0
 40
7.5
 50
180.0
 51
0.0
  0
ARC
  5
CC
  8
DETAIL
  6
CONTINUOUS
 62
     5
 10
152.0
 20
-96.5
 30
0.0
 40
7.5
 50
0.0
 51
180.0
  0
LINE
  5
CD
  8
DETAIL
  6
CONTINUOUS
 62
     5
 10
144.5
 20
-103.5
 30
0.0
 11
144.5
 21
-96.5
 31
0.0
  0
LINE
  5
CE
  8
DETAIL
  6
CONTINUOUS
 62
     5
 10
159.5
 20
-103.5
 30
0.0
 11
159.5
 21
-96.5
 31
0.0
  0
LINE
  5
CF
  8
DETAIL
  6
CONTINUOUS
 62
     5
 10
136.75
 20
-130.0
 30
0.0
 11
136.75
 21
-70.0
 31
0.0
  0
LINE
  5
D0
  8
DETAIL
  6
CONTINUOUS
 62
     5
 10
166.75
 20
-125.0
 30
0.0
 11
166.75
 21
-75.0
 31
0.0
  0
LINE
  5
D1
  8
DETAIL
  6
CONTINUOUS
 62
     5
 10
166.75
 20
125.0
 30
0.0
 11
166.75
 21
75.0
 31
0.0
  0
LINE
  5
D2
  8
DETAIL
  6
CONTINUOUS
 62
     5
 10
136.75
 20
130.0
 30
0.0
 11
136.75
 21
70.0
 31
0.0
  0
LINE
  5
D3
  8
DETAIL
  6
CONTINUOUS
 62
     5
 10
159.5
 20
103.5
 30
0.0
 11
159.5
 21
96.5
 31
0.0
  0
LINE
  5
D4
  8
DETAIL
  6
CONTINUOUS
 62
     5
 10
144.5
 20
103.5
 30
0.0
 11
144.5
 21
96.5
 31
0.0
  0
ARC
  5
D5
  8
DETAIL
  6
CONTINUOUS
 62
     5
 10
152.0
 20
96.5
 30
0.0
 40
7.5
 50
180.0
 51
0.0
  0
ARC
  5
D6
  8
DETAIL
  6
CONTINUOUS
 62
     5
 10
152.0
 20
103.5
 30
0.0
 40
7.5
 50
0.0
 51
180.0
  0
LINE
  5
D7
  8
NOTE
  6
CONTINUOUS
 62
     4
 10
152.0
 20
120.0
 30
0.0
 11
152.0
 21
80.0
 31
0.0
  0
LINE
  5
D8
  8
NOTE
  6
CONTINUOUS
 62
     4
 10
132.0
 20
100.0
 30
0.0
 11
172.0
 21
100.0
 31
0.0
  0
LINE
  5
D9
  8
DETAIL
  6
CONTINUOUS
 62
     5
 10
136.75
 20
130.0
 30
0.0
 11
162.25
 21
130.0
 31
0.0
  0
LINE
  5
DA
  8
DETAIL
  6
CONTINUOUS
 62
     5
 10
136.75
 20
70.0
 30
0.0
 11
162.25
 21
70.0
 31
0.0
  0
LINE
  5
DB
  8
DETAIL
  6
CONTINUOUS
 62
     5
 10
136.75
 20
130.0
 30
0.0
 11
135.0
 21
130.0
 31
0.0
  0
LINE
  5
DC
  8
DETAIL
  6
CONTINUOUS
 62
     5
 10
136.75
 20
70.0
 30
0.0
 11
135.0
 21
70.0
 31
0.0
  0
LINE
  5
DD
  8
DETAIL
  6
CONTINUOUS
 62
     5
 10
-136.75
 20
70.0
 30
0.0
 11
-135.0
 21
70.0
 31
0.0
  0
LINE
  5
DE
  8
DETAIL
  6
CONTINUOUS
 62
     5
 10
-136.75
 20
70.0
 30
0.0
 11
-162.25
 21
70.0
 31
0.0
  0
LINE
  5
DF
  8
DETAIL
  6
CONTINUOUS
 62
     5
 10
-136.75
 20
130.0
 30
0.0
 11
-162.5
 21
130.0
 31
0.0
  0
LINE
  5
E0
  8
DETAIL
  6
CONTINUOUS
 62
     5
 10
-159.0
 20
-138.0
 30
0.0
 11
25.0
 21
-138.0
 31
0.0
  0
LINE
  5
E1
  8
BASIS
  6
DASHDOT
 62
     6
 10
-67.0
 20
-299.0
 30
0.0
 11
-67.0
 21
-105.098681
 31
0.0
  0
LINE
  5
E2
  8
NOTE
  6
CONTINUOUS
 62
     4
 10
111.5
 20
-79.5
 30
0.0
 11
111.5
 21
-119.5
 31
0.0
  0
LINE
  5
E3
  8
NOTE
  6
CONTINUOUS
 62
     4
 10
91.5
 20
-99.500000000000014
 30
0.0
 11
131.5
 21
-99.500000000000014
 31
0.0
  0
LINE
  5
E4
  8
BASIS
  6
DASHDOT
 62
     6
 10
82.5
 20
1.0
 30
0.0
 11
-40.499999999999993
 21
1.0
 31
0.0
  0
LINE
  5
E5
  8
BASIS
  6
DASHDOT
 62
     6
 10
21.0
 20
-60.5
 30
0.0
 11
21.0
 21
62.5
 31
0.0
  0
LINE
  5
E6
  8
DETAIL
  6
CONTINUOUS
 62
     5
 10
-159.0
 20
-135.0
 30
0.0
 11
135.0
 21
-135.0
 31
0.0
  0
LINE
  5
E7
  8
DETAIL
  6
CONTINUOUS
 62
     5
 10
135.0
 20
135.0
 30
0.0
 11
-135.0
 21
135.0
 31
0.0
  0
LINE
  5
E8
  8
DETAIL
  6
CONTINUOUS
 62
     5
 10
135.0
 20
135.0
 30
0.0
 11
135.0
 21
-135.0
 31
0.0
  0
LINE
  5
E9
  8
DETAIL
  6
CONTINUOUS
 62
     5
 10
-135.0
 20
135.0
 30
0.0
 11
-135.0
 21
-135.0
 31
0.0
  0
LINE
  5
EA
  8
NOTE
  6
CONTINUOUS
 62
     4
 10
-132.0
 20
100.0
 30
0.0
 11
-172.0
 21
100.0
 31
0.0
  0
LINE
  5
EB
  8
NOTE
  6
CONTINUOUS
 62
     4
 10
-152.0
 20
120.0
 30
0.0
 11
-152.0
 21
80.0
 31
0.0
  0
ARC
  5
EC
  8
DETAIL
  6
CONTINUOUS
 62
     5
 10
-152.0
 20
103.5
 30
0.0
 40
7.5
 50
0.0
 51
180.0
  0
ARC
  5
ED
  8
DETAIL
  6
CONTINUOUS
 62
     5
 10
-152.0
 20
96.5
 30
0.0
 40
7.5
 50
180.0
 51
0.0
  0
LINE
  5
EE
  8
DETAIL
  6
CONTINUOUS
 62
     5
 10
-144.5
 20
103.5
 30
0.0
 11
-144.5
 21
96.5
 31
0.0
  0
LINE
  5
EF
  8
DETAIL
  6
CONTINUOUS
 62
     5
 10
-159.5
 20
103.5
 30
0.0
 11
-159.5
 21
96.5
 31
0.0
  0
LINE
  5
F0
  8
DETAIL
  6
CONTINUOUS
 62
     5
 10
-136.75
 20
130.0
 30
0.0
 11
-136.75
 21
70.0
 31
0.0
  0
TEXT
  5
F1
  8
NOTE
  6
CONTINUOUS
 62
     4
 10
1219.2836540000001
 20
-201.77045899999999
 30
0.0
 40
64.0
  1
天井埋込穴寸法
 50
90.0
 41
0.9
  0
LINE
  5
F2
  8
BASIS
  6
DASHDOT
 62
     6
 10
-205.53087600000001
 20
0.0
 30
0.0
 11
206.952673
 21
0.0
 31
0.0
  0
LINE
  5
F3
  8
BASIS
  6
DASHDOT
 62
     6
 10
0.0
 20
-205.59844899999999
 30
0.0
 11
0.0
 21
205.10679099999999
 31
0.0
  0
LINE
  5
F4
  8
DETAIL
  6
CONTINUOUS
 62
     5
 10
-159.0
 20
-138.0
 30
0.0
 11
-159.0
 21
-135.0
 31
0.0
  0
LINE
  5
F5
  8
DETAIL
  6
CONTINUOUS
 62
     5
 10
-156.0
 20
-156.0
 30
0.0
 11
-147.0
 21
-156.0
 31
0.0
  0
LINE
  5
F6
  8
DETAIL
  6
CONTINUOUS
 62
     5
 10
156.0
 20
-70.0
 30
0.0
 11
156.0
 21
70.0
 31
0.0
  0
LINE
  5
F7
  8
DETAIL
  6
CONTINUOUS
 62
     5
 10
156.0
 20
-156.0
 30
0.0
 11
156.0
 21
-130.0
 31
0.0
  0
LINE
  5
F8
  8
DETAIL
  6
CONTINUOUS
 62
     5
 10
156.0
 20
130.0
 30
0.0
 11
156.0
 21
156.0
 31
0.0
  0
LINE
  5
F9
  8
DETAIL
  6
CONTINUOUS
 62
     5
 10
-156.0
 20
-135.0
 30
0.0
 11
-156.0
 21
-130.0
 31
0.0
  0
LINE
  5
FA
  8
DETAIL
  6
CONTINUOUS
 62
     5
 10
13.0
 20
-156.0
 30
0.0
 11
156.0
 21
-156.0
 31
0.0
  0
CIRCLE
  5
FB
  8
FIX
  6
CONTINUOUS
 62
    11
 10
-115.0
 20
-146.0
 30
0.0
 40
2.5
  0
CIRCLE
  5
FC
  8
FIX
  6
CONTINUOUS
 62
    11
 10
-115.0
 20
-146.0
 30
0.0
 40
2.5
  0
LINE
  5
FD
  8
NOTE
  6
CONTINUOUS
 62
     4
 10
-115.0
 20
-166.0
 30
0.0
 11
-115.0
 21
-126.0
 31
0.0
  0
LINE
  5
FE
  8
NOTE
  6
CONTINUOUS
 62
     4
 10
-95.0
 20
-146.0
 30
0.0
 11
-135.0
 21
-146.0
 31
0.0
  0
LINE
  5
FF
  8
NOTE
  6
CONTINUOUS
 62
     4
 10
146.0
 20
-135.0
 30
0.0
 11
146.0
 21
-95.0
 31
0.0
  0
LINE
  5
100
  8
NOTE
  6
CONTINUOUS
 62
     4
 10
126.0
 20
-115.0
 30
0.0
 11
166.0
 21
-115.0
 31
0.0
  0
LINE
  5
101
  8
SIZE
  6
CONTINUOUS
 62
    30
 10
0.0
 20
-218.28569999999999
 30
0.0
 11
0.0
 21
-532.45618999999988
 31
0.0
  0
LINE
  5
102
  8
SIZE
  6
CONTINUOUS
 62
    30
 10
111.5
 20
-139.5
 30
0.0
 11
111.5
 21
-532.45618999999988
 31
0.0
  0
LINE
  5
103
  8
SIZE
  6
CONTINUOUS
 62
    30
 10
12.0
 20
-512.45618999999988
 30
0.0
 11
99.500000000000014
 21
-512.45618999999988
 31
0.0
  0
LINE
  5
104
  8
SIZE
  6
CONTINUOUS
 62
    30
 10
405.39358299999998
 20
-512.45618999999988
 30
0.0
 11
111.5
 21
-512.45618999999988
 31
0.0
  0
TEXT
  5
105
  8
SIZE
  6
CONTINUOUS
 62
    30
 10
182.9078688571428
 20
-487.45618999999999
 30
0.0
 40
64.0
  1
111.5
 41
0.9
 72
     1
 11
281.65072600000002
 21
-487.45618999999999
 31
0.0
  0
CIRCLE
  5
106
  8
SIZE
  6
CONTINUOUS
 62
    30
 10
0.0
 20
-512.45618999999988
 30
0.0
 40
6.0
  0
LINE
  5
107
  8
SIZE
  6
CONTINUOUS
 62
    30
 10
0.0
 20
-512.45618999999988
 30
0.0
 11
12.0
 21
-512.45618999999988
 31
0.0
  0
CIRCLE
  5
108
  8
SIZE
  6
CONTINUOUS
 62
    30
 10
111.5
 20
-512.45618999999988
 30
0.0
 40
6.0
  0
LINE
  5
109
  8
SIZE
  6
CONTINUOUS
 62
    30
 10
111.5
 20
-512.45618999999988
 30
0.0
 11
99.500000000000014
 21
-512.45618999999988
 31
0.0
  0
POINT
  5
10A
  8
DEFPOINTS
  6
CONTINUOUS
 62
    30
 10
0.0
 20
-198.28569999999999
 30
0.0
  0
POINT
  5
10B
  8
DEFPOINTS
  6
CONTINUOUS
 62
    30
 10
111.5
 20
-119.5
 30
0.0
  0
POINT
  5
10C
  8
DEFPOINTS
  6
CONTINUOUS
 62
    30
 10
111.5
 20
-512.45618999999988
 30
0.0
  0
CIRCLE
  5
10D
  8
DETAIL
  6
CONTINUOUS
 62
     5
 10
21.0
 20
1.0
 30
0.0
 40
41.0
  0
LINE
  5
10E
  8
SIZE
  6
CONTINUOUS
 62
    30
 10
226.952673
 20
0.0
 30
0.0
 11
555.27295500000002
 21
0.0
 31
0.0
  0
LINE
  5
10F
  8
SIZE
  6
CONTINUOUS
 62
    30
 10
102.5
 20
1.0
 30
0.0
 11
555.27295500000002
 21
1.0
 31
0.0
  0
LINE
  5
110
  8
SIZE
  6
CONTINUOUS
 62
    30
 10
535.27295500000002
 20
-12.0
 30
0.0
 11
535.27295500000002
 21
-24.0
 31
0.0
  0
LINE
  5
111
  8
SIZE
  6
CONTINUOUS
 62
    30
 10
535.27295500000002
 20
13.0
 30
0.0
 11
535.27295500000002
 21
25.0
 31
0.0
  0
TEXT
  5
112
  8
SIZE
  6
CONTINUOUS
 62
    30
 10
510.92710099999988
 20
39.708980142857143
 30
0.0
 40
64.0
  1
1
 50
90.0
 41
0.9
 72
     1
 11
510.92710099999988
 21
46.56612299999999
 31
0.0
  0
LINE
  5
113
  8
SIZE
  6
CONTINUOUS
 62
    30
 10
535.27295500000002
 20
0.0
 30
0.0
 11
535.27295500000002
 21
1.0
 31
0.0
  0
LINE
  5
114
  8
SIZE
  6
CONTINUOUS
 62
    30
 10
535.27295500000002
 20
0.0
 30
0.0
 11
535.27295500000002
 21
1.0
 31
0.0
  0
CIRCLE
  5
115
  8
SIZE
  6
CONTINUOUS
 62
    30
 10
535.27295500000002
 20
0.0
 30
0.0
 40
6.0
  0
LINE
  5
116
  8
SIZE
  6
CONTINUOUS
 62
    30
 10
535.27295500000002
 20
0.0
 30
0.0
 11
535.27295500000002
 21
-12.0
 31
0.0
  0
CIRCLE
  5
117
  8
SIZE
  6
CONTINUOUS
 62
    30
 10
535.27295500000002
 20
1.0
 30
0.0
 40
6.0
  0
LINE
  5
118
  8
SIZE
  6
CONTINUOUS
 62
    30
 10
535.27295500000002
 20
1.0
 30
0.0
 11
535.27295500000002
 21
13.0
 31
0.0
  0
POINT
  5
119
  8
DEFPOINTS
  6
CONTINUOUS
 62
    30
 10
206.952673
 20
0.0
 30
0.0
  0
POINT
  5
11A
  8
DEFPOINTS
  6
CONTINUOUS
 62
    30
 10
82.5
 20
1.0
 30
0.0
  0
POINT
  5
11B
  8
DEFPOINTS
  6
CONTINUOUS
 62
    30
 10
535.27295500000002
 20
1.0
 30
0.0
  0
LINE
  5
11C
  8
SIZE
  6
CONTINUOUS
 62
    30
 10
226.952673
 20
0.0
 30
0.0
 11
665.156432
 21
0.0
 31
0.0
  0
LINE
  5
11D
  8
SIZE
  6
CONTINUOUS
 62
    30
 10
151.5
 20
-99.500000000000014
 30
0.0
 11
665.156432
 21
-99.500000000000014
 31
0.0
  0
LINE
  5
11E
  8
SIZE
  6
CONTINUOUS
 62
    30
 10
645.156432
 20
-12.0
 30
0.0
 11
645.156432
 21
-87.5
 31
0.0
  0
LINE
  5
11F
  8
SIZE
  6
CONTINUOUS
 62
    30
 10
645.156432
 20
-380.05589700000002
 30
0.0
 11
645.156432
 21
-99.500000000000014
 31
0.0
  0
TEXT
  5
120
  8
SIZE
  6
CONTINUOUS
 62
    30
 10
620.156432
 20
-355.05589757142849
 30
0.0
 40
64.0
  1
99.5
 50
90.0
 41
0.9
 72
     1
 11
620.156432
 21
-267.284469
 31
0.0
  0
CIRCLE
  5
121
  8
SIZE
  6
CONTINUOUS
 62
    30
 10
645.156432
 20
0.0
 30
0.0
 40
6.0
  0
LINE
  5
122
  8
SIZE
  6
CONTINUOUS
 62
    30
 10
645.156432
 20
0.0
 30
0.0
 11
645.156432
 21
-12.0
 31
0.0
  0
CIRCLE
  5
123
  8
SIZE
  6
CONTINUOUS
 62
    30
 10
645.156432
 20
-99.500000000000014
 30
0.0
 40
6.0
  0
LINE
  5
124
  8
SIZE
  6
CONTINUOUS
 62
    30
 10
645.156432
 20
-99.500000000000014
 30
0.0
 11
645.156432
 21
-87.5
 31
0.0
  0
POINT
  5
125
  8
DEFPOINTS
  6
CONTINUOUS
 62
    30
 10
206.952673
 20
0.0
 30
0.0
  0
POINT
  5
126
  8
DEFPOINTS
  6
CONTINUOUS
 62
    30
 10
131.5
 20
-99.500000000000014
 30
0.0
  0
POINT
  5
127
  8
DEFPOINTS
  6
CONTINUOUS
 62
    30
 10
645.156432
 20
-99.500000000000014
 30
0.0
  0
LINE
  5
128
  8
SIZE
  6
CONTINUOUS
 62
    30
 10
186.0
 20
-115.0
 30
0.0
 11
787.02942900000005
 21
-115.0
 31
0.0
  0
LINE
  5
129
  8
SIZE
  6
CONTINUOUS
 62
    30
 10
186.0
 20
115.0
 30
0.0
 11
787.02942900000005
 21
115.0
 31
0.0
  0
LINE
  5
12A
  8
SIZE
  6
CONTINUOUS
 62
    30
 10
767.02942900000005
 20
-103.0
 30
0.0
 11
767.02942900000005
 21
103.0
 31
0.0
  0
TEXT
  5
12B
  8
SIZE
  6
CONTINUOUS
 62
    30
 10
742.72749699999997
 20
-74.057142857142864
 30
0.0
 40
64.0
  1
230
 50
90.0
 41
0.9
 72
     1
 11
742.72749699999997
 21
0.0
 31
0.0
  0
CIRCLE
  5
12C
  8
SIZE
  6
CONTINUOUS
 62
    30
 10
767.02942900000005
 20
-115.0
 30
0.0
 40
6.0
  0
LINE
  5
12D
  8
SIZE
  6
CONTINUOUS
 62
    30
 10
767.02942900000005
 20
-115.0
 30
0.0
 11
767.02942900000005
 21
-103.0
 31
0.0
  0
CIRCLE
  5
12E
  8
SIZE
  6
CONTINUOUS
 62
    30
 10
767.02942900000005
 20
115.0
 30
0.0
 40
6.0
  0
LINE
  5
12F
  8
SIZE
  6
CONTINUOUS
 62
    30
 10
767.02942900000005
 20
115.0
 30
0.0
 11
767.02942900000005
 21
103.0
 31
0.0
  0
POINT
  5
130
  8
DEFPOINTS
  6
CONTINUOUS
 62
    30
 10
166.0
 20
-115.0
 30
0.0
  0
POINT
  5
131
  8
DEFPOINTS
  6
CONTINUOUS
 62
    30
 10
166.0
 20
115.0
 30
0.0
  0
POINT
  5
132
  8
DEFPOINTS
  6
CONTINUOUS
 62
    30
 10
767.02942900000005
 20
115.0
 30
0.0
  0
LINE
  5
133
  8
SIZE
  6
CONTINUOUS
 62
    30
 10
155.0
 20
-146.0
 30
0.0
 11
895.10531100000003
 21
-146.0
 31
0.0
  0
LINE
  5
134
  8
SIZE
  6
CONTINUOUS
 62
    30
 10
155.0
 20
146.0
 30
0.0
 11
895.10531100000003
 21
146.0
 31
0.0
  0
LINE
  5
135
  8
SIZE
  6
CONTINUOUS
 62
    30
 10
875.10531099999992
 20
-134.0
 30
0.0
 11
875.10531099999992
 21
134.0
 31
0.0
  0
TEXT
  5
136
  8
SIZE
  6
CONTINUOUS
 62
    30
 10
853.89053799999999
 20
-74.05714285714285
 30
0.0
 40
64.0
  1
292
 50
90.0
 41
0.9
 72
     1
 11
853.89053799999999
 21
0.0
 31
0.0
  0
CIRCLE
  5
137
  8
SIZE
  6
CONTINUOUS
 62
    30
 10
875.10531099999992
 20
-146.0
 30
0.0
 40
6.0
  0
LINE
  5
138
  8
SIZE
  6
CONTINUOUS
 62
    30
 10
875.10531099999992
 20
-146.0
 30
0.0
 11
875.10531099999992
 21
-134.0
 31
0.0
  0
CIRCLE
  5
139
  8
SIZE
  6
CONTINUOUS
 62
    30
 10
875.10531099999992
 20
146.0
 30
0.0
 40
6.0
  0
LINE
  5
13A
  8
SIZE
  6
CONTINUOUS
 62
    30
 10
875.10531099999992
 20
146.0
 30
0.0
 11
875.10531099999992
 21
134.0
 31
0.0
  0
POINT
  5
13B
  8
DEFPOINTS
  6
CONTINUOUS
 62
    30
 10
135.0
 20
-146.0
 30
0.0
  0
POINT
  5
13C
  8
DEFPOINTS
  6
CONTINUOUS
 62
    30
 10
135.0
 20
146.0
 30
0.0
  0
POINT
  5
13D
  8
DEFPOINTS
  6
CONTINUOUS
 62
    30
 10
875.10531099999992
 20
146.0
 30
0.0
  0
LINE
  5
13E
  8
SIZE
  6
CONTINUOUS
 62
    30
 10
176.0
 20
-156.0
 30
0.0
 11
1013.603807
 21
-156.0
 31
0.0
  0
LINE
  5
13F
  8
SIZE
  6
CONTINUOUS
 62
    30
 10
176.0
 20
156.0
 30
0.0
 11
1013.603807
 21
156.0
 31
0.0
  0
LINE
  5
140
  8
SIZE
  6
CONTINUOUS
 62
    30
 10
993.60380699999996
 20
-144.0
 30
0.0
 11
993.60380699999996
 21
144.0
 31
0.0
  0
TEXT
  5
141
  8
SIZE
  6
CONTINUOUS
 62
    30
 10
969.43526400000007
 20
-68.571428571428569
 30
0.0
 40
64.0
  1
312
 50
90.0
 41
0.9
 72
     1
 11
969.43526400000007
 21
0.0
 31
0.0
  0
CIRCLE
  5
142
  8
SIZE
  6
CONTINUOUS
 62
    30
 10
993.60380699999996
 20
-156.0
 30
0.0
 40
6.0
  0
LINE
  5
143
  8
SIZE
  6
CONTINUOUS
 62
    30
 10
993.60380699999996
 20
-156.0
 30
0.0
 11
993.60380699999996
 21
-144.0
 31
0.0
  0
CIRCLE
  5
144
  8
SIZE
  6
CONTINUOUS
 62
    30
 10
993.60380699999996
 20
156.0
 30
0.0
 40
6.0
  0
LINE
  5
145
  8
SIZE
  6
CONTINUOUS
 62
    30
 10
993.60380699999996
 20
156.0
 30
0.0
 11
993.60380699999996
 21
144.0
 31
0.0
  0
POINT
  5
146
  8
DEFPOINTS
  6
CONTINUOUS
 62
    30
 10
156.0
 20
-156.0
 30
0.0
  0
POINT
  5
147
  8
DEFPOINTS
  6
CONTINUOUS
 62
    30
 10
156.0
 20
156.0
 30
0.0
  0
POINT
  5
148
  8
DEFPOINTS
  6
CONTINUOUS
 62
    30
 10
993.60380699999996
 20
156.0
 30
0.0
  0
LINE
  5
149
  8
SIZE
  6
CONTINUOUS
 62
    30
 10
-115.0
 20
-186.0
 30
0.0
 11
-115.0
 21
-987.86773900000003
 31
0.0
  0
LINE
  5
14A
  8
SIZE
  6
CONTINUOUS
 62
    30
 10
115.0
 20
-186.0
 30
0.0
 11
115.0
 21
-987.86773900000003
 31
0.0
  0
LINE
  5
14B
  8
SIZE
  6
CONTINUOUS
 62
    30
 10
-103.0
 20
-967.86773900000003
 30
0.0
 11
103.0
 21
-967.86773900000003
 31
0.0
  0
TEXT
  5
14C
  8
SIZE
  6
CONTINUOUS
 62
    30
 10
-83.688060857142858
 20
-943.66807300000005
 30
0.0
 40
64.0
  1
230
 41
0.9
 72
     1
 11
-9.6309179999999994
 21
-943.66807300000005
 31
0.0
  0
CIRCLE
  5
14D
  8
SIZE
  6
CONTINUOUS
 62
    30
 10
-115.0
 20
-967.86773900000003
 30
0.0
 40
6.0
  0
LINE
  5
14E
  8
SIZE
  6
CONTINUOUS
 62
    30
 10
-115.0
 20
-967.86773900000003
 30
0.0
 11
-103.0
 21
-967.86773900000003
 31
0.0
  0
CIRCLE
  5
14F
  8
SIZE
  6
CONTINUOUS
 62
    30
 10
115.0
 20
-967.86773900000003
 30
0.0
 40
6.0
  0
LINE
  5
150
  8
SIZE
  6
CONTINUOUS
 62
    30
 10
115.0
 20
-967.86773900000003
 30
0.0
 11
103.0
 21
-967.86773900000003
 31
0.0
  0
POINT
  5
151
  8
DEFPOINTS
  6
CONTINUOUS
 62
    30
 10
-115.0
 20
-166.0
 30
0.0
  0
POINT
  5
152
  8
DEFPOINTS
  6
CONTINUOUS
 62
    30
 10
115.0
 20
-166.0
 30
0.0
  0
POINT
  5
153
  8
DEFPOINTS
  6
CONTINUOUS
 62
    30
 10
115.0
 20
-967.86773900000003
 30
0.0
  0
LINE
  5
154
  8
SERVICESPACE
  6
DASHDOT
 62
     2
 10
-140.0
 20
140.0
 30
0.0
 11
140.0
 21
140.0
 31
0.0
  0
LINE
  5
155
  8
SERVICESPACE
  6
DASHDOT
 62
     2
 10
-140.0
 20
-140.0
 30
0.0
 11
140.0
 21
-140.0
 31
0.0
  0
LINE
  5
156
  8
SERVICESPACE
  6
DASHDOT
 62
     2
 10
-140.0
 20
-140.0
 30
0.0
 11
-140.0
 21
140.0
 31
0.0
  0
LINE
  5
157
  8
SERVICESPACE
  6
DASHDOT
 62
     2
 10
140.0
 20
-140.0
 30
0.0
 11
140.0
 21
140.0
 31
0.0
  0
LINE
  5
158
  8
SERVICESPACE
  6
DASHDOT
 62
     2
 10
140.0
 20
-140.0
 30
0.0
 11
-140.0
 21
140.0
 31
0.0
  0
LINE
  5
159
  8
SERVICESPACE
  6
DASHDOT
 62
     2
 10
140.0
 20
140.0
 30
0.0
 11
-140.0
 21
-140.0
 31
0.0
  0
LINE
  5
15A
  8
SIZE
  6
CONTINUOUS
 62
    30
 10
160.0
 20
140.0
 30
0.0
 11
1137.9036510000001
 21
140.0
 31
0.0
  0
LINE
  5
15B
  8
SIZE
  6
CONTINUOUS
 62
    30
 10
160.0
 20
-140.0
 30
0.0
 11
1137.9036510000001
 21
-140.0
 31
0.0
  0
LINE
  5
15C
  8
SIZE
  6
CONTINUOUS
 62
    30
 10
1117.9036510000001
 20
128.0
 30
0.0
 11
1117.9036510000001
 21
-128.0
 31
0.0
  0
TEXT
  5
15D
  8
SIZE
  6
CONTINUOUS
 62
    30
 10
1093.3548290000001
 20
-111.9101818571429
 30
0.0
 40
64.0
  1
□280
 50
90.0
 41
0.9
 72
     1
 11
1093.3548290000001
 21
-1.373038999999999
 31
0.0
  0
CIRCLE
  5
15E
  8
SIZE
  6
CONTINUOUS
 62
    30
 10
1117.9036510000001
 20
140.0
 30
0.0
 40
6.0
  0
LINE
  5
15F
  8
SIZE
  6
CONTINUOUS
 62
    30
 10
1117.9036510000001
 20
140.0
 30
0.0
 11
1117.9036510000001
 21
128.0
 31
0.0
  0
CIRCLE
  5
160
  8
SIZE
  6
CONTINUOUS
 62
    30
 10
1117.9036510000001
 20
-140.0
 30
0.0
 40
6.0
  0
LINE
  5
161
  8
SIZE
  6
CONTINUOUS
 62
    30
 10
1117.9036510000001
 20
-140.0
 30
0.0
 11
1117.9036510000001
 21
-128.0
 31
0.0
  0
POINT
  5
162
  8
DEFPOINTS
  6
CONTINUOUS
 62
    30
 10
140.0
 20
140.0
 30
0.0
  0
POINT
  5
163
  8
DEFPOINTS
  6
CONTINUOUS
 62
    30
 10
140.0
 20
-140.0
 30
0.0
  0
POINT
  5
164
  8
DEFPOINTS
  6
CONTINUOUS
 62
    30
 10
1117.9036510000001
 20
-140.0
 30
0.0
  0
LINE
  5
165
  8
SIZE
  6
CONTINUOUS
 62
    30
 10
-192.0
 20
100.0
 30
0.0
 11
-529.13376700000003
 21
100.0
 31
0.0
  0
LINE
  5
166
  8
SIZE
  6
CONTINUOUS
 62
    30
 10
-192.0
 20
-100.0
 30
0.0
 11
-529.13376700000003
 21
-100.0
 31
0.0
  0
LINE
  5
167
  8
SIZE
  6
CONTINUOUS
 62
    30
 10
-509.13376699999992
 20
88.0
 30
0.0
 11
-509.13376699999992
 21
-88.0
 31
0.0
  0
TEXT
  5
168
  8
SIZE
  6
CONTINUOUS
 62
    30
 10
-536.82023800000002
 20
-74.05714285714285
 30
0.0
 40
64.0
  1
200
 50
90.0
 41
0.9
 72
     1
 11
-536.82023800000002
 21
0.0
 31
0.0
  0
CIRCLE
  5
169
  8
SIZE
  6
CONTINUOUS
 62
    30
 10
-509.13376699999992
 20
100.0
 30
0.0
 40
6.0
  0
LINE
  5
16A
  8
SIZE
  6
CONTINUOUS
 62
    30
 10
-509.13376699999992
 20
100.0
 30
0.0
 11
-509.13376699999992
 21
88.0
 31
0.0
  0
CIRCLE
  5
16B
  8
SIZE
  6
CONTINUOUS
 62
    30
 10
-509.13376699999992
 20
-100.0
 30
0.0
 40
6.0
  0
LINE
  5
16C
  8
SIZE
  6
CONTINUOUS
 62
    30
 10
-509.13376699999992
 20
-100.0
 30
0.0
 11
-509.13376699999992
 21
-88.0
 31
0.0
  0
POINT
  5
16D
  8
DEFPOINTS
  6
CONTINUOUS
 62
    30
 10
-172.0
 20
100.0
 30
0.0
  0
POINT
  5
16E
  8
DEFPOINTS
  6
CONTINUOUS
 62
    30
 10
-172.0
 20
-100.0
 30
0.0
  0
POINT
  5
16F
  8
DEFPOINTS
  6
CONTINUOUS
 62
    30
 10
-509.13376699999992
 20
-100.0
 30
0.0
  0
LINE
  5
170
  8
SIZE
  6
CONTINUOUS
 62
    30
 10
-155.0
 20
135.0
 30
0.0
 11
-831.98284899999999
 21
135.0
 31
0.0
  0
LINE
  5
171
  8
SIZE
  6
CONTINUOUS
 62
    30
 10
-155.0
 20
-135.0
 30
0.0
 11
-831.98284899999999
 21
-135.0
 31
0.0
  0
LINE
  5
172
  8
SIZE
  6
CONTINUOUS
 62
    30
 10
-811.98284899999987
 20
123.0
 30
0.0
 11
-811.98284899999987
 21
-123.0
 31
0.0
  0
TEXT
  5
173
  8
SIZE
  6
CONTINUOUS
 62
    30
 10
-835.91144299999985
 20
-112.5371428571428
 30
0.0
 40
64.0
  1
□270
 50
90.0
 41
0.9
 72
     1
 11
-835.91144299999985
 21
-2.0
 31
0.0
  0
CIRCLE
  5
174
  8
SIZE
  6
CONTINUOUS
 62
    30
 10
-811.98284899999987
 20
135.0
 30
0.0
 40
6.0
  0
LINE
  5
175
  8
SIZE
  6
CONTINUOUS
 62
    30
 10
-811.98284899999987
 20
135.0
 30
0.0
 11
-811.98284899999987
 21
123.0
 31
0.0
  0
CIRCLE
  5
176
  8
SIZE
  6
CONTINUOUS
 62
    30
 10
-811.98284899999987
 20
-135.0
 30
0.0
 40
6.0
  0
LINE
  5
177
  8
SIZE
  6
CONTINUOUS
 62
    30
 10
-811.98284899999987
 20
-135.0
 30
0.0
 11
-811.98284899999987
 21
-123.0
 31
0.0
  0
POINT
  5
178
  8
DEFPOINTS
  6
CONTINUOUS
 62
    30
 10
-135.0
 20
135.0
 30
0.0
  0
POINT
  5
179
  8
DEFPOINTS
  6
CONTINUOUS
 62
    30
 10
-135.0
 20
-135.0
 30
0.0
  0
POINT
  5
17A
  8
DEFPOINTS
  6
CONTINUOUS
 62
    30
 10
-811.98284899999987
 20
-135.0
 30
0.0
  0
LINE
  5
17B
  8
SIZE
  6
CONTINUOUS
 62
    30
 10
645.156432
 20
-101.5
 30
0.0
 11
645.156432
 21
-359.204475
 31
0.0
  0
LINE
  5
17C
  8
SIZE
  6
CONTINUOUS
 62
    30
 10
535.27295500000002
 20
0.0
 30
0.0
 11
535.27295500000002
 21
78.423692000000003
 31
0.0
  0
LINE
  5
17D
  8
SIZE
  6
CONTINUOUS
 62
    30
 10
0.0
 20
225.10679099999999
 30
0.0
 11
0.0
 21
280.725031
 31
0.0
  0
LINE
  5
17E
  8
SIZE
  6
CONTINUOUS
 62
    30
 10
21.0
 20
82.5
 30
0.0
 11
21.0
 21
280.725031
 31
0.0
  0
LINE
  5
17F
  8
SIZE
  6
CONTINUOUS
 62
    30
 10
-12.0
 20
260.725031
 30
0.0
 11
-24.0
 21
260.725031
 31
0.0
  0
LINE
  5
180
  8
SIZE
  6
CONTINUOUS
 62
    30
 10
33.0
 20
260.725031
 30
0.0
 11
45.0
 21
260.725031
 31
0.0
  0
LINE
  5
181
  8
SIZE
  6
CONTINUOUS
 62
    30
 10
293.68869000000001
 20
260.725031
 30
0.0
 11
21.0
 21
260.725031
 31
0.0
  0
TEXT
  5
182
  8
SIZE
  6
CONTINUOUS
 62
    30
 10
200.11726171428569
 20
285.725031
 30
0.0
 40
64.0
  1
21
 41
0.9
 72
     1
 11
234.402976
 21
285.725031
 31
0.0
  0
LINE
  5
183
  8
SIZE
  6
CONTINUOUS
 62
    30
 10
0.0
 20
260.725031
 30
0.0
 11
21.0
 21
260.725031
 31
0.0
  0
LINE
  5
184
  8
SIZE
  6
CONTINUOUS
 62
    30
 10
0.0
 20
260.725031
 30
0.0
 11
21.0
 21
260.725031
 31
0.0
  0
CIRCLE
  5
185
  8
SIZE
  6
CONTINUOUS
 62
    30
 10
0.0
 20
260.725031
 30
0.0
 40
6.0
  0
LINE
  5
186
  8
SIZE
  6
CONTINUOUS
 62
    30
 10
0.0
 20
260.725031
 30
0.0
 11
-12.0
 21
260.725031
 31
0.0
  0
CIRCLE
  5
187
  8
SIZE
  6
CONTINUOUS
 62
    30
 10
21.0
 20
260.725031
 30
0.0
 40
6.0
  0
LINE
  5
188
  8
SIZE
  6
CONTINUOUS
 62
    30
 10
21.0
 20
260.725031
 30
0.0
 11
33.0
 21
260.725031
 31
0.0
  0
POINT
  5
189
  8
DEFPOINTS
  6
CONTINUOUS
 62
    30
 10
0.0
 20
205.10679099999999
 30
0.0
  0
POINT
  5
18A
  8
DEFPOINTS
  6
CONTINUOUS
 62
    30
 10
21.0
 20
62.5
 30
0.0
  0
POINT
  5
18B
  8
DEFPOINTS
  6
CONTINUOUS
 62
    30
 10
21.0
 20
260.725031
 30
0.0
  0
LINE
  5
18C
  8
SIZE
  6
CONTINUOUS
 62
    30
 10
152.0
 20
140.0
 30
0.0
 11
152.0
 21
386.56772100000001
 31
0.0
  0
LINE
  5
18D
  8
SIZE
  6
CONTINUOUS
 62
    30
 10
-152.0
 20
140.0
 30
0.0
 11
-152.0
 21
386.56772100000001
 31
0.0
  0
LINE
  5
18E
  8
SIZE
  6
CONTINUOUS
 62
    30
 10
140.0
 20
366.56772100000001
 30
0.0
 11
-140.0
 21
366.56772100000001
 31
0.0
  0
TEXT
  5
18F
  8
SIZE
  6
CONTINUOUS
 62
    30
 10
-63.507347428571421
 20
391.56772100000001
 30
0.0
 40
64.0
  1
304
 41
0.9
 72
     1
 11
11.921224
 21
391.56772100000001
 31
0.0
  0
CIRCLE
  5
190
  8
SIZE
  6
CONTINUOUS
 62
    30
 10
152.0
 20
366.56772100000001
 30
0.0
 40
6.0
  0
LINE
  5
191
  8
SIZE
  6
CONTINUOUS
 62
    30
 10
152.0
 20
366.56772100000001
 30
0.0
 11
140.0
 21
366.56772100000001
 31
0.0
  0
CIRCLE
  5
192
  8
SIZE
  6
CONTINUOUS
 62
    30
 10
-152.0
 20
366.56772100000001
 30
0.0
 40
6.0
  0
LINE
  5
193
  8
SIZE
  6
CONTINUOUS
 62
    30
 10
-152.0
 20
366.56772100000001
 30
0.0
 11
-140.0
 21
366.56772100000001
 31
0.0
  0
POINT
  5
194
  8
DEFPOINTS
  6
CONTINUOUS
 62
    30
 10
152.0
 20
120.0
 30
0.0
  0
POINT
  5
195
  8
DEFPOINTS
  6
CONTINUOUS
 62
    30
 10
-152.0
 20
120.0
 30
0.0
  0
POINT
  5
196
  8
DEFPOINTS
  6
CONTINUOUS
 62
    30
 10
-152.0
 20
366.56772100000001
 30
0.0
  0
LINE
  5
197
  8
SIZE
  6
CONTINUOUS
 62
    30
 10
156.0
 20
176.0
 30
0.0
 11
156.0
 21
513.48728300000005
 31
0.0
  0
LINE
  5
198
  8
SIZE
  6
CONTINUOUS
 62
    30
 10
-156.0
 20
176.0
 30
0.0
 11
-156.0
 21
513.48728300000005
 31
0.0
  0
LINE
  5
199
  8
SIZE
  6
CONTINUOUS
 62
    30
 10
144.0
 20
493.48728299999988
 30
0.0
 11
-144.0
 21
493.48728299999988
 31
0.0
  0
TEXT
  5
19A
  8
SIZE
  6
CONTINUOUS
 62
    30
 10
-55.749609571428572
 20
518.48728300000005
 30
0.0
 40
64.0
  1
312
 41
0.9
 72
     1
 11
12.821819
 21
518.48728300000005
 31
0.0
  0
CIRCLE
  5
19B
  8
SIZE
  6
CONTINUOUS
 62
    30
 10
156.0
 20
493.48728299999988
 30
0.0
 40
6.0
  0
LINE
  5
19C
  8
SIZE
  6
CONTINUOUS
 62
    30
 10
156.0
 20
493.48728299999988
 30
0.0
 11
144.0
 21
493.48728299999988
 31
0.0
  0
CIRCLE
  5
19D
  8
SIZE
  6
CONTINUOUS
 62
    30
 10
-156.0
 20
493.48728299999988
 30
0.0
 40
6.0
  0
LINE
  5
19E
  8
SIZE
  6
CONTINUOUS
 62
    30
 10
-156.0
 20
493.48728299999988
 30
0.0
 11
-144.0
 21
493.48728299999988
 31
0.0
  0
POINT
  5
19F
  8
DEFPOINTS
  6
CONTINUOUS
 62
    30
 10
156.0
 20
156.0
 30
0.0
  0
POINT
  5
1A0
  8
DEFPOINTS
  6
CONTINUOUS
 62
    30
 10
-156.0
 20
156.0
 30
0.0
  0
POINT
  5
1A1
  8
DEFPOINTS
  6
CONTINUOUS
 62
    30
 10
-156.0
 20
493.48728299999988
 30
0.0
  0
LINE
  5
1A2
  8
SIZE
  6
CONTINUOUS
 62
    30
 10
21.0
 20
260.725031
 30
0.0
 11
285.66122799999999
 21
260.725031
 31
0.0
  0
LINE
  5
1A3
  8
DETAIL
  6
CONTINUOUS
 62
     5
 10
25.0
 20
-138.0
 30
0.0
 11
25.0
 21
-135.0
 31
0.0
  0
LINE
  5
1A4
  8
NOTE
  6
CONTINUOUS
 62
     4
 10
-115.0
 20
126.0
 30
0.0
 11
-115.0
 21
166.0
 31
0.0
  0
LINE
  5
1A5
  8
NOTE
  6
CONTINUOUS
 62
     4
 10
-135.0
 20
146.0
 30
0.0
 11
-95.0
 21
146.0
 31
0.0
  0
CIRCLE
  5
1A6
  8
FIX
  6
CONTINUOUS
 62
    11
 10
-115.0
 20
146.0
 30
0.0
 40
2.5
  0
ARC
  5
1A7
  8
DETAIL
  6
CONTINUOUS
 62
     5
 10
-115.0
 20
147.5
 30
0.0
 40
2.5
 50
0.0
 51
180.0
  0
ARC
  5
1A8
  8
DETAIL
  6
CONTINUOUS
 62
     5
 10
-115.0
 20
144.5
 30
0.0
 40
2.5
 50
180.0
 51
0.0
  0
LINE
  5
1A9
  8
DETAIL
  6
CONTINUOUS
 62
     5
 10
-112.5
 20
147.5
 30
0.0
 11
-112.5
 21
144.5
 31
0.0
  0
LINE
  5
1AA
  8
DETAIL
  6
CONTINUOUS
 62
     5
 10
-117.5
 20
147.5
 30
0.0
 11
-117.5
 21
144.5
 31
0.0
  0
LINE
  5
1AB
  8
DETAIL
  6
CONTINUOUS
 62
     5
 10
117.5
 20
147.5
 30
0.0
 11
117.5
 21
144.5
 31
0.0
  0
LINE
  5
1AC
  8
DETAIL
  6
CONTINUOUS
 62
     5
 10
112.5
 20
147.5
 30
0.0
 11
112.5
 21
144.5
 31
0.0
  0
ARC
  5
1AD
  8
DETAIL
  6
CONTINUOUS
 62
     5
 10
115.0
 20
144.5
 30
0.0
 40
2.5
 50
180.0
 51
0.0
  0
ARC
  5
1AE
  8
DETAIL
  6
CONTINUOUS
 62
     5
 10
115.0
 20
147.5
 30
0.0
 40
2.5
 50
0.0
 51
180.0
  0
CIRCLE
  5
1AF
  8
FIX
  6
CONTINUOUS
 62
    11
 10
115.0
 20
146.0
 30
0.0
 40
2.5
  0
LINE
  5
1B0
  8
NOTE
  6
CONTINUOUS
 62
     4
 10
115.0
 20
126.0
 30
0.0
 11
115.0
 21
166.0
 31
0.0
  0
LINE
  5
1B1
  8
NOTE
  6
CONTINUOUS
 62
     4
 10
135.0
 20
146.0
 30
0.0
 11
95.0
 21
146.0
 31
0.0
  0
LINE
  5
1B2
  8
NOTE
  6
CONTINUOUS
 62
     4
 10
115.0
 20
166.0
 30
0.0
 11
115.0
 21
126.0
 31
0.0
  0
LINE
  5
1B3
  8
NOTE
  6
CONTINUOUS
 62
     4
 10
135.0
 20
146.0
 30
0.0
 11
95.0
 21
146.0
 31
0.0
  0
CIRCLE
  5
1B4
  8
FIX
  6
CONTINUOUS
 62
    11
 10
115.0
 20
-146.0
 30
0.0
 40
2.5
  0
ARC
  5
1B5
  8
DETAIL
  6
CONTINUOUS
 62
     5
 10
115.0
 20
-147.5
 30
0.0
 40
2.5
 50
180.0
 51
0.0
  0
ARC
  5
1B6
  8
DETAIL
  6
CONTINUOUS
 62
     5
 10
115.0
 20
-144.5
 30
0.0
 40
2.5
 50
0.0
 51
180.0
  0
LINE
  5
1B7
  8
DETAIL
  6
CONTINUOUS
 62
     5
 10
112.5
 20
-147.5
 30
0.0
 11
112.5
 21
-144.5
 31
0.0
  0
LINE
  5
1B8
  8
DETAIL
  6
CONTINUOUS
 62
     5
 10
117.5
 20
-147.5
 30
0.0
 11
117.5
 21
-144.5
 31
0.0
  0
LINE
  5
1B9
  8
NOTE
  6
CONTINUOUS
 62
     4
 10
115.0
 20
-166.0
 30
0.0
 11
115.0
 21
-126.0
 31
0.0
  0
LINE
  5
1BA
  8
NOTE
  6
CONTINUOUS
 62
     4
 10
135.0
 20
-146.0
 30
0.0
 11
95.0
 21
-146.0
 31
0.0
  0
POINT
  5
1BB
  8
ARRANGE
  6
CONTINUOUS
 62
     1
 10
0.0
 20
0.0
 30
0.0
  0
CIRCLE
  5
1BC
  8
ARRANGE
  6
CONTINUOUS
 62
     1
 10
0.0
 20
0.0
 30
0.0
 40
40.0
  0
LINE
  5
1BD
  8
DETAIL
  6
CONTINUOUS
 62
     5
 10
25.0
 20
-138.0
 30
0.0
 11
25.0
 21
-135.0
 31
0.0
  0
LINE
  5
1BE
  8
DETAIL
  6
CONTINUOUS
 62
     5
 10
-147.0
 20
-220.0
 30
0.0
 11
-147.0
 21
-138.0
 31
0.0
  0
LINE
  5
1BF
  8
DETAIL
  6
CONTINUOUS
 62
     5
 10
-139.0
 20
-277.0
 30
0.0
 11
-139.0
 21
-250.0
 31
0.0
  0
LINE
  5
1C0
  8
DETAIL
  6
CONTINUOUS
 62
     5
 10
5.0
 20
-277.0
 30
0.0
 11
5.0
 21
-250.0
 31
0.0
  0
LINE
  5
1C1
  8
DETAIL
  6
CONTINUOUS
 62
     5
 10
-143.0
 20
-250.0
 30
0.0
 11
-143.0
 21
-220.0
 31
0.0
  0
LINE
  5
1C2
  8
DETAIL
  6
CONTINUOUS
 62
     5
 10
9.0
 20
-250.0
 30
0.0
 11
9.0
 21
-220.0
 31
0.0
  0
LINE
  5
1C3
  8
DETAIL
  6
CONTINUOUS
 62
     5
 10
-147.0
 20
-220.0
 30
0.0
 11
13.0
 21
-220.0
 31
0.0
  0
LINE
  5
1C4
  8
DETAIL
  6
CONTINUOUS
 62
     5
 10
-143.0
 20
-250.0
 30
0.0
 11
9.0
 21
-250.0
 31
0.0
  0
LINE
  5
1C5
  8
DETAIL
  6
CONTINUOUS
 62
     5
 10
13.0
 20
-220.0
 30
0.0
 11
13.0
 21
-138.0
 31
0.0
  0
LINE
  5
1C6
  8
SIZE
  6
CONTINUOUS
 62
    30
 10
8.7887699999999995
 20
-269.60827399999999
 30
0.0
 11
8.7887699999999995
 21
-700.93097599999987
 31
0.0
  0
LINE
  5
1C7
  8
SIZE
  6
CONTINUOUS
 62
    30
 10
-143.21123
 20
-269.60827399999999
 30
0.0
 11
-143.21123
 21
-700.93097599999987
 31
0.0
  0
LINE
  5
1C8
  8
SIZE
  6
CONTINUOUS
 62
    30
 10
-3.21123
 20
-680.93097599999987
 30
0.0
 11
-131.21123
 21
-680.93097599999987
 31
0.0
  0
LINE
  5
1C9
  8
SIZE
  6
CONTINUOUS
 62
    30
 10
-413.25552399999998
 20
-680.93097599999987
 30
0.0
 11
-143.21123
 21
-680.93097599999987
 31
0.0
  0
TEXT
  5
1CA
  8
SIZE
  6
CONTINUOUS
 62
    30
 10
-399.77552357142861
 20
-655.93097599999987
 30
0.0
 40
64.0
  1
φ152
 41
0.9
 72
     1
 11
-290.884095
 21
-655.93097599999987
 31
0.0
  0
CIRCLE
  5
1CB
  8
SIZE
  6
CONTINUOUS
 62
    30
 10
8.7887699999999995
 20
-680.93097599999987
 30
0.0
 40
6.0
  0
LINE
  5
1CC
  8
SIZE
  6
CONTINUOUS
 62
    30
 10
8.7887699999999995
 20
-680.93097599999987
 30
0.0
 11
-3.21123
 21
-680.93097599999987
 31
0.0
  0
CIRCLE
  5
1CD
  8
SIZE
  6
CONTINUOUS
 62
    30
 10
-143.21123
 20
-680.93097599999987
 30
0.0
 40
6.0
  0
LINE
  5
1CE
  8
SIZE
  6
CONTINUOUS
 62
    30
 10
-143.21123
 20
-680.93097599999987
 30
0.0
 11
-131.21123
 21
-680.93097599999987
 31
0.0
  0
POINT
  5
1CF
  8
DEFPOINTS
  6
CONTINUOUS
 62
    30
 10
8.7887699999999995
 20
-249.60827399999999
 30
0.0
  0
POINT
  5
1D0
  8
DEFPOINTS
  6
CONTINUOUS
 62
    30
 10
-143.21123
 20
-249.60827399999999
 30
0.0
  0
POINT
  5
1D1
  8
DEFPOINTS
  6
CONTINUOUS
 62
    30
 10
-143.21123
 20
-680.93097599999987
 30
0.0
  0
LINE
  5
1D2
  8
SIZE
  6
CONTINUOUS
 62
    30
 10
5.0
 20
-297.0
 30
0.0
 11
5.0
 21
-559.24928299999999
 31
0.0
  0
LINE
  5
1D3
  8
SIZE
  6
CONTINUOUS
 62
    30
 10
-139.0
 20
-297.0
 30
0.0
 11
-139.0
 21
-559.24928299999999
 31
0.0
  0
LINE
  5
1D4
  8
SIZE
  6
CONTINUOUS
 62
    30
 10
-7.0
 20
-539.24928299999999
 30
0.0
 11
-127.0
 21
-539.24928299999999
 31
0.0
  0
LINE
  5
1D5
  8
SIZE
  6
CONTINUOUS
 62
    30
 10
-415.25768699999998
 20
-539.24928299999999
 30
0.0
 11
-139.0
 21
-539.24928299999999
 31
0.0
  0
TEXT
  5
1D6
  8
SIZE
  6
CONTINUOUS
 62
    30
 10
-401.77768714285702
 20
-514.24928299999999
 30
0.0
 40
64.0
  1
φ144
 41
0.9
 72
     1
 11
-291.51483000000002
 21
-514.24928299999999
 31
0.0
  0
CIRCLE
  5
1D7
  8
SIZE
  6
CONTINUOUS
 62
    30
 10
5.0
 20
-539.24928299999999
 30
0.0
 40
6.0
  0
LINE
  5
1D8
  8
SIZE
  6
CONTINUOUS
 62
    30
 10
5.0
 20
-539.24928299999999
 30
0.0
 11
-7.0
 21
-539.24928299999999
 31
0.0
  0
CIRCLE
  5
1D9
  8
SIZE
  6
CONTINUOUS
 62
    30
 10
-139.0
 20
-539.24928299999999
 30
0.0
 40
6.0
  0
LINE
  5
1DA
  8
SIZE
  6
CONTINUOUS
 62
    30
 10
-139.0
 20
-539.24928299999999
 30
0.0
 11
-127.0
 21
-539.24928299999999
 31
0.0
  0
POINT
  5
1DB
  8
DEFPOINTS
  6
CONTINUOUS
 62
    30
 10
5.0
 20
-277.0
 30
0.0
  0
POINT
  5
1DC
  8
DEFPOINTS
  6
CONTINUOUS
 62
    30
 10
-139.0
 20
-277.0
 30
0.0
  0
POINT
  5
1DD
  8
DEFPOINTS
  6
CONTINUOUS
 62
    30
 10
-139.0
 20
-539.24928299999999
 30
0.0
  0
LINE
  5
1DE
  8
SIZE
  6
CONTINUOUS
 62
    30
 10
-159.0
 20
-277.0
 30
0.0
 11
-657.94460100000003
 21
-277.0
 31
0.0
  0
LINE
  5
1DF
  8
SIZE
  6
CONTINUOUS
 62
    30
 10
-167.0
 20
-220.0
 30
0.0
 11
-657.94460100000003
 21
-220.0
 31
0.0
  0
LINE
  5
1E0
  8
SIZE
  6
CONTINUOUS
 62
    30
 10
-637.94460100000003
 20
-289.0
 30
0.0
 11
-637.94460100000003
 21
-301.0
 31
0.0
  0
LINE
  5
1E1
  8
SIZE
  6
CONTINUOUS
 62
    30
 10
-637.94460100000003
 20
-208.0
 30
0.0
 11
-637.94460100000003
 21
-196.0
 31
0.0
  0
TEXT
  5
1E2
  8
SIZE
  6
CONTINUOUS
 62
    30
 10
-659.95283300000006
 20
-393.28610942857142
 30
0.0
 40
64.0
  1
57
 50
90.0
 41
0.9
 72
     1
 11
-659.95283300000006
 21
-346.65753799999999
 31
0.0
  0
LINE
  5
1E3
  8
SIZE
  6
CONTINUOUS
 62
    30
 10
-637.94460100000003
 20
-277.0
 30
0.0
 11
-637.94460100000003
 21
-220.0
 31
0.0
  0
LINE
  5
1E4
  8
SIZE
  6
CONTINUOUS
 62
    30
 10
-637.94460100000003
 20
-277.0
 30
0.0
 11
-637.94460100000003
 21
-220.0
 31
0.0
  0
CIRCLE
  5
1E5
  8
SIZE
  6
CONTINUOUS
 62
    30
 10
-637.94460100000003
 20
-277.0
 30
0.0
 40
6.0
  0
LINE
  5
1E6
  8
SIZE
  6
CONTINUOUS
 62
    30
 10
-637.94460100000003
 20
-277.0
 30
0.0
 11
-637.94460100000003
 21
-289.0
 31
0.0
  0
CIRCLE
  5
1E7
  8
SIZE
  6
CONTINUOUS
 62
    30
 10
-637.94460100000003
 20
-220.0
 30
0.0
 40
6.0
  0
LINE
  5
1E8
  8
SIZE
  6
CONTINUOUS
 62
    30
 10
-637.94460100000003
 20
-220.0
 30
0.0
 11
-637.94460100000003
 21
-208.0
 31
0.0
  0
POINT
  5
1E9
  8
DEFPOINTS
  6
CONTINUOUS
 62
    30
 10
-139.0
 20
-277.0
 30
0.0
  0
POINT
  5
1EA
  8
DEFPOINTS
  6
CONTINUOUS
 62
    30
 10
-147.0
 20
-220.0
 30
0.0
  0
POINT
  5
1EB
  8
DEFPOINTS
  6
CONTINUOUS
 62
    30
 10
-637.94460100000003
 20
-220.0
 30
0.0
  0
LINE
  5
1EC
  8
SIZE
  6
CONTINUOUS
 62
    30
 10
-159.0
 20
-277.0
 30
0.0
 11
-529.26630199999988
 21
-277.0
 31
0.0
  0
LINE
  5
1ED
  8
SIZE
  6
CONTINUOUS
 62
    30
 10
-163.0
 20
-250.0
 30
0.0
 11
-529.26630199999988
 21
-250.0
 31
0.0
  0
LINE
  5
1EE
  8
SIZE
  6
CONTINUOUS
 62
    30
 10
-509.26630199999988
 20
-289.0
 30
0.0
 11
-509.26630199999988
 21
-301.0
 31
0.0
  0
LINE
  5
1EF
  8
SIZE
  6
CONTINUOUS
 62
    30
 10
-509.26630199999988
 20
-238.0
 30
0.0
 11
-509.26630199999988
 21
-226.0
 31
0.0
  0
TEXT
  5
1F0
  8
SIZE
  6
CONTINUOUS
 62
    30
 10
-534.73324600000001
 20
-392.49669242857141
 30
0.0
 40
64.0
  1
27
 50
90.0
 41
0.9
 72
     1
 11
-534.73324600000001
 21
-345.86812099999997
 31
0.0
  0
LINE
  5
1F1
  8
SIZE
  6
CONTINUOUS
 62
    30
 10
-509.26630199999988
 20
-277.0
 30
0.0
 11
-509.26630199999988
 21
-250.0
 31
0.0
  0
LINE
  5
1F2
  8
SIZE
  6
CONTINUOUS
 62
    30
 10
-509.26630199999988
 20
-277.0
 30
0.0
 11
-509.26630199999988
 21
-250.0
 31
0.0
  0
CIRCLE
  5
1F3
  8
SIZE
  6
CONTINUOUS
 62
    30
 10
-509.26630199999988
 20
-277.0
 30
0.0
 40
6.0
  0
LINE
  5
1F4
  8
SIZE
  6
CONTINUOUS
 62
    30
 10
-509.26630199999988
 20
-277.0
 30
0.0
 11
-509.26630199999988
 21
-289.0
 31
0.0
  0
CIRCLE
  5
1F5
  8
SIZE
  6
CONTINUOUS
 62
    30
 10
-509.26630199999988
 20
-250.0
 30
0.0
 40
6.0
  0
LINE
  5
1F6
  8
SIZE
  6
CONTINUOUS
 62
    30
 10
-509.26630199999988
 20
-250.0
 30
0.0
 11
-509.26630199999988
 21
-238.0
 31
0.0
  0
POINT
  5
1F7
  8
DEFPOINTS
  6
CONTINUOUS
 62
    30
 10
-139.0
 20
-277.0
 30
0.0
  0
POINT
  5
1F8
  8
DEFPOINTS
  6
CONTINUOUS
 62
    30
 10
-143.0
 20
-250.0
 30
0.0
  0
POINT
  5
1F9
  8
DEFPOINTS
  6
CONTINUOUS
 62
    30
 10
-509.26630199999988
 20
-250.0
 30
0.0
  0
LINE
  5
1FA
  8
SIZE
  6
CONTINUOUS
 62
    30
 10
-509.26630199999988
 20
-261.5
 30
0.0
 11
-509.26630199999988
 21
-404.13275299999998
 31
0.0
  0
LINE
  5
1FB
  8
SIZE
  6
CONTINUOUS
 62
    30
 10
-637.94460100000003
 20
-257.5
 30
0.0
 11
-637.94460100000003
 21
-406.69194499999998
 31
0.0
  0
LINE
  5
1FC
  8
SIZE
  6
CONTINUOUS
 62
    30
 10
-155.0
 20
-135.0
 30
0.0
 11
-831.98284899999999
 21
-135.0
 31
0.0
  0
LINE
  5
1FD
  8
SIZE
  6
CONTINUOUS
 62
    30
 10
-159.0
 20
-277.0
 30
0.0
 11
-831.98284899999999
 21
-277.0
 31
0.0
  0
LINE
  5
1FE
  8
SIZE
  6
CONTINUOUS
 62
    30
 10
-811.98284899999987
 20
-147.0
 30
0.0
 11
-811.98284899999987
 21
-265.0
 31
0.0
  0
LINE
  5
1FF
  8
SIZE
  6
CONTINUOUS
 62
    30
 10
-811.98284899999987
 20
-482.691171
 30
0.0
 11
-811.98284899999987
 21
-277.0
 31
0.0
  0
TEXT
  5
200
  8
SIZE
  6
CONTINUOUS
 62
    30
 10
-836.98284899999987
 20
-457.69117157142858
 30
0.0
 40
64.0
  1
142
 50
90.0
 41
0.9
 72
     1
 11
-836.98284899999987
 21
-389.11974300000003
 31
0.0
  0
CIRCLE
  5
201
  8
SIZE
  6
CONTINUOUS
 62
    30
 10
-811.98284899999987
 20
-135.0
 30
0.0
 40
6.0
  0
LINE
  5
202
  8
SIZE
  6
CONTINUOUS
 62
    30
 10
-811.98284899999987
 20
-135.0
 30
0.0
 11
-811.98284899999987
 21
-147.0
 31
0.0
  0
CIRCLE
  5
203
  8
SIZE
  6
CONTINUOUS
 62
    30
 10
-811.98284899999987
 20
-277.0
 30
0.0
 40
6.0
  0
LINE
  5
204
  8
SIZE
  6
CONTINUOUS
 62
    30
 10
-811.98284899999987
 20
-277.0
 30
0.0
 11
-811.98284899999987
 21
-265.0
 31
0.0
  0
POINT
  5
205
  8
DEFPOINTS
  6
CONTINUOUS
 62
    30
 10
-135.0
 20
-135.0
 30
0.0
  0
POINT
  5
206
  8
DEFPOINTS
  6
CONTINUOUS
 62
    30
 10
-139.0
 20
-277.0
 30
0.0
  0
POINT
  5
207
  8
DEFPOINTS
  6
CONTINUOUS
 62
    30
 10
-811.98284899999987
 20
-277.0
 30
0.0
  0
LINE
  5
208
  8
SIZE
  6
CONTINUOUS
 62
    30
 10
13.0
 20
-240.0
 30
0.0
 11
13.0
 21
-841.69323499999985
 31
0.0
  0
LINE
  5
209
  8
SIZE
  6
CONTINUOUS
 62
    30
 10
-147.0
 20
-240.0
 30
0.0
 11
-147.0
 21
-841.69323499999985
 31
0.0
  0
LINE
  5
20A
  8
SIZE
  6
CONTINUOUS
 62
    30
 10
1.0
 20
-821.69323499999996
 30
0.0
 11
-135.0
 21
-821.69323499999996
 31
0.0
  0
LINE
  5
20B
  8
SIZE
  6
CONTINUOUS
 62
    30
 10
-412.12436300000002
 20
-821.69323499999996
 30
0.0
 11
-147.0
 21
-821.69323499999996
 31
0.0
  0
TEXT
  5
20C
  8
SIZE
  6
CONTINUOUS
 62
    30
 10
-390.96436357142858
 20
-796.69323499999985
 30
0.0
 40
64.0
  1
□160
 41
0.9
 72
     1
 11
-285.912935
 21
-796.69323499999985
 31
0.0
  0
CIRCLE
  5
20D
  8
SIZE
  6
CONTINUOUS
 62
    30
 10
13.0
 20
-821.69323499999996
 30
0.0
 40
6.0
  0
LINE
  5
20E
  8
SIZE
  6
CONTINUOUS
 62
    30
 10
13.0
 20
-821.69323499999996
 30
0.0
 11
1.0
 21
-821.69323499999996
 31
0.0
  0
CIRCLE
  5
20F
  8
SIZE
  6
CONTINUOUS
 62
    30
 10
-147.0
 20
-821.69323499999996
 30
0.0
 40
6.0
  0
LINE
  5
210
  8
SIZE
  6
CONTINUOUS
 62
    30
 10
-147.0
 20
-821.69323499999996
 30
0.0
 11
-135.0
 21
-821.69323499999996
 31
0.0
  0
POINT
  5
211
  8
DEFPOINTS
  6
CONTINUOUS
 62
    30
 10
13.0
 20
-220.0
 30
0.0
  0
POINT
  5
212
  8
DEFPOINTS
  6
CONTINUOUS
 62
    30
 10
-147.0
 20
-220.0
 30
0.0
  0
POINT
  5
213
  8
DEFPOINTS
  6
CONTINUOUS
 62
    30
 10
-147.0
 20
-821.69323499999996
 30
0.0
  0
LINE
  5
214
  8
SIZE
  6
CONTINUOUS
 62
    30
 10
167.0
 20
163.96411900000001
 30
0.0
 11
167.0
 21
633.92613099999994
 31
0.0
  0
LINE
  5
215
  8
SIZE
  6
CONTINUOUS
 62
    30
 10
-167.0
 20
159.480692
 30
0.0
 11
-167.0
 21
633.92613099999994
 31
0.0
  0
LINE
  5
216
  8
SIZE
  6
CONTINUOUS
 62
    30
 10
155.0
 20
613.92613099999994
 30
0.0
 11
-155.0
 21
613.92613099999994
 31
0.0
  0
CIRCLE
  5
217
  8
SIZE
  6
CONTINUOUS
 62
    30
 10
167.0
 20
613.92613099999994
 30
0.0
 40
6.0
  0
LINE
  5
218
  8
SIZE
  6
CONTINUOUS
 62
    30
 10
167.0
 20
613.92613099999994
 30
0.0
 11
155.0
 21
613.92613099999994
 31
0.0
  0
CIRCLE
  5
219
  8
SIZE
  6
CONTINUOUS
 62
    30
 10
-167.0
 20
613.92613099999994
 30
0.0
 40
6.0
  0
LINE
  5
21A
  8
SIZE
  6
CONTINUOUS
 62
    30
 10
-167.0
 20
613.92613099999994
 30
0.0
 11
-155.0
 21
613.92613099999994
 31
0.0
  0
TEXT
  5
21B
  8
SIZE
  6
CONTINUOUS
 62
    30
 10
-111.90857142857141
 20
638.92613099999994
 30
0.0
 40
64.0
  1
□334
 41
0.9
 72
     1
 11
0.0
 21
638.92613099999994
 31
0.0
  0
POINT
  5
21C
  8
DEFPOINTS
  6
CONTINUOUS
 62
    30
 10
167.0
 20
143.96411900000001
 30
0.0
  0
POINT
  5
21D
  8
DEFPOINTS
  6
CONTINUOUS
 62
    30
 10
-167.0
 20
139.480692
 30
0.0
  0
POINT
  5
21E
  8
DEFPOINTS
  6
CONTINUOUS
 62
    30
 10
-167.0
 20
613.92613099999994
 30
0.0
  0
LINE
  5
21F
  8
SIZE
  6
CONTINUOUS
 62
    30
 10
146.0
 20
-155.0
 30
0.0
 11
146.0
 21
-1103.25746
 31
0.0
  0
LINE
  5
220
  8
SIZE
  6
CONTINUOUS
 62
    30
 10
-146.0
 20
-155.0
 30
0.0
 11
-146.0
 21
-1103.25746
 31
0.0
  0
LINE
  5
221
  8
SIZE
  6
CONTINUOUS
 62
    30
 10
134.0
 20
-1083.25746
 30
0.0
 11
-134.0
 21
-1083.25746
 31
0.0
  0
TEXT
  5
222
  8
SIZE
  6
CONTINUOUS
 62
    30
 10
-78.486361857142853
 20
-1056.7743
 30
0.0
 40
64.0
  1
292
 41
0.9
 72
     1
 11
-4.4292189999999989
 21
-1056.7743
 31
0.0
  0
CIRCLE
  5
223
  8
SIZE
  6
CONTINUOUS
 62
    30
 10
146.0
 20
-1083.25746
 30
0.0
 40
6.0
  0
LINE
  5
224
  8
SIZE
  6
CONTINUOUS
 62
    30
 10
146.0
 20
-1083.25746
 30
0.0
 11
134.0
 21
-1083.25746
 31
0.0
  0
CIRCLE
  5
225
  8
SIZE
  6
CONTINUOUS
 62
    30
 10
-146.0
 20
-1083.25746
 30
0.0
 40
6.0
  0
LINE
  5
226
  8
SIZE
  6
CONTINUOUS
 62
    30
 10
-146.0
 20
-1083.25746
 30
0.0
 11
-134.0
 21
-1083.25746
 31
0.0
  0
POINT
  5
227
  8
DEFPOINTS
  6
CONTINUOUS
 62
    30
 10
146.0
 20
-135.0
 30
0.0
  0
POINT
  5
228
  8
DEFPOINTS
  6
CONTINUOUS
 62
    30
 10
-146.0
 20
-135.0
 30
0.0
  0
POINT
  5
229
  8
DEFPOINTS
  6
CONTINUOUS
 62
    30
 10
-146.0
 20
-1083.25746
 30
0.0
  0
TEXT
  5
22A
  8
NOTE
  6
CONTINUOUS
 62
     4
 10
-1088.7476549999999
 20
350.26689699999997
 30
0.0
 40
64.0
  1
AH 4ヶ所×φ15×22
 41
0.9
  0
LINE
  5
22B
  8
NOTE
  6
CONTINUOUS
 62
     4
 10
-1107.5463010000001
 20
315.07503000000003
 30
0.0
 11
-346.90177299999999
 21
315.07503000000003
 31
0.0
  0
LINE
  5
22C
  8
DETAIL
  6
CONTINUOUS
 62
     5
 10
-139.0
 20
-277.0
 30
0.0
 11
5.0
 21
-277.0
 31
0.0
  0
LINE
  5
22D
  8
DETAIL
  6
CONTINUOUS
 62
     5
 10
167.0
 20
148.840397
 30
0.0
 11
167.0
 21
-150.159603
 31
0.0
  0
LINE
  5
22E
  8
DETAIL
  6
CONTINUOUS
 62
     5
 10
-167.5
 20
0.0
 30
0.0
 11
-167.5
 21
-149.5
 31
0.0
  0
LINE
  5
22F
  8
DETAIL
  6
CONTINUOUS
 62
     5
 10
13.0
 20
-167.0
 30
0.0
 11
149.5
 21
-167.0
 31
0.0
  0
ARC
  5
230
  8
DETAIL
  6
CONTINUOUS
 62
     5
 10
-150.32548399999999
 20
-149.841927
 30
0.0
 40
17.177918999999999
 50
178.85945100000001
 51
272.75440800000001
  0
LINE
  5
231
  8
DETAIL
  6
CONTINUOUS
 62
     5
 10
-147.0
 20
-167.0
 30
0.0
 11
-149.5
 21
-167.0
 31
0.0
  0
ARC
  5
232
  8
DETAIL
  6
CONTINUOUS
 62
     5
 10
150.63487499999999
 20
-150.660901
 30
0.0
 40
16.378464000000001
 50
266.02675099999999
 51
2.3126180000000001
  0
ARC
  5
233
  8
DETAIL
  6
CONTINUOUS
 62
     5
 10
-150.61966799999999
 20
150.61966799999999
 30
0.0
 40
16.418554
 50
86.089662000000004
 51
183.91033799999991
  0
LINE
  5
234
  8
DETAIL
  6
CONTINUOUS
 62
     5
 10
-167.0
 20
0.0
 30
0.0
 11
-167.0
 21
149.5
 31
0.0
  0
LINE
  5
235
  8
DETAIL
  6
CONTINUOUS
 62
     5
 10
149.5
 20
167.0
 30
0.0
 11
-149.5
 21
167.0
 31
0.0
  0
ARC
  5
236
  8
DETAIL
  6
CONTINUOUS
 62
     5
 10
150.60128599999999
 20
150.549305
 30
0.0
 40
16.487515999999999
 50
354.05068799999998
 51
93.829930000000019
  0
ARC
  5
237
  8
DETAIL
  6
CONTINUOUS
 62
     5
 10
-162.5
 20
125.0
 30
0.0
 40
5.0
 50
90.0
 51
154.15806699999999
  0
ARC
  5
238
  8
DETAIL
  6
CONTINUOUS
 62
     5
 10
-162.25
 20
75.0
 30
0.0
 40
5.0
 50
198.194872
 51
270.0
  0
ARC
  5
239
  8
DETAIL
  6
CONTINUOUS
 62
     5
 10
162.563694
 20
125.75732499999999
 30
0.0
 40
4.2542559999999989
 50
349.74579399999999
 51
94.228630999999993
  0
ARC
  5
23A
  8
DETAIL
  6
CONTINUOUS
 62
     5
 10
162.563694
 20
74.242675000000006
 30
0.0
 40
4.2542559999999989
 50
265.77136899999999
 51
10.254206
  0
ARC
  5
23B
  8
DETAIL
  6
CONTINUOUS
 62
     5
 10
162.563694
 20
-74.242675000000006
 30
0.0
 40
4.2542559999999989
 50
349.74579399999999
 51
94.228630999999993
  0
ARC
  5
23C
  8
DETAIL
  6
CONTINUOUS
 62
     5
 10
162.563694
 20
-125.75732499999999
 30
0.0
 40
4.2542559999999989
 50
265.77136899999999
 51
10.254206
  0
ARC
  5
23D
  8
DETAIL
  6
CONTINUOUS
 62
     5
 10
-162.25
 20
-75.0
 30
0.0
 40
5.0
 50
90.0
 51
180.0
  0
ARC
  5
23E
  8
DETAIL
  6
CONTINUOUS
 62
     5
 10
-162.25
 20
-125.0
 30
0.0
 40
5.0
 50
180.0
 51
270.0
  0
LINE
  5
23F
  8
SIZE
  6
CONTINUOUS
 62
    30
 10
-67.0
 20
-319.0
 30
0.0
 11
-67.0
 21
-427.65075599999989
 31
0.0
  0
LINE
  5
240
  8
SIZE
  6
CONTINUOUS
 62
    30
 10
0.0
 20
-225.59844899999999
 30
0.0
 11
0.0
 21
-427.65075599999989
 31
0.0
  0
LINE
  5
241
  8
SIZE
  6
CONTINUOUS
 62
    30
 10
-79.0
 20
-407.650756
 30
0.0
 11
-91.0
 21
-407.650756
 31
0.0
  0
LINE
  5
242
  8
SIZE
  6
CONTINUOUS
 62
    30
 10
12.0
 20
-407.650756
 30
0.0
 11
24.0
 21
-407.650756
 31
0.0
  0
LINE
  5
243
  8
SIZE
  6
CONTINUOUS
 62
    30
 10
285.36523399999999
 20
-407.650756
 30
0.0
 11
0.0
 21
-407.650756
 31
0.0
  0
TEXT
  5
244
  8
SIZE
  6
CONTINUOUS
 62
    30
 10
167.10809157142859
 20
-382.650756
 30
0.0
 40
64.0
  1
67
 41
0.9
 72
     1
 11
213.73666299999999
 21
-382.650756
 31
0.0
  0
LINE
  5
245
  8
SIZE
  6
CONTINUOUS
 62
    30
 10
-67.0
 20
-407.650756
 30
0.0
 11
0.0
 21
-407.650756
 31
0.0
  0
LINE
  5
246
  8
SIZE
  6
CONTINUOUS
 62
    30
 10
-67.0
 20
-407.650756
 30
0.0
 11
0.0
 21
-407.650756
 31
0.0
  0
CIRCLE
  5
247
  8
SIZE
  6
CONTINUOUS
 62
    30
 10
-67.0
 20
-407.650756
 30
0.0
 40
6.0
  0
LINE
  5
248
  8
SIZE
  6
CONTINUOUS
 62
    30
 10
-67.0
 20
-407.650756
 30
0.0
 11
-79.0
 21
-407.650756
 31
0.0
  0
CIRCLE
  5
249
  8
SIZE
  6
CONTINUOUS
 62
    30
 10
0.0
 20
-407.650756
 30
0.0
 40
6.0
  0
LINE
  5
24A
  8
SIZE
  6
CONTINUOUS
 62
    30
 10
0.0
 20
-407.650756
 30
0.0
 11
12.0
 21
-407.650756
 31
0.0
  0
POINT
  5
24B
  8
DEFPOINTS
  6
CONTINUOUS
 62
    30
 10
-67.0
 20
-299.0
 30
0.0
  0
POINT
  5
24C
  8
DEFPOINTS
  6
CONTINUOUS
 62
    30
 10
0.0
 20
-205.59844899999999
 30
0.0
  0
POINT
  5
24D
  8
DEFPOINTS
  6
CONTINUOUS
 62
    30
 10
0.0
 20
-407.650756
 30
0.0
  0
LINE
  5
24E
  8
SIZE
  6
CONTINUOUS
 62
    30
 10
-390.13327399999997
 20
479.93762599999991
 30
0.0
 11
-13.521717000000001
 21
41.215060000000001
 31
0.0
  0
LINE
  5
24F
  8
SIZE
  6
CONTINUOUS
 62
    30
 10
55.521717000000002
 20
-39.215060000000001
 30
0.0
 11
63.337955000000001
 21
-48.320357000000001
 31
0.0
  0
TEXT
  5
250
  8
SIZE
  6
CONTINUOUS
 62
    30
 10
-364.17021980330168
 20
488.07440608247617
 30
0.0
 40
64.0
  1
φ82
 50
310.64368400000001
 41
0.9
 72
     1
 11
-307.53601400000002
 21
422.10001099999999
 31
0.0
  0
LINE
  5
251
  8
SIZE
  6
CONTINUOUS
 62
    30
 10
47.70547899999999
 20
-30.109763000000001
 30
0.0
 11
-5.7054790000000004
 21
32.109763000000001
 31
0.0
  0
CIRCLE
  5
252
  8
SIZE
  6
CONTINUOUS
 62
    30
 10
47.70547899999999
 20
-30.109763000000001
 30
0.0
 40
6.0
  0
LINE
  5
253
  8
SIZE
  6
CONTINUOUS
 62
    30
 10
47.70547899999999
 20
-30.109763000000001
 30
0.0
 11
55.521717000000002
 21
-39.215060000000001
 31
0.0
  0
CIRCLE
  5
254
  8
SIZE
  6
CONTINUOUS
 62
    30
 10
-5.7054790000000004
 20
32.109763000000001
 30
0.0
 40
6.0
  0
LINE
  5
255
  8
SIZE
  6
CONTINUOUS
 62
    30
 10
-5.7054790000000004
 20
32.109763000000001
 30
0.0
 11
-13.521717000000001
 21
41.215060000000001
 31
0.0
  0
POINT
  5
256
  8
DEFPOINTS
  6
CONTINUOUS
 62
    30
 10
-5.7054790000000004
 20
32.109763000000001
 30
0.0
  0
POINT
  5
257
  8
DEFPOINTS
  6
CONTINUOUS
 62
    30
 10
47.70547899999999
 20
-30.109763000000001
 30
0.0
  0
LINE
  5
258
  8
SIZE
  6
CONTINUOUS
 62
    30
 10
-187.5
 20
0.0
 30
0.0
 11
-704.418316
 21
0.0
 31
0.0
  0
LINE
  5
259
  8
SIZE
  6
CONTINUOUS
 62
    30
 10
-159.0
 20
-277.0
 30
0.0
 11
-704.418316
 21
-277.0
 31
0.0
  0
LINE
  5
25A
  8
SIZE
  6
CONTINUOUS
 62
    30
 10
-684.418316
 20
-12.0
 30
0.0
 11
-684.418316
 21
-265.0
 31
0.0
  0
CIRCLE
  5
25B
  8
SIZE
  6
CONTINUOUS
 62
    30
 10
-684.418316
 20
0.0
 30
0.0
 40
6.0
  0
LINE
  5
25C
  8
SIZE
  6
CONTINUOUS
 62
    30
 10
-684.418316
 20
0.0
 30
0.0
 11
-684.418316
 21
-12.0
 31
0.0
  0
CIRCLE
  5
25D
  8
SIZE
  6
CONTINUOUS
 62
    30
 10
-684.418316
 20
-277.0
 30
0.0
 40
6.0
  0
LINE
  5
25E
  8
SIZE
  6
CONTINUOUS
 62
    30
 10
-684.418316
 20
-277.0
 30
0.0
 11
-684.418316
 21
-265.0
 31
0.0
  0
TEXT
  5
25F
  8
SIZE
  6
CONTINUOUS
 62
    30
 10
-709.418316
 20
-212.55714285714279
 30
0.0
 40
64.0
  1
277
 50
90.0
 41
0.9
 72
     1
 11
-709.418316
 21
-138.5
 31
0.0
  0
POINT
  5
260
  8
DEFPOINTS
  6
CONTINUOUS
 62
    30
 10
-167.5
 20
0.0
 30
0.0
  0
POINT
  5
261
  8
DEFPOINTS
  6
CONTINUOUS
 62
    30
 10
-139.0
 20
-277.0
 30
0.0
  0
POINT
  5
262
  8
DEFPOINTS
  6
CONTINUOUS
 62
    30
 10
-684.418316
 20
-277.0
 30
0.0
  0
LINE
  5
263
  8
OUTLINE
  6
CONTINUOUS
 62
     3
 10
149.5
 20
167.0
 30
0.0
 11
-149.5
 21
167.0
 31
0.0
  0
LINE
  5
264
  8
OUTLINE
  6
CONTINUOUS
 62
     3
 10
-167.0
 20
0.0
 30
0.0
 11
-167.0
 21
149.5
 31
0.0
  0
ARC
  5
265
  8
OUTLINE
  6
CONTINUOUS
 62
     3
 10
-150.32548399999999
 20
-149.841927
 30
0.0
 40
17.177918999999999
 50
178.85945100000001
 51
272.75440800000001
  0
LINE
  5
266
  8
OUTLINE
  6
CONTINUOUS
 62
     3
 10
-147.0
 20
-167.0
 30
0.0
 11
-149.5
 21
-167.0
 31
0.0
  0
LINE
  5
267
  8
OUTLINE
  6
CONTINUOUS
 62
     3
 10
-167.5
 20
0.0
 30
0.0
 11
-167.5
 21
-149.5
 31
0.0
  0
ARC
  5
268
  8
OUTLINE
  6
CONTINUOUS
 62
     3
 10
-150.61966799999999
 20
150.61966799999999
 30
0.0
 40
16.418554
 50
86.089662000000004
 51
183.91033799999991
  0
LINE
  5
269
  8
OUTLINE
  6
CONTINUOUS
 62
     3
 10
167.0
 20
148.840397
 30
0.0
 11
167.0
 21
-150.159603
 31
0.0
  0
ARC
  5
26A
  8
OUTLINE
  6
CONTINUOUS
 62
     3
 10
150.63487499999999
 20
-150.660901
 30
0.0
 40
16.378464000000001
 50
266.02675099999999
 51
2.3126180000000001
  0
LINE
  5
26B
  8
OUTLINE
  6
CONTINUOUS
 62
     3
 10
13.0
 20
-167.0
 30
0.0
 11
149.5
 21
-167.0
 31
0.0
  0
ARC
  5
26C
  8
OUTLINE
  6
CONTINUOUS
 62
     3
 10
150.60128599999999
 20
150.549305
 30
0.0
 40
16.487515999999999
 50
354.05068799999998
 51
93.829930000000019
  0
LINE
  5
26D
  8
OUTLINE
  6
DASHED
 62
     3
 39
50.0
 10
13.0
 20
-167.0
 30
0.0
 11
-147.0
 21
-167.0
 31
0.0
  0
TEXT
  5
26E
  8
ETC
  6
CONTINUOUS
 62
    61
 10
674.39972366753284
 20
505.15356947167328
 30
0.0
 40
32.0
  1
VD-18ZL7
 41
0.9
  0
TEXT
  5
27C
  8
ETC
  6
CONTINUOUS
 62
    61
 10
674.39972366753284
 20
446.79207647181761
 30
0.0
 40
32.0
  1
VD-18ZL8
 41
0.9
  0
ENDSEC
  0
EOF
