  0
SECTION
  2
HEADER
  9
$ACADVER
  1
AC1009
  9
$DWGCODEPAGE
  3
dos932
  9
$INSBASE
 10
0.0
 20
0.0
 30
0.0
  9
$EXTMIN
 10
-483.09629675128599
 20
-418.16710252101439
 30
-0.0015258207003583
  9
$EXTMAX
 10
1432.521069169185
 20
803.00904147211622
 30
0.0000000349246037
  9
$LIMMIN
 10
-2970.0
 20
-2100.0
  9
$LIMMAX
 10
2970.0
 20
2100.0
  9
$ORTHOMODE
 70
     1
  9
$REGENMODE
 70
     1
  9
$FILLMODE
 70
     1
  9
$QTEXTMODE
 70
     0
  9
$MIRRTEXT
 70
     0
  9
$LTSCALE
 40
20.0
  9
$ATTMODE
 70
     1
  9
$TEXTSIZE
 40
64.0
  9
$TRACEWID
 40
0.05
  9
$TEXTSTYLE
  7
STANDARD
  9
$CLAYER
  8
SIZE
  9
$CELTYPE
  6
CONTINUOUS
  9
$CECOLOR
 62
     7
  9
$DIMSCALE
 40
1.0
  9
$DIMASZ
 40
12.0
  9
$DIMEXO
 40
20.0
  9
$DIMDLI
 40
200.0
  9
$DIMRND
 40
0.0
  9
$DIMDLE
 40
0.0
  9
$DIMEXE
 40
20.0
  9
$DIMTP
 40
0.0
  9
$DIMTM
 40
0.0
  9
$DIMTXT
 40
64.0
  9
$DIMCEN
 40
0.09
  9
$DIMTSZ
 40
0.0
  9
$DIMTOL
 70
     0
  9
$DIMLIM
 70
     0
  9
$DIMTIH
 70
     0
  9
$DIMTOH
 70
     0
  9
$DIMSE1
 70
     0
  9
$DIMSE2
 70
     0
  9
$DIMTAD
 70
     1
  9
$DIMZIN
 70
     8
  9
$DIMBLK
  1

  9
$DIMASO
 70
     1
  9
$DIMSHO
 70
     0
  9
$DIMPOST
  1

  9
$DIMAPOST
  1

  9
$DIMALT
 70
     0
  9
$DIMALTD
 70
     2
  9
$DIMALTF
 40
25.399999999999999
  9
$DIMLFAC
 40
1.0
  9
$DIMTOFL
 70
     1
  9
$DIMTVP
 40
0.0
  9
$DIMTIX
 70
     1
  9
$DIMSOXD
 70
     0
  9
$DIMSAH
 70
     0
  9
$DIMBLK1
  1

  9
$DIMBLK2
  1

  9
$DIMSTYLE
  2
STANDARD
  9
$DIMCLRD
 70
     7
  9
$DIMCLRE
 70
     7
  9
$DIMCLRT
 70
     7
  9
$DIMTFAC
 40
1.0
  9
$DIMGAP
 40
25.0
  9
$LUNITS
 70
     2
  9
$LUPREC
 70
     4
  9
$SKETCHINC
 40
0.1
  9
$FILLETRAD
 40
3.0
  9
$AUNITS
 70
     1
  9
$AUPREC
 70
     3
  9
$MENU
  1
ACAD
  9
$ELEVATION
 40
0.0
  9
$PELEVATION
 40
0.0
  9
$THICKNESS
 40
0.0
  9
$LIMCHECK
 70
     0
  9
$CHAMFERA
 40
0.0
  9
$CHAMFERB
 40
0.0
  9
$SKPOLY
 70
     0
  9
$TDCREATE
 40
2453019.62301037
  9
$TDUPDATE
 40
2459025.508681088
  9
$TDINDWG
 40
1.713800706
  9
$TDUSRTIMER
 40
1.713800706
  9
$USRTIMER
 70
     1
  9
$ANGBASE
 50
0.0
  9
$ANGDIR
 70
     0
  9
$PDMODE
 70
     3
  9
$PDSIZE
 40
-2.0
  9
$PLINEWID
 40
0.0
  9
$SPLFRAME
 70
     0
  9
$SPLINETYPE
 70
     6
  9
$SPLINESEGS
 70
     8
  9
$SURFTAB1
 70
     6
  9
$SURFTAB2
 70
     6
  9
$SURFTYPE
 70
     6
  9
$SURFU
 70
     6
  9
$SURFV
 70
     6
  9
$UCSNAME
  2

  9
$UCSORG
 10
0.0
 20
0.0
 30
0.0
  9
$UCSXDIR
 10
1.0
 20
0.0
 30
0.0
  9
$UCSYDIR
 10
0.0
 20
1.0
 30
0.0
  9
$PUCSNAME
  2

  9
$PUCSORG
 10
0.0
 20
0.0
 30
0.0
  9
$PUCSXDIR
 10
1.0
 20
0.0
 30
0.0
  9
$PUCSYDIR
 10
0.0
 20
1.0
 30
0.0
  9
$USERI1
 70
     0
  9
$USERI2
 70
     0
  9
$USERI3
 70
     0
  9
$USERI4
 70
     0
  9
$USERI5
 70
     0
  9
$USERR1
 40
20.0
  9
$USERR2
 40
0.0
  9
$USERR3
 40
0.0
  9
$USERR4
 40
0.0
  9
$USERR5
 40
0.0
  9
$WORLDVIEW
 70
     1
  9
$SHADEDGE
 70
     3
  9
$SHADEDIF
 70
    70
  9
$TILEMODE
 70
     1
  9
$MAXACTVP
 70
    48
  9
$PINSBASE
 10
0.0
 20
0.0
 30
0.0
  9
$PLIMCHECK
 70
     0
  9
$PEXTMIN
 10
-100000000000000000000.0
 20
-100000000000000000000.0
 30
-100000000000000000000.0
  9
$PEXTMAX
 10
100000000000000000000.0
 20
100000000000000000000.0
 30
100000000000000000000.0
  9
$PLIMMIN
 10
0.0
 20
0.0
  9
$PLIMMAX
 10
12.0
 20
9.0
  9
$UNITMODE
 70
     0
  9
$VISRETAIN
 70
     0
  9
$PLINEGEN
 70
     0
  9
$PSLTSCALE
 70
     0
  9
$TREEDEPTH
 70
  3020
  9
$ATTDIA
 70
     0
  9
$ATTREQ
 70
     1
  9
$BLIPMODE
 70
     1
  9
$COORDS
 70
     1
  9
$DRAGMODE
 70
     2
  9
$OSMODE
 70
     0
  9
$HANDLING
 70
     0
  9
$HANDSEED
  5
EFB4
  0
ENDSEC
  0
SECTION
  2
TABLES
  0
TABLE
  2
LTYPE
 70
     3
  0
LTYPE
  2
CONTINUOUS
 70
     0
  3
実線
 72
    65
 73
     0
 40
0.0
  0
LTYPE
  2
DASHDOT
 70
     0
  3
____ _ ____ _ ____ _ ____ _ ____ _ ____ _ ____
 72
    65
 73
     4
 40
5.5
 49
4.0
 49
-0.6
 49
0.3
 49
-0.6
  0
LTYPE
  2
CENTER
 70
     0
  3
Center ____ _ ____ _ ____ _ ____ _ ____ _ ____
 72
    65
 73
     4
 40
1.0
 49
0.5
 49
-0.25
 49
0.0
 49
-0.25
  0
ENDTAB
  0
TABLE
  2
LAYER
 70
    12
  0
LAYER
  2
0
 70
     0
 62
     7
  6
CONTINUOUS
  0
LAYER
  2
BASIS
 70
     0
 62
     6
  6
DASHDOT
  0
LAYER
  2
OUTLINE
 70
     0
 62
     3
  6
CONTINUOUS
  0
LAYER
  2
DETAIL
 70
     0
 62
     5
  6
CONTINUOUS
  0
LAYER
  2
SIZE
 70
     0
 62
    30
  6
CONTINUOUS
  0
LAYER
  2
ARRANGE
 70
     0
 62
     1
  6
CONTINUOUS
  0
LAYER
  2
DEFPOINTS
 70
     0
 62
     7
  6
CONTINUOUS
  0
LAYER
  2
ETC
 70
     0
 62
    61
  6
CONTINUOUS
  0
LAYER
  2
FIX
 70
     0
 62
    11
  6
CONTINUOUS
  0
LAYER
  2
NOTE
 70
     0
 62
     4
  6
CONTINUOUS
  0
LAYER
  2
SERVICESPACE
 70
    64
 62
     2
  6
DASHDOT
  0
LAYER
  2
SYMBOLLINE
 70
    64
 62
    15
  6
CONTINUOUS
  0
ENDTAB
  0
TABLE
  2
STYLE
 70
     1
  0
STYLE
  2
STANDARD
 70
     0
 40
64.0
 41
0.9
 50
0.0
 71
     0
 42
64.0
  3
SIMPLEX.shx
  4
BIGFONT.shx
  0
ENDTAB
  0
TABLE
  2
APPID
 70
    19
  0
APPID
  2
ACAD
 70
     0
  0
APPID
  2
AUTOCAD_POSTSCRIPT_FIGURE
 70
     0
  0
APPID
  2
ACAD_EXEMPT_FROM_CAD_STANDARDS
 70
     0
  0
APPID
  2
ACAD_PSEXT
 70
     0
  0
APPID
  2
ACAUTHENVIRON
 70
     0
  0
APPID
  2
GENIUS_GENOENT_13
 70
     0
  0
APPID
  2
GENIUS_GENCFG_13
 70
     0
  0
APPID
  2
GENIUS_GENCFG0_13
 70
     0
  0
APPID
  2
GENIUS_GENCFG1_13
 70
     0
  0
APPID
  2
GENIUS_GENCFG2_13
 70
     0
  0
APPID
  2
GENIUS_GENCFG3_13
 70
     0
  0
APPID
  2
GENIUS_GENCFG4_13
 70
     0
  0
APPID
  2
GENIUS_GEVCFG0_13
 70
     0
  0
APPID
  2
CONTENTBLOCKICON
 70
     0
  0
APPID
  2
CONTENTBLOCKDESCRIPTION
 70
     0
  0
APPID
  2
ACAD_NAV_VCDISPLAY
 70
     0
  0
APPID
  2
ACAD_MLEADERVER
 70
     0
  0
APPID
  2
ACDBDYNAMICBLOCKTRUENAME
 70
     0
  0
APPID
  2
ACDBDYNAMICBLOCKGUID
 70
     0
  0
ENDTAB
  0
TABLE
  2
DIMSTYLE
 70
     1
  0
DIMSTYLE
  2
STANDARD
 70
     0
  3

  4

  5
_ORIGIN
  6

  7

 40
1.0
 41
12.0
 42
20.0
 43
200.0
 44
20.0
 45
0.0
 46
0.0
 47
0.0
 48
0.0
140
64.0
141
0.09
142
0.0
143
25.399999999999999
144
1.0
145
0.0
146
1.0
147
25.0
 71
     0
 72
     0
 73
     0
 74
     0
 75
     0
 76
     0
 77
     1
 78
     8
170
     0
171
     2
172
     1
173
     0
174
     1
175
     0
176
     7
177
     7
178
     7
  0
ENDTAB
  0
TABLE
  2
VIEW
 70
     1
  0
VIEW
  2
ALL
 70
     0
 40
4282.6198079999986
 10
0.0
 20
41.309904000000003
 41
5940.0
 11
0.0
 21
0.0
 31
1.0
 12
0.0
 22
0.0
 32
0.0
 42
50.0
 43
0.0
 44
0.0
 50
0.0
 71
     0
  0
ENDTAB
  0
TABLE
  2
UCS
 70
     0
  0
ENDTAB
  0
TABLE
  2
VPORT
 70
     1
  0
VPORT
  2
*ACTIVE
 70
     0
 10
0.0
 20
0.0
 11
1.0
 21
1.0
 12
474.71238620894928
 22
192.42096947555089
 13
0.0
 23
0.0
 14
1.0
 24
1.0
 15
0.0
 25
0.0
 16
0.0
 26
0.0
 36
1.0
 17
0.0
 27
0.0
 37
0.0
 40
1229.272339422919
 41
1.747787610619469
 42
50.0
 43
0.0
 44
0.0
 50
0.0
 51
0.0
 71
     0
 72
  1000
 73
     1
 74
     3
 75
     0
 76
     0
 77
     0
 78
     0
  0
ENDTAB
  0
ENDSEC
  0
SECTION
  2
BLOCKS
  0
BLOCK
  8
0
  2
_ORIGIN
 70
     0
 10
0.0
 20
0.0
 30
0.0
  3
_ORIGIN
  1
_ORIGIN
  0
CIRCLE
  8
0
  6
CONTINUOUS
 62
     7
 10
0.0
 20
0.0
 30
0.0
 40
0.5
  0
LINE
  8
0
  6
CONTINUOUS
 62
     7
 10
0.0
 20
0.0
 30
0.0
 11
-1.0
 21
0.0
 31
0.0
  0
ENDBLK
  8
0
  0
ENDSEC
  0
SECTION
  2
ENTITIES
  0
LINE
  8
NOTE
  6
CONTINUOUS
 62
     4
 10
165.0
 20
0.0
 30
0.0
 11
400.28356798458663
 21
264.8116364789787
 31
0.0
  0
LINE
  8
NOTE
  6
CONTINUOUS
 62
     4
 10
165.0
 20
0.0
 30
0.0
 11
196.31274534757901
 21
22.683422418883421
 31
0.0
  0
LINE
  8
NOTE
  6
CONTINUOUS
 62
     4
 10
183.99527469402349
 20
35.19929633376114
 30
0.0
 11
165.0
 21
0.0
 31
0.0
  0
TEXT
  8
NOTE
  6
CONTINUOUS
 62
     4
 10
-42.174279865268488
 20
80.529897820364909
 30
0.0
 40
64.0
  1
EA
 41
0.9
  0
TEXT
  8
NOTE
  6
CONTINUOUS
 62
     4
 10
277.67788632959349
 20
435.54162902696243
 30
0.0
 40
64.0
  1
EL
 41
0.9
  0
LINE
  8
NOTE
  6
CONTINUOUS
 62
     4
 10
400.82094409062069
 20
399.29841560060129
 30
0.0
 11
232.29645256420139
 21
399.298415600559
 31
0.0
  0
LINE
  8
NOTE
  6
CONTINUOUS
 62
     4
 10
115.0
 20
182.69999999999999
 30
0.0
 11
232.29645256420139
 21
399.298415600559
 31
0.0
  0
LINE
  8
NOTE
  6
CONTINUOUS
 62
     4
 10
115.0
 20
182.69999999999999
 30
0.0
 11
143.0733740441126
 21
209.34394918745011
 31
0.0
  0
LINE
  8
NOTE
  6
CONTINUOUS
 62
     4
 10
122.3025623945784
 20
221.95804970384549
 30
0.0
 11
115.0
 21
182.69999999999999
 31
0.0
  0
CIRCLE
  8
FIX
  6
CONTINUOUS
 62
    11
 10
165.0
 20
0.0
 30
0.0
 40
10.0
  0
CIRCLE
  8
ARRANGE
  6
CONTINUOUS
 62
     1
 10
0.0
 20
0.0
 30
0.0
 40
40.0
  0
POINT
  8
ARRANGE
  6
CONTINUOUS
 62
     1
 10
0.0
 20
0.0
 30
0.0
 50
90.0
  0
LINE
  8
BASIS
  6
DASHDOT
 62
     6
 10
0.0
 20
266.822855
 30
0.0
 11
0.0
 21
-64.551895430137847
 31
0.0
  0
CIRCLE
  8
FIX
  6
CONTINUOUS
 62
    11
 10
100.0
 20
0.0
 30
0.0
 40
10.0
  0
CIRCLE
  8
FIX
  6
CONTINUOUS
 62
    11
 10
-100.0
 20
0.0
 30
0.0
 40
10.0
  0
CIRCLE
  8
FIX
  6
CONTINUOUS
 62
    11
 10
-165.0
 20
0.0
 30
0.0
 40
10.0
  0
LINE
  8
SIZE
  6
CONTINUOUS
 62
    30
 10
-70.0
 20
52.399999999999977
 30
0.0
 11
-285.39087640117032
 21
52.400000000000027
 31
0.0
  0
LINE
  8
SIZE
  6
CONTINUOUS
 62
    30
 10
-201.375
 20
0.0
 30
0.0
 11
-285.39087640117032
 21
0.0000000000000568
 31
0.0
  0
LINE
  8
SIZE
  6
CONTINUOUS
 62
    30
 10
-265.39087640117032
 20
64.400000000000034
 30
0.0
 11
-265.39087640117032
 21
76.400000000000034
 31
0.0
  0
LINE
  8
SIZE
  6
CONTINUOUS
 62
    30
 10
-265.39087640117032
 20
-12.0
 30
0.0
 11
-265.39087640117037
 21
-167.25714285714281
 31
0.0
  0
LINE
  8
SIZE
  6
CONTINUOUS
 62
    30
 10
-265.39087640117032
 20
52.400000000000027
 30
0.0
 11
-265.39087640117032
 21
0.0
 31
0.0
  0
CIRCLE
  8
SIZE
  6
CONTINUOUS
 62
    30
 10
-265.39087640117032
 20
52.400000000000027
 30
0.0
 40
6.0
  0
LINE
  8
SIZE
  6
CONTINUOUS
 62
    30
 10
-265.39087640117032
 20
52.400000000000027
 30
0.0
 11
-265.39087640117032
 21
64.400000000000034
 31
0.0
  0
CIRCLE
  8
SIZE
  6
CONTINUOUS
 62
    30
 10
-265.39087640117032
 20
0.0
 30
0.0
 40
6.0
  0
LINE
  8
SIZE
  6
CONTINUOUS
 62
    30
 10
-265.39087640117032
 20
0.0
 30
0.0
 11
-265.39087640117032
 21
-12.0
 31
0.0
  0
TEXT
  8
SIZE
  6
CONTINUOUS
 62
    30
 10
-290.39087640117032
 20
-142.2571428571429
 30
0.0
 40
64.0
  1
52
 50
90.0
 41
0.9
 72
     1
 11
-290.39087640117032
 21
-95.628571428571433
 31
0.0
  0
POINT
  8
DEFPOINTS
  6
CONTINUOUS
 62
    30
 10
-50.0
 20
52.399999999999977
 30
0.0
  0
POINT
  8
DEFPOINTS
  6
CONTINUOUS
 62
    30
 10
-181.375
 20
0.0
 30
0.0
  0
POINT
  8
DEFPOINTS
  6
CONTINUOUS
 62
    30
 10
-265.39087640117032
 20
0.0
 30
0.0
  0
LINE
  8
SIZE
  6
CONTINUOUS
 62
    30
 10
-71.900000000000091
 20
109.0004
 30
0.0
 11
-413.99270622117717
 21
109.0004000000001
 31
0.0
  0
LINE
  8
SIZE
  6
CONTINUOUS
 62
    30
 10
-201.375
 20
0.0
 30
0.0
 11
-413.99270622117717
 21
0.0000000000000568
 31
0.0
  0
LINE
  8
SIZE
  6
CONTINUOUS
 62
    30
 10
-393.99270622117717
 20
121.0004000000001
 30
0.0
 11
-393.99270622117717
 21
133.0004000000001
 31
0.0
  0
LINE
  8
SIZE
  6
CONTINUOUS
 62
    30
 10
-393.99270622117717
 20
-11.99999999999994
 30
0.0
 11
-393.99270622117717
 21
-23.99999999999994
 31
0.0
  0
LINE
  8
SIZE
  6
CONTINUOUS
 62
    30
 10
-393.99270622117717
 20
109.0004000000001
 30
0.0
 11
-393.99270622117717
 21
0.0000000000000568
 31
0.0
  0
CIRCLE
  8
SIZE
  6
CONTINUOUS
 62
    30
 10
-393.99270622117717
 20
109.0004000000001
 30
0.0
 40
6.0
  0
LINE
  8
SIZE
  6
CONTINUOUS
 62
    30
 10
-393.99270622117717
 20
109.0004000000001
 30
0.0
 11
-393.99270622117717
 21
121.0004000000001
 31
0.0
  0
CIRCLE
  8
SIZE
  6
CONTINUOUS
 62
    30
 10
-393.99270622117717
 20
0.0000000000000568
 30
0.0
 40
6.0
  0
LINE
  8
SIZE
  6
CONTINUOUS
 62
    30
 10
-393.99270622117717
 20
0.0000000000000568
 30
0.0
 11
-393.99270622117717
 21
-11.99999999999994
 31
0.0
  0
TEXT
  8
SIZE
  6
CONTINUOUS
 62
    30
 10
-418.99270622117717
 20
-12.69979999999998
 30
0.0
 40
64.0
  1
109
 50
90.0
 41
0.9
 72
     1
 11
-418.99270622117717
 21
54.500200000000007
 31
0.0
  0
POINT
  8
DEFPOINTS
  6
CONTINUOUS
 62
    30
 10
-51.900000000000091
 20
109.0004
 30
0.0
  0
POINT
  8
DEFPOINTS
  6
CONTINUOUS
 62
    30
 10
-181.375
 20
0.0
 30
0.0
  0
POINT
  8
DEFPOINTS
  6
CONTINUOUS
 62
    30
 10
-393.99270622117717
 20
0.0000000000000568
 30
0.0
  0
LINE
  8
SIZE
  6
CONTINUOUS
 62
    30
 10
215.0
 20
0.0000000000001137
 30
0.0
 11
472.66734055527922
 21
0.0000000000000568
 31
0.0
  0
LINE
  8
SIZE
  6
CONTINUOUS
 62
    30
 10
198.30472199999991
 20
-7.0
 30
0.0
 11
472.66734055527922
 21
-7.0000000000000568
 31
0.0
  0
LINE
  8
SIZE
  6
CONTINUOUS
 62
    30
 10
452.66734055527922
 20
12.00000000000006
 30
0.0
 11
452.66734055527922
 21
24.00000000000006
 31
0.0
  0
LINE
  8
SIZE
  6
CONTINUOUS
 62
    30
 10
452.66734055527922
 20
-19.00000000000006
 30
0.0
 11
452.66734055527922
 21
-151.8428571428569
 31
0.0
  0
LINE
  8
SIZE
  6
CONTINUOUS
 62
    30
 10
452.66734055527922
 20
0.0000000000000568
 30
0.0
 11
452.66734055527922
 21
-7.0000000000000568
 31
0.0
  0
CIRCLE
  8
SIZE
  6
CONTINUOUS
 62
    30
 10
452.66734055527922
 20
0.0000000000000568
 30
0.0
 40
6.0
  0
LINE
  8
SIZE
  6
CONTINUOUS
 62
    30
 10
452.66734055527922
 20
0.0000000000000568
 30
0.0
 11
452.66734055527922
 21
12.00000000000006
 31
0.0
  0
CIRCLE
  8
SIZE
  6
CONTINUOUS
 62
    30
 10
452.66734055527922
 20
-7.0000000000000568
 30
0.0
 40
6.0
  0
LINE
  8
SIZE
  6
CONTINUOUS
 62
    30
 10
452.66734055527922
 20
-7.0000000000000568
 30
0.0
 11
452.66734055527922
 21
-19.00000000000006
 31
0.0
  0
TEXT
  8
SIZE
  6
CONTINUOUS
 62
    30
 10
427.66734055527922
 20
-126.8428571428568
 30
0.0
 40
64.0
  1
7
 50
90.0
 41
0.9
 72
     1
 11
427.66734055527922
 21
-107.6428571428568
 31
0.0
  0
POINT
  8
DEFPOINTS
  6
CONTINUOUS
 62
    30
 10
195.0
 20
0.0000000000001137
 30
0.0
  0
POINT
  8
DEFPOINTS
  6
CONTINUOUS
 62
    30
 10
178.30472199999991
 20
-7.0
 30
0.0
  0
POINT
  8
DEFPOINTS
  6
CONTINUOUS
 62
    30
 10
452.66734055527922
 20
-7.0000000000000568
 30
0.0
  0
LINE
  8
SIZE
  6
CONTINUOUS
 62
    30
 10
215.0
 20
0.0000000000001137
 30
0.0
 11
472.66734055527922
 21
0.0000000000000568
 31
0.0
  0
LINE
  8
SIZE
  6
CONTINUOUS
 62
    30
 10
78.5
 20
200.00003000000001
 30
0.0
 11
472.66734055527922
 21
200.0000299999999
 31
0.0
  0
LINE
  8
SIZE
  6
CONTINUOUS
 62
    30
 10
452.66734055527922
 20
12.00000000000006
 30
0.0
 11
452.66734055527922
 21
188.0000299999999
 31
0.0
  0
CIRCLE
  8
SIZE
  6
CONTINUOUS
 62
    30
 10
452.66734055527922
 20
0.0000000000000568
 30
0.0
 40
6.0
  0
LINE
  8
SIZE
  6
CONTINUOUS
 62
    30
 10
452.66734055527922
 20
0.0000000000000568
 30
0.0
 11
452.66734055527922
 21
12.00000000000006
 31
0.0
  0
CIRCLE
  8
SIZE
  6
CONTINUOUS
 62
    30
 10
452.66734055527922
 20
200.0000299999999
 30
0.0
 40
6.0
  0
LINE
  8
SIZE
  6
CONTINUOUS
 62
    30
 10
452.66734055527922
 20
200.0000299999999
 30
0.0
 11
452.66734055527922
 21
188.0000299999999
 31
0.0
  0
TEXT
  8
SIZE
  6
CONTINUOUS
 62
    30
 10
427.66734055527922
 20
25.942872142857109
 30
0.0
 40
64.0
  1
200
 50
90.0
 41
0.9
 72
     1
 11
427.66734055527922
 21
100.000015
 31
0.0
  0
POINT
  8
DEFPOINTS
  6
CONTINUOUS
 62
    30
 10
195.0
 20
0.0000000000001137
 30
0.0
  0
POINT
  8
DEFPOINTS
  6
CONTINUOUS
 62
    30
 10
58.5
 20
200.00003000000001
 30
0.0
  0
POINT
  8
DEFPOINTS
  6
CONTINUOUS
 62
    30
 10
452.66734055527922
 20
200.0000299999999
 30
0.0
  0
LINE
  8
SIZE
  6
CONTINUOUS
 62
    30
 10
-155.0
 20
20.00000000000011
 30
0.0
 11
-155.0
 21
474.9588139890875
 31
0.0
  0
LINE
  8
SIZE
  6
CONTINUOUS
 62
    30
 10
155.0
 20
20.00000000000011
 30
0.0
 11
155.0
 21
474.9588139890875
 31
0.0
  0
LINE
  8
SIZE
  6
CONTINUOUS
 62
    30
 10
-143.0
 20
454.9588139890875
 30
0.0
 11
143.0
 21
454.9588139890875
 31
0.0
  0
CIRCLE
  8
SIZE
  6
CONTINUOUS
 62
    30
 10
-155.0
 20
454.9588139890875
 30
0.0
 40
6.0
  0
LINE
  8
SIZE
  6
CONTINUOUS
 62
    30
 10
-155.0
 20
454.9588139890875
 30
0.0
 11
-143.0
 21
454.9588139890875
 31
0.0
  0
CIRCLE
  8
SIZE
  6
CONTINUOUS
 62
    30
 10
155.0
 20
454.9588139890875
 30
0.0
 40
6.0
  0
LINE
  8
SIZE
  6
CONTINUOUS
 62
    30
 10
155.0
 20
454.9588139890875
 30
0.0
 11
143.0
 21
454.9588139890875
 31
0.0
  0
TEXT
  8
SIZE
  6
CONTINUOUS
 62
    30
 10
-105.0514285714286
 20
479.9588139890875
 30
0.0
 40
64.0
  1
□310
 41
0.9
 72
     1
 11
0.0
 21
479.9588139890875
 31
0.0
  0
POINT
  8
DEFPOINTS
  6
CONTINUOUS
 62
    30
 10
-155.0
 20
0.0000000000001137
 30
0.0
  0
POINT
  8
DEFPOINTS
  6
CONTINUOUS
 62
    30
 10
155.0
 20
0.0000000000001137
 30
0.0
  0
POINT
  8
DEFPOINTS
  6
CONTINUOUS
 62
    30
 10
155.0
 20
454.9588139890875
 30
0.0
  0
LINE
  8
SIZE
  6
CONTINUOUS
 62
    30
 10
-100.0
 20
-27.26081099999999
 30
0.0
 11
-100.0
 21
-185.27032678310351
 31
0.0
  0
LINE
  8
SIZE
  6
CONTINUOUS
 62
    30
 10
100.0
 20
-27.26081099999999
 30
0.0
 11
100.0
 21
-185.27032678310351
 31
0.0
  0
LINE
  8
SIZE
  6
CONTINUOUS
 62
    30
 10
-88.0
 20
-165.27032678310351
 30
0.0
 11
88.0
 21
-165.27032678310351
 31
0.0
  0
CIRCLE
  8
SIZE
  6
CONTINUOUS
 62
    30
 10
-100.0
 20
-165.27032678310351
 30
0.0
 40
6.0
  0
LINE
  8
SIZE
  6
CONTINUOUS
 62
    30
 10
-100.0
 20
-165.27032678310351
 30
0.0
 11
-88.0
 21
-165.27032678310351
 31
0.0
  0
CIRCLE
  8
SIZE
  6
CONTINUOUS
 62
    30
 10
100.0
 20
-165.27032678310351
 30
0.0
 40
6.0
  0
LINE
  8
SIZE
  6
CONTINUOUS
 62
    30
 10
100.0
 20
-165.27032678310351
 30
0.0
 11
88.0
 21
-165.27032678310351
 31
0.0
  0
TEXT
  8
SIZE
  6
CONTINUOUS
 62
    30
 10
-74.05714285714285
 20
-140.27032678310351
 30
0.0
 40
64.0
  1
200
 41
0.9
 72
     1
 11
0.0
 21
-140.27032678310351
 31
0.0
  0
POINT
  8
DEFPOINTS
  6
CONTINUOUS
 62
    30
 10
-100.0
 20
-7.2608109999999897
 30
0.0
  0
POINT
  8
DEFPOINTS
  6
CONTINUOUS
 62
    30
 10
100.0
 20
-7.2608109999999897
 30
0.0
  0
POINT
  8
DEFPOINTS
  6
CONTINUOUS
 62
    30
 10
100.0
 20
-165.27032678310351
 30
0.0
  0
LINE
  8
SIZE
  6
CONTINUOUS
 62
    30
 10
-165.0
 20
-27.26081099999999
 30
0.0
 11
-165.0
 21
-304.02235530715137
 31
0.0
  0
LINE
  8
SIZE
  6
CONTINUOUS
 62
    30
 10
165.0
 20
-27.160034
 30
0.0
 11
165.0
 21
-304.02235530715137
 31
0.0
  0
LINE
  8
SIZE
  6
CONTINUOUS
 62
    30
 10
-153.0
 20
-284.02235530715149
 30
0.0
 11
153.0
 21
-284.02235530715149
 31
0.0
  0
CIRCLE
  8
SIZE
  6
CONTINUOUS
 62
    30
 10
-165.0
 20
-284.02235530715149
 30
0.0
 40
6.0
  0
LINE
  8
SIZE
  6
CONTINUOUS
 62
    30
 10
-165.0
 20
-284.02235530715149
 30
0.0
 11
-153.0
 21
-284.02235530715149
 31
0.0
  0
CIRCLE
  8
SIZE
  6
CONTINUOUS
 62
    30
 10
165.0
 20
-284.02235530715149
 30
0.0
 40
6.0
  0
LINE
  8
SIZE
  6
CONTINUOUS
 62
    30
 10
165.0
 20
-284.02235530715149
 30
0.0
 11
153.0
 21
-284.02235530715149
 31
0.0
  0
TEXT
  8
SIZE
  6
CONTINUOUS
 62
    30
 10
-74.057142857142864
 20
-259.02235530715137
 30
0.0
 40
64.0
  1
330
 41
0.9
 72
     1
 11
0.0
 21
-259.02235530715137
 31
0.0
  0
POINT
  8
DEFPOINTS
  6
CONTINUOUS
 62
    30
 10
-165.0
 20
-7.2608109999999897
 30
0.0
  0
POINT
  8
DEFPOINTS
  6
CONTINUOUS
 62
    30
 10
165.0
 20
-7.160033999999996
 30
0.0
  0
POINT
  8
DEFPOINTS
  6
CONTINUOUS
 62
    30
 10
165.0
 20
-284.02235530715149
 30
0.0
  0
LINE
  8
SIZE
  6
CONTINUOUS
 62
    30
 10
-181.3042660000001
 20
-24.05235800000003
 30
0.0
 11
-181.3042660000001
 21
-417.92853488424998
 31
0.0
  0
LINE
  8
SIZE
  6
CONTINUOUS
 62
    30
 10
181.3042650854691
 20
-24.05235721931194
 30
0.0
 11
181.3042650854691
 21
-417.92853488424998
 31
0.0
  0
LINE
  8
SIZE
  6
CONTINUOUS
 62
    30
 10
-169.3042660000001
 20
-397.92853488424998
 30
0.0
 11
169.30426508546901
 21
-397.92853488424998
 31
0.0
  0
CIRCLE
  8
SIZE
  6
CONTINUOUS
 62
    30
 10
-181.3042660000001
 20
-397.92853488424998
 30
0.0
 40
6.0
  0
LINE
  8
SIZE
  6
CONTINUOUS
 62
    30
 10
-181.3042660000001
 20
-397.92853488424998
 30
0.0
 11
-169.3042660000001
 21
-397.92853488424998
 31
0.0
  0
CIRCLE
  8
SIZE
  6
CONTINUOUS
 62
    30
 10
181.3042650854691
 20
-397.92853488424998
 30
0.0
 40
6.0
  0
LINE
  8
SIZE
  6
CONTINUOUS
 62
    30
 10
181.3042650854691
 20
-397.92853488424998
 30
0.0
 11
169.30426508546901
 21
-397.92853488424998
 31
0.0
  0
TEXT
  8
SIZE
  6
CONTINUOUS
 62
    30
 10
-74.057143314408407
 20
-372.92853488424998
 30
0.0
 40
64.0
  1
362
 41
0.9
 72
     1
 11
-0.0000004572655712
 21
-372.92853488424998
 31
0.0
  0
POINT
  8
DEFPOINTS
  6
CONTINUOUS
 62
    30
 10
-181.3042660000001
 20
-4.0523580000000274
 30
0.0
  0
POINT
  8
DEFPOINTS
  6
CONTINUOUS
 62
    30
 10
181.3042650854691
 20
-4.0523572193119426
 30
0.0
  0
POINT
  8
DEFPOINTS
  6
CONTINUOUS
 62
    30
 10
181.3042650854691
 20
-397.92853488424998
 30
0.0
  0
LINE
  8
NOTE
  6
CENTER
 62
     4
 10
115.0
 20
166.9279369999999
 30
0.0
 11
115.0
 21
193.58084700000009
 31
0.0
  0
LINE
  8
NOTE
  6
CENTER
 62
     4
 10
165.0
 20
-7.160033999999996
 30
0.0
 11
165.0
 21
7.5171460000000252
 31
0.0
  0
LINE
  8
NOTE
  6
CENTER
 62
     4
 10
100.0
 20
-7.160033999999996
 30
0.0
 11
100.0
 21
7.5171460000000252
 31
0.0
  0
LINE
  8
NOTE
  6
CENTER
 62
     4
 10
-100.0
 20
-7.160033999999996
 30
0.0
 11
-100.0
 21
7.5171460000000252
 31
0.0
  0
LINE
  8
NOTE
  6
CENTER
 62
     4
 10
-165.0
 20
-7.160033999999996
 30
0.0
 11
-165.0
 21
7.5171460000000252
 31
0.0
  0
LINE
  8
BASIS
  6
DASHDOT
 62
     6
 10
51.899999999999856
 20
109.0004
 30
0.0
 11
-51.900000000000091
 21
109.0004
 31
0.0
  0
LINE
  8
SIZE
  6
CONTINUOUS
 62
    30
 10
-358.48274421831701
 20
389.55114710263138
 30
0.0
 11
-47.959117269618901
 21
146.53349300762369
 31
0.0
  0
LINE
  8
SIZE
  6
CONTINUOUS
 62
    30
 10
47.959117269618901
 20
71.467306992376166
 30
0.0
 11
57.409189638016763
 21
64.071623641120254
 31
0.0
  0
TEXT
  8
SIZE
  6
CONTINUOUS
 62
    30
 10
-334.61950581738148
 20
402.62142214774138
 30
0.0
 40
64.0
  1
φ98
 50
321.95305319475381
 41
0.9
 72
     1
 11
-266.14698145664772
 21
349.03441363692701
 31
0.0
  0
LINE
  8
SIZE
  6
CONTINUOUS
 62
    30
 10
38.509044901221053
 20
78.862990343632134
 30
0.0
 11
-38.509044901221053
 21
139.13780965636781
 31
0.0
  0
CIRCLE
  8
SIZE
  6
CONTINUOUS
 62
    30
 10
38.509044901221053
 20
78.862990343632134
 30
0.0
 40
6.0
  0
LINE
  8
SIZE
  6
CONTINUOUS
 62
    30
 10
38.509044901221053
 20
78.862990343632134
 30
0.0
 11
47.959117269618901
 21
71.467306992376166
 31
0.0
  0
CIRCLE
  8
SIZE
  6
CONTINUOUS
 62
    30
 10
-38.509044901221053
 20
139.13780965636781
 30
0.0
 40
6.0
  0
LINE
  8
SIZE
  6
CONTINUOUS
 62
    30
 10
-38.509044901221053
 20
139.13780965636781
 30
0.0
 11
-47.959117269618901
 21
146.53349300762369
 31
0.0
  0
POINT
  8
DEFPOINTS
  6
CONTINUOUS
 62
    30
 10
-38.509044901221053
 20
139.13780965636781
 30
0.0
  0
POINT
  8
DEFPOINTS
  6
CONTINUOUS
 62
    30
 10
38.509044901221053
 20
78.862990343632134
 30
0.0
  0
LINE
  8
SIZE
  6
CONTINUOUS
 62
    30
 10
-439.98438079584798
 20
225.38008872868801
 30
0.0
 11
-62.355527961980101
 21
125.4939785256782
 31
0.0
  0
LINE
  8
SIZE
  6
CONTINUOUS
 62
    30
 10
62.355527961980101
 20
92.506821474321725
 30
0.0
 11
73.956556420022935
 21
89.438248725358335
 31
0.0
  0
TEXT
  8
SIZE
  6
CONTINUOUS
 62
    30
 10
-423.21136258185868
 20
246.80325601851419
 30
0.0
 40
64.0
  1
φ105
 50
345.18407943147031
 41
0.9
 72
     1
 11
-317.94031577401881
 21
218.95815015934909
 31
0.0
  0
LINE
  8
SIZE
  6
CONTINUOUS
 62
    30
 10
50.754499503937268
 20
95.575394223285116
 30
0.0
 11
-50.754499503937268
 21
122.4254057767149
 31
0.0
  0
CIRCLE
  8
SIZE
  6
CONTINUOUS
 62
    30
 10
50.754499503937268
 20
95.575394223285116
 30
0.0
 40
6.0
  0
LINE
  8
SIZE
  6
CONTINUOUS
 62
    30
 10
50.754499503937268
 20
95.575394223285116
 30
0.0
 11
62.355527961980101
 21
92.506821474321782
 31
0.0
  0
CIRCLE
  8
SIZE
  6
CONTINUOUS
 62
    30
 10
-50.754499503937268
 20
122.4254057767149
 30
0.0
 40
6.0
  0
LINE
  8
SIZE
  6
CONTINUOUS
 62
    30
 10
-50.754499503937268
 20
122.4254057767149
 30
0.0
 11
-62.355527961980101
 21
125.4939785256782
 31
0.0
  0
POINT
  8
DEFPOINTS
  6
CONTINUOUS
 62
    30
 10
-50.754499503937268
 20
122.4254057767149
 30
0.0
  0
POINT
  8
DEFPOINTS
  6
CONTINUOUS
 62
    30
 10
50.754499503937268
 20
95.575394223285116
 30
0.0
  0
TEXT
  8
ETC
  6
CONTINUOUS
 62
    61
 10
579.24799399669473
 20
738.81576053473918
 30
0.0
 40
64.0
  1
VD-18ZLSC13-IN_2
 41
0.9
  0
TEXT
  8
ETC
  6
CONTINUOUS
 62
    61
 10
575.06199999669434
 20
620.860450519908
 30
0.0
 40
64.0
  1
換気扇
 41
0.9
  0
TEXT
  8
ETC
  6
CONTINUOUS
 62
    61
 10
625.7633982452503
 20
512.71167763368283
 30
0.0
 40
40.0
  1
VD-18ZLSC13-IN
 41
0.9
  0
LINE
  8
OUTLINE
  6
CONTINUOUS
 62
     3
 10
-17.5
 20
182.6999999999999
 30
0.0
 11
-119.0
 21
182.6999999999999
 31
0.0
  0
LINE
  8
OUTLINE
  6
CONTINUOUS
 62
     3
 10
64.0
 20
182.6999999999999
 30
0.0
 11
119.0
 21
182.6999999999999
 31
0.0
  0
LINE
  8
OUTLINE
  6
CONTINUOUS
 62
     3
 10
-155.0
 20
0.0
 30
0.0
 11
-152.09847600000009
 21
166.20334199999991
 31
0.0
  0
LINE
  8
OUTLINE
  6
CONTINUOUS
 62
     3
 10
155.0
 20
0.0
 30
0.0
 11
152.09847499999981
 21
166.20334199999991
 31
0.0
  0
LINE
  8
OUTLINE
  6
CONTINUOUS
 62
     3
 10
-143.90417400000001
 20
174.74999999999989
 30
0.0
 11
-124.18271799999999
 21
174.74999999999989
 31
0.0
  0
LINE
  8
OUTLINE
  6
CONTINUOUS
 62
     3
 10
-124.132077
 20
177.78345799999991
 30
0.0
 11
-124.18271799999999
 21
174.74999999999989
 31
0.0
  0
LINE
  8
OUTLINE
  6
CONTINUOUS
 62
     3
 10
143.9041729999999
 20
174.74999999999989
 30
0.0
 11
124.1827169999999
 21
174.74999999999989
 31
0.0
  0
LINE
  8
OUTLINE
  6
CONTINUOUS
 62
     3
 10
124.1320759999999
 20
177.78345799999991
 30
0.0
 11
124.1827169999999
 21
174.74999999999989
 31
0.0
  0
LINE
  8
OUTLINE
  6
CONTINUOUS
 62
     3
 10
64.0
 20
182.6999999999999
 30
0.0
 11
64.0
 21
194.5000299999999
 31
0.0
  0
ARC
  8
OUTLINE
  6
CONTINUOUS
 62
     3
 10
-143.90417400000001
 20
169.74999999999989
 30
0.0
 40
5.0
 50
90.0
 51
134.49999999999309
  0
LINE
  8
OUTLINE
  6
CONTINUOUS
 62
     3
 10
-150.59545
 20
170.18466099999989
 30
0.0
 11
-147.4087200000001
 21
173.31625199999979
 31
0.0
  0
ARC
  8
OUTLINE
  6
CONTINUOUS
 62
     3
 10
-147.09090399999991
 20
166.6184089999999
 30
0.0
 40
5.0
 50
134.49999999999309
 51
177.86397600000271
  0
LINE
  8
OUTLINE
  6
CONTINUOUS
 62
     3
 10
-152.11991500000019
 20
164.99999999999989
 30
0.0
 11
-152.11917700000001
 21
164.99999999999989
 31
0.0
  0
LINE
  8
OUTLINE
  6
CONTINUOUS
 62
     3
 10
-152.0874289999999
 20
166.80476899999991
 30
0.0
 11
-152.09847600000009
 21
166.20334199999991
 31
0.0
  0
LINE
  8
OUTLINE
  6
CONTINUOUS
 62
     3
 10
-17.5
 20
182.6999999999999
 30
0.0
 11
-17.5
 21
194.5000299999999
 31
0.0
  0
LINE
  8
OUTLINE
  6
CONTINUOUS
 62
     3
 10
-12.0
 20
200.0000299999999
 30
0.0
 11
58.5
 21
200.0000299999999
 31
0.0
  0
ARC
  8
OUTLINE
  6
CONTINUOUS
 62
     3
 10
-12.0
 20
194.5000299999999
 30
0.0
 40
5.5
 50
90.0
 51
180.0
  0
ARC
  8
OUTLINE
  6
CONTINUOUS
 62
     3
 10
58.5
 20
194.5000299999999
 30
0.0
 40
5.5
 50
0.0
 51
90.0
  0
ARC
  8
OUTLINE
  6
CONTINUOUS
 62
     3
 10
-119.1327740000002
 20
177.6999999999999
 30
0.0
 40
5.0
 50
90.0
 51
179.04359100000161
  0
ARC
  8
OUTLINE
  6
CONTINUOUS
 62
     3
 10
143.9041729999999
 20
169.74999999999989
 30
0.0
 40
5.0
 50
45.500000000006928
 51
90.0
  0
LINE
  8
OUTLINE
  6
CONTINUOUS
 62
     3
 10
150.59544899999989
 20
170.18466099999989
 30
0.0
 11
147.40871899999999
 21
173.31625199999979
 31
0.0
  0
ARC
  8
OUTLINE
  6
CONTINUOUS
 62
     3
 10
147.090903
 20
166.6184089999999
 30
0.0
 40
5.0
 50
2.1360239999972941
 51
45.500000000006928
  0
LINE
  8
OUTLINE
  6
CONTINUOUS
 62
     3
 10
152.11991399999991
 20
164.99999999999989
 30
0.0
 11
152.1191759999999
 21
164.99999999999989
 31
0.0
  0
LINE
  8
OUTLINE
  6
CONTINUOUS
 62
     3
 10
152.08742900000021
 20
166.80476899999991
 30
0.0
 11
152.09847499999981
 21
166.20334199999991
 31
0.0
  0
ARC
  8
OUTLINE
  6
CONTINUOUS
 62
     3
 10
119.1327729999998
 20
177.6999999999999
 30
0.0
 40
5.0
 50
0.9564089999984956
 51
90.0
  0
LINE
  8
DETAIL
  6
CONTINUOUS
 62
     5
 10
64.0
 20
182.69999999999999
 30
0.0
 11
64.0
 21
194.50003000000001
 31
0.0
  0
ARC
  8
DETAIL
  6
CONTINUOUS
 62
     5
 10
98.240006999999878
 20
192.5
 30
0.0
 40
0.5
 50
90.0
 51
179.5000000000019
  0
ARC
  8
DETAIL
  6
CONTINUOUS
 62
     5
 10
81.759991999999784
 20
192.5
 30
0.0
 40
0.5
 50
0.4999999999980856
 51
90.0
  0
ARC
  8
DETAIL
  6
CONTINUOUS
 62
     5
 10
80.081715999999915
 20
192.5
 30
0.0
 40
0.5
 50
90.0
 51
160.0000000000023
  0
ARC
  8
DETAIL
  6
CONTINUOUS
 62
     5
 10
99.828207999999904
 20
192.5
 30
0.0
 40
0.5
 50
19.999999999997659
 51
90.0
  0
LINE
  8
DETAIL
  6
CONTINUOUS
 62
     5
 10
81.759991999999784
 20
193.0
 30
0.0
 11
80.081715999999915
 21
193.0
 31
0.0
  0
LINE
  8
DETAIL
  6
CONTINUOUS
 62
     5
 10
98.240006999999878
 20
193.0
 30
0.0
 11
99.828207999999904
 21
193.0
 31
0.0
  0
LINE
  8
DETAIL
  6
CONTINUOUS
 62
     5
 10
79.611870000000181
 20
192.67101
 30
0.0
 11
75.982718999999861
 21
182.69999999999999
 31
0.0
  0
LINE
  8
DETAIL
  6
CONTINUOUS
 62
     5
 10
82.259972999999945
 20
192.50436300000001
 30
0.0
 11
82.345534000000043
 21
182.69999999999999
 31
0.0
  0
LINE
  8
DETAIL
  6
CONTINUOUS
 62
     5
 10
97.654465000000073
 20
182.69999999999999
 30
0.0
 11
97.740025999999943
 21
192.50436300000001
 31
0.0
  0
LINE
  8
DETAIL
  6
CONTINUOUS
 62
     5
 10
100.29805500000001
 20
192.67101
 30
0.0
 11
103.927205
 21
182.69999999999999
 31
0.0
  0
LINE
  8
DETAIL
  6
CONTINUOUS
 62
     5
 10
65.0
 20
67.399999999999977
 30
0.0
 11
65.0
 21
146.23471599999991
 31
0.0
  0
LINE
  8
DETAIL
  6
CONTINUOUS
 62
     5
 10
124.166858
 20
175.69999999999999
 30
0.0
 11
0.0
 21
175.69999999999999
 31
0.0
  0
ARC
  8
DETAIL
  6
CONTINUOUS
 62
     5
 10
50.0
 20
67.399999999999977
 30
0.0
 40
15.0
 50
270.0
 51
0.0
  0
LINE
  8
DETAIL
  6
CONTINUOUS
 62
     5
 10
0.0
 20
182.69999999999999
 30
0.0
 11
119.0
 21
182.69999999999999
 31
0.0
  0
ARC
  8
DETAIL
  6
CONTINUOUS
 62
     5
 10
48.0
 20
146.23471599999991
 30
0.0
 40
17.0
 50
0.0
 51
86.358855000000545
  0
ARC
  8
DETAIL
  6
CONTINUOUS
 62
     5
 10
-135.23660000000021
 20
185.8000000000001
 30
0.0
 40
2.2000000000000002
 50
90.0
 51
178.99999999999829
  0
ARC
  8
DETAIL
  6
CONTINUOUS
 62
     5
 10
-134.45908000000011
 20
185.8000000000001
 30
0.0
 40
2.2000000000000002
 50
30.43423600000833
 51
90.0
  0
LINE
  8
DETAIL
  6
CONTINUOUS
 62
     5
 10
-134.45908000000011
 20
188.0
 30
0.0
 11
-135.23660000000021
 21
188.0
 31
0.0
  0
LINE
  8
DETAIL
  6
CONTINUOUS
 62
     5
 10
-125.41562500000011
 20
174.75
 30
0.0
 11
-132.56221500000021
 21
186.91440700000001
 31
0.0
  0
LINE
  8
DETAIL
  6
CONTINUOUS
 62
     5
 10
-137.43626499999999
 20
185.83839500000011
 30
0.0
 11
-137.6298140000001
 21
174.75
 31
0.0
  0
LINE
  8
DETAIL
  6
CONTINUOUS
 62
     5
 10
-143.90417400000001
 20
174.75
 30
0.0
 11
-124.012821
 21
174.75
 31
0.0
  0
ARC
  8
DETAIL
  6
CONTINUOUS
 62
     5
 10
-143.90417400000001
 20
169.75
 30
0.0
 40
5.0
 50
90.0
 51
134.49999999999309
  0
LINE
  8
DETAIL
  6
CONTINUOUS
 62
     5
 10
-150.59545
 20
170.18466100000001
 30
0.0
 11
-147.4087200000001
 21
173.31625199999999
 31
0.0
  0
ARC
  8
DETAIL
  6
CONTINUOUS
 62
     5
 10
-147.09090399999991
 20
166.61840900000001
 30
0.0
 40
5.0
 50
134.49999999999309
 51
177.86397600000271
  0
LINE
  8
DETAIL
  6
CONTINUOUS
 62
     5
 10
-152.11991500000019
 20
165.0
 30
0.0
 11
-152.11917700000001
 21
165.0
 31
0.0
  0
LINE
  8
DETAIL
  6
CONTINUOUS
 62
     5
 10
-152.0874289999999
 20
166.80476899999999
 30
0.0
 11
-152.09847600000009
 21
166.20334199999999
 31
0.0
  0
LINE
  8
DETAIL
  6
CONTINUOUS
 62
     5
 10
-155.0
 20
0.0
 30
0.0
 11
-152.09847600000009
 21
166.20334199999999
 31
0.0
  0
ARC
  8
DETAIL
  6
CONTINUOUS
 62
     5
 10
-98.240008000000216
 20
192.5
 30
0.0
 40
0.5
 50
0.4999999999980856
 51
90.0
  0
ARC
  8
DETAIL
  6
CONTINUOUS
 62
     5
 10
-81.759993000000122
 20
192.5
 30
0.0
 40
0.5
 50
90.0
 51
179.5000000000019
  0
ARC
  8
DETAIL
  6
CONTINUOUS
 62
     5
 10
-80.081717000000026
 20
192.5
 30
0.0
 40
0.5
 50
19.999999999997659
 51
90.0
  0
ARC
  8
DETAIL
  6
CONTINUOUS
 62
     5
 10
-99.828209000000015
 20
192.5
 30
0.0
 40
0.5
 50
90.0
 51
160.0000000000023
  0
LINE
  8
DETAIL
  6
CONTINUOUS
 62
     5
 10
-81.759993000000122
 20
193.0
 30
0.0
 11
-80.081717000000026
 21
193.0
 31
0.0
  0
LINE
  8
DETAIL
  6
CONTINUOUS
 62
     5
 10
-98.240008000000216
 20
193.0
 30
0.0
 11
-99.828209000000015
 21
193.0
 31
0.0
  0
LINE
  8
DETAIL
  6
CONTINUOUS
 62
     5
 10
-79.611871000000065
 20
192.67101
 30
0.0
 11
-75.982719999999972
 21
182.69999999999999
 31
0.0
  0
LINE
  8
DETAIL
  6
CONTINUOUS
 62
     5
 10
-82.259974000000057
 20
192.50436300000001
 30
0.0
 11
-82.345535000000154
 21
182.69999999999999
 31
0.0
  0
LINE
  8
DETAIL
  6
CONTINUOUS
 62
     5
 10
-97.654466000000184
 20
182.69999999999999
 30
0.0
 11
-97.740027000000055
 21
192.50436300000001
 31
0.0
  0
LINE
  8
DETAIL
  6
CONTINUOUS
 62
     5
 10
-100.2980560000001
 20
192.67101
 30
0.0
 11
-103.9272060000001
 21
182.69999999999999
 31
0.0
  0
LINE
  8
DETAIL
  6
CONTINUOUS
 62
     5
 10
-17.5
 20
182.69999999999999
 30
0.0
 11
-17.5
 21
194.50003000000001
 31
0.0
  0
LINE
  8
DETAIL
  6
CONTINUOUS
 62
     5
 10
-12.0
 20
200.00003000000001
 30
0.0
 11
58.5
 21
200.00003000000001
 31
0.0
  0
ARC
  8
DETAIL
  6
CONTINUOUS
 62
     5
 10
-12.0
 20
194.50003000000001
 30
0.0
 40
5.5
 50
90.0
 51
180.0
  0
ARC
  8
DETAIL
  6
CONTINUOUS
 62
     5
 10
58.5
 20
194.50003000000001
 30
0.0
 40
5.5
 50
0.0
 51
90.0
  0
ARC
  8
DETAIL
  6
CONTINUOUS
 62
     5
 10
-119.1327740000002
 20
177.69999999999999
 30
0.0
 40
5.0
 50
90.0
 51
179.04359100000161
  0
LINE
  8
DETAIL
  6
CONTINUOUS
 62
     5
 10
-124.132077
 20
177.783458
 30
0.0
 11
-127.10000000000009
 21
0.0
 31
0.0
  0
LINE
  8
DETAIL
  6
CONTINUOUS
 62
     5
 10
-65.0
 20
67.399999999999977
 30
0.0
 11
-65.0
 21
146.23471599999991
 31
0.0
  0
LINE
  8
DETAIL
  6
CONTINUOUS
 62
     5
 10
-124.1668590000002
 20
175.69999999999999
 30
0.0
 11
0.0
 21
175.69999999999999
 31
0.0
  0
ARC
  8
DETAIL
  6
CONTINUOUS
 62
     5
 10
-50.0
 20
67.399999999999977
 30
0.0
 40
15.0
 50
180.0
 51
270.0
  0
LINE
  8
DETAIL
  6
CONTINUOUS
 62
     5
 10
50.0
 20
52.399999999999977
 30
0.0
 11
-50.0
 21
52.399999999999977
 31
0.0
  0
LINE
  8
DETAIL
  6
CONTINUOUS
 62
     5
 10
0.0
 20
182.69999999999999
 30
0.0
 11
-119.0
 21
182.69999999999999
 31
0.0
  0
LINE
  8
DETAIL
  6
CONTINUOUS
 62
     5
 10
-49.079623000000083
 20
163.20040000000009
 30
0.0
 11
49.079621999999972
 21
163.20040000000009
 31
0.0
  0
ARC
  8
DETAIL
  6
CONTINUOUS
 62
     5
 10
-48.0
 20
146.23471599999991
 30
0.0
 40
17.0
 50
93.641144999999455
 51
180.0
  0
ARC
  8
DETAIL
  6
CONTINUOUS
 62
     5
 10
135.23659899999981
 20
185.8000000000001
 30
0.0
 40
2.2000000000000002
 50
1.000000000001751
 51
90.0
  0
ARC
  8
DETAIL
  6
CONTINUOUS
 62
     5
 10
134.459079
 20
185.8000000000001
 30
0.0
 40
2.2000000000000002
 50
90.0
 51
149.5657639999917
  0
LINE
  8
DETAIL
  6
CONTINUOUS
 62
     5
 10
134.459079
 20
188.0
 30
0.0
 11
135.23659899999981
 21
188.0
 31
0.0
  0
LINE
  8
DETAIL
  6
CONTINUOUS
 62
     5
 10
125.41562499999991
 20
174.75
 30
0.0
 11
132.56221400000001
 21
186.91440700000001
 31
0.0
  0
LINE
  8
DETAIL
  6
CONTINUOUS
 62
     5
 10
137.43626399999991
 20
185.83839500000011
 30
0.0
 11
137.62981300000001
 21
174.75
 31
0.0
  0
LINE
  8
DETAIL
  6
CONTINUOUS
 62
     5
 10
143.9041729999999
 20
174.75
 30
0.0
 11
124.01281999999991
 21
174.75
 31
0.0
  0
ARC
  8
DETAIL
  6
CONTINUOUS
 62
     5
 10
143.9041729999999
 20
169.75
 30
0.0
 40
5.0
 50
45.500000000006928
 51
90.0
  0
LINE
  8
DETAIL
  6
CONTINUOUS
 62
     5
 10
150.59544899999989
 20
170.18466100000001
 30
0.0
 11
147.40871899999999
 21
173.31625199999999
 31
0.0
  0
ARC
  8
DETAIL
  6
CONTINUOUS
 62
     5
 10
147.090903
 20
166.61840900000001
 30
0.0
 40
5.0
 50
2.1360239999972941
 51
45.500000000006928
  0
LINE
  8
DETAIL
  6
CONTINUOUS
 62
     5
 10
152.11991399999991
 20
165.0
 30
0.0
 11
152.1191759999999
 21
165.0
 31
0.0
  0
LINE
  8
DETAIL
  6
CONTINUOUS
 62
     5
 10
152.08742900000021
 20
166.80476899999999
 30
0.0
 11
152.09847499999981
 21
166.20334199999999
 31
0.0
  0
LINE
  8
DETAIL
  6
CONTINUOUS
 62
     5
 10
155.0
 20
0.0
 30
0.0
 11
152.09847499999981
 21
166.20334199999999
 31
0.0
  0
ARC
  8
DETAIL
  6
CONTINUOUS
 62
     5
 10
119.1327729999998
 20
177.69999999999999
 30
0.0
 40
5.0
 50
0.9564089999984956
 51
90.0
  0
LINE
  8
DETAIL
  6
CONTINUOUS
 62
     5
 10
124.1320759999999
 20
177.783458
 30
0.0
 11
127.09999999999989
 21
0.0
 31
0.0
  0
ARC
  8
DETAIL
  6
CONTINUOUS
 62
     5
 10
178.30472199999991
 20
-4.0
 30
0.0
 40
3.0
 50
270.0
 51
358.99999999999818
  0
LINE
  8
DETAIL
  6
CONTINUOUS
 62
     5
 10
181.30426499999999
 20
-4.0523580000000274
 30
0.0
 11
181.375
 21
0.0
 31
0.0
  0
LINE
  8
DETAIL
  6
CONTINUOUS
 62
     5
 10
-181.3042660000001
 20
-4.0523580000000274
 30
0.0
 11
-181.375
 21
0.0
 31
0.0
  0
ARC
  8
DETAIL
  6
CONTINUOUS
 62
     5
 10
-178.30472300000019
 20
-4.0
 30
0.0
 40
3.0
 50
181.00000000000179
 51
270.0
  0
LINE
  8
DETAIL
  6
CONTINUOUS
 62
     5
 10
178.30472199999991
 20
-7.0
 30
0.0
 11
-178.30472300000019
 21
-7.0
 31
0.0
  0
LINE
  8
DETAIL
  6
CONTINUOUS
 62
     5
 10
-181.375
 20
0.0
 30
0.0
 11
181.375
 21
0.0
 31
0.0
  0
LINE
  8
OUTLINE
  6
CONTINUOUS
 62
     3
 10
-181.3042660000001
 20
-4.0523580000000274
 30
0.0
 11
-181.375
 21
0.0
 31
0.0
  0
ARC
  8
OUTLINE
  6
CONTINUOUS
 62
     3
 10
-178.30472300000019
 20
-4.0
 30
0.0
 40
3.0
 50
181.00000000000179
 51
270.0
  0
LINE
  8
OUTLINE
  6
CONTINUOUS
 62
     3
 10
-181.375
 20
0.0
 30
0.0
 11
-155.0
 21
0.0
 31
0.0
  0
ARC
  8
OUTLINE
  6
CONTINUOUS
 62
     3
 10
178.30472199999991
 20
-4.0
 30
0.0
 40
3.0
 50
270.0
 51
358.99999999999818
  0
LINE
  8
OUTLINE
  6
CONTINUOUS
 62
     3
 10
181.30426499999999
 20
-4.0523580000000274
 30
0.0
 11
181.375
 21
0.0
 31
0.0
  0
LINE
  8
OUTLINE
  6
CONTINUOUS
 62
     3
 10
178.30472199999991
 20
-7.0
 30
0.0
 11
-178.30472300000019
 21
-7.0
 31
0.0
  0
LINE
  8
OUTLINE
  6
CONTINUOUS
 62
     3
 10
155.0
 20
0.0
 30
0.0
 11
181.375
 21
0.0
 31
0.0
  0
TEXT
  8
NOTE
  6
CONTINUOUS
 62
     4
 10
428.70928374857522
 20
298.12119584812763
 30
0.0
 40
63.999999999999993
  1
8-φ5
 41
0.9
  0
LINE
  8
NOTE
  6
CONTINUOUS
 62
     4
 10
681.86576284140119
 20
264.81163520242472
 30
0.0
 11
400.28357073026609
 21
264.81166468140327
 31
0.0
  0
CIRCLE
  8
DETAIL
  6
CONTINUOUS
 62
     5
 10
0.0
 20
109.0004
 30
0.0
 40
46.899999999999999
  0
CIRCLE
  8
DETAIL
  6
CONTINUOUS
 62
     5
 10
0.0
 20
109.0004
 30
0.0
 40
48.899999999999999
  0
CIRCLE
  8
DETAIL
  6
CONTINUOUS
 62
     5
 10
0.0
 20
109.0004
 30
0.0
 40
52.813999999999993
  0
ENDSEC
  0
EOF
