  0
SECTION
  2
HEADER
  9
$ACADVER
  1
AC1009
  9
$DWGCODEPAGE
  3
dos932
  9
$INSBASE
 10
0.0
 20
0.0
 30
0.0
  9
$EXTMIN
 10
-845.19193926266416
 20
-434.82970019666209
 30
-0.0015258207003583
  9
$EXTMAX
 10
1215.44495807663
 20
898.17810896571973
 30
0.0000000349246037
  9
$LIMMIN
 10
-2970.0
 20
-2100.0
  9
$LIMMAX
 10
2970.0
 20
2100.0
  9
$ORTHOMODE
 70
     1
  9
$REGENMODE
 70
     1
  9
$FILLMODE
 70
     1
  9
$QTEXTMODE
 70
     0
  9
$MIRRTEXT
 70
     0
  9
$LTSCALE
 40
20.0
  9
$ATTMODE
 70
     1
  9
$TEXTSIZE
 40
64.0
  9
$TRACEWID
 40
0.05
  9
$TEXTSTYLE
  7
STANDARD
  9
$CLAYER
  8
SIZE
  9
$CELTYPE
  6
CONTINUOUS
  9
$CECOLOR
 62
     7
  9
$DIMSCALE
 40
1.0
  9
$DIMASZ
 40
12.0
  9
$DIMEXO
 40
20.0
  9
$DIMDLI
 40
200.0
  9
$DIMRND
 40
0.0
  9
$DIMDLE
 40
0.0
  9
$DIMEXE
 40
20.0
  9
$DIMTP
 40
0.0
  9
$DIMTM
 40
0.0
  9
$DIMTXT
 40
64.0
  9
$DIMCEN
 40
0.09
  9
$DIMTSZ
 40
0.0
  9
$DIMTOL
 70
     0
  9
$DIMLIM
 70
     0
  9
$DIMTIH
 70
     0
  9
$DIMTOH
 70
     0
  9
$DIMSE1
 70
     0
  9
$DIMSE2
 70
     0
  9
$DIMTAD
 70
     1
  9
$DIMZIN
 70
     8
  9
$DIMBLK
  1

  9
$DIMASO
 70
     1
  9
$DIMSHO
 70
     0
  9
$DIMPOST
  1

  9
$DIMAPOST
  1

  9
$DIMALT
 70
     0
  9
$DIMALTD
 70
     2
  9
$DIMALTF
 40
25.399999999999999
  9
$DIMLFAC
 40
1.0
  9
$DIMTOFL
 70
     1
  9
$DIMTVP
 40
0.0
  9
$DIMTIX
 70
     1
  9
$DIMSOXD
 70
     0
  9
$DIMSAH
 70
     0
  9
$DIMBLK1
  1

  9
$DIMBLK2
  1

  9
$DIMSTYLE
  2
STANDARD
  9
$DIMCLRD
 70
     7
  9
$DIMCLRE
 70
     7
  9
$DIMCLRT
 70
     7
  9
$DIMTFAC
 40
1.0
  9
$DIMGAP
 40
25.0
  9
$LUNITS
 70
     2
  9
$LUPREC
 70
     4
  9
$SKETCHINC
 40
0.1
  9
$FILLETRAD
 40
3.0
  9
$AUNITS
 70
     1
  9
$AUPREC
 70
     3
  9
$MENU
  1
ACAD
  9
$ELEVATION
 40
0.0
  9
$PELEVATION
 40
0.0
  9
$THICKNESS
 40
0.0
  9
$LIMCHECK
 70
     0
  9
$CHAMFERA
 40
0.0
  9
$CHAMFERB
 40
0.0
  9
$SKPOLY
 70
     0
  9
$TDCREATE
 40
2453019.62301037
  9
$TDUPDATE
 40
2459025.508798634
  9
$TDINDWG
 40
1.7142289468
  9
$TDUSRTIMER
 40
1.7142289468
  9
$USRTIMER
 70
     1
  9
$ANGBASE
 50
0.0
  9
$ANGDIR
 70
     0
  9
$PDMODE
 70
     3
  9
$PDSIZE
 40
-2.0
  9
$PLINEWID
 40
0.0
  9
$SPLFRAME
 70
     0
  9
$SPLINETYPE
 70
     6
  9
$SPLINESEGS
 70
     8
  9
$SURFTAB1
 70
     6
  9
$SURFTAB2
 70
     6
  9
$SURFTYPE
 70
     6
  9
$SURFU
 70
     6
  9
$SURFV
 70
     6
  9
$UCSNAME
  2

  9
$UCSORG
 10
0.0
 20
0.0
 30
0.0
  9
$UCSXDIR
 10
1.0
 20
0.0
 30
0.0
  9
$UCSYDIR
 10
0.0
 20
1.0
 30
0.0
  9
$PUCSNAME
  2

  9
$PUCSORG
 10
0.0
 20
0.0
 30
0.0
  9
$PUCSXDIR
 10
1.0
 20
0.0
 30
0.0
  9
$PUCSYDIR
 10
0.0
 20
1.0
 30
0.0
  9
$USERI1
 70
     0
  9
$USERI2
 70
     0
  9
$USERI3
 70
     0
  9
$USERI4
 70
     0
  9
$USERI5
 70
     0
  9
$USERR1
 40
20.0
  9
$USERR2
 40
0.0
  9
$USERR3
 40
0.0
  9
$USERR4
 40
0.0
  9
$USERR5
 40
0.0
  9
$WORLDVIEW
 70
     1
  9
$SHADEDGE
 70
     3
  9
$SHADEDIF
 70
    70
  9
$TILEMODE
 70
     1
  9
$MAXACTVP
 70
    48
  9
$PINSBASE
 10
0.0
 20
0.0
 30
0.0
  9
$PLIMCHECK
 70
     0
  9
$PEXTMIN
 10
-100000000000000000000.0
 20
-100000000000000000000.0
 30
-100000000000000000000.0
  9
$PEXTMAX
 10
100000000000000000000.0
 20
100000000000000000000.0
 30
100000000000000000000.0
  9
$PLIMMIN
 10
0.0
 20
0.0
  9
$PLIMMAX
 10
12.0
 20
9.0
  9
$UNITMODE
 70
     0
  9
$VISRETAIN
 70
     0
  9
$PLINEGEN
 70
     0
  9
$PSLTSCALE
 70
     0
  9
$TREEDEPTH
 70
  3020
  9
$ATTDIA
 70
     0
  9
$ATTREQ
 70
     1
  9
$BLIPMODE
 70
     1
  9
$COORDS
 70
     1
  9
$DRAGMODE
 70
     2
  9
$OSMODE
 70
     0
  9
$HANDLING
 70
     0
  9
$HANDSEED
  5
F424
  0
ENDSEC
  0
SECTION
  2
TABLES
  0
TABLE
  2
LTYPE
 70
     3
  0
LTYPE
  2
CONTINUOUS
 70
     0
  3
実線
 72
    65
 73
     0
 40
0.0
  0
LTYPE
  2
DASHDOT
 70
     0
  3
____ _ ____ _ ____ _ ____ _ ____ _ ____ _ ____
 72
    65
 73
     4
 40
5.5
 49
4.0
 49
-0.6
 49
0.3
 49
-0.6
  0
LTYPE
  2
CENTER
 70
     0
  3
Center ____ _ ____ _ ____ _ ____ _ ____ _ ____
 72
    65
 73
     4
 40
1.0
 49
0.5
 49
-0.25
 49
0.0
 49
-0.25
  0
ENDTAB
  0
TABLE
  2
LAYER
 70
    12
  0
LAYER
  2
0
 70
     0
 62
     7
  6
CONTINUOUS
  0
LAYER
  2
BASIS
 70
     0
 62
     6
  6
DASHDOT
  0
LAYER
  2
OUTLINE
 70
     0
 62
     3
  6
CONTINUOUS
  0
LAYER
  2
DETAIL
 70
     0
 62
     5
  6
CONTINUOUS
  0
LAYER
  2
SIZE
 70
     0
 62
    30
  6
CONTINUOUS
  0
LAYER
  2
ARRANGE
 70
     0
 62
     1
  6
CONTINUOUS
  0
LAYER
  2
DEFPOINTS
 70
     0
 62
     7
  6
CONTINUOUS
  0
LAYER
  2
ETC
 70
     0
 62
    61
  6
CONTINUOUS
  0
LAYER
  2
FIX
 70
     0
 62
    11
  6
CONTINUOUS
  0
LAYER
  2
NOTE
 70
     0
 62
     4
  6
CONTINUOUS
  0
LAYER
  2
SERVICESPACE
 70
    64
 62
     2
  6
DASHDOT
  0
LAYER
  2
SYMBOLLINE
 70
    64
 62
    15
  6
CONTINUOUS
  0
ENDTAB
  0
TABLE
  2
STYLE
 70
     1
  0
STYLE
  2
STANDARD
 70
     0
 40
64.0
 41
0.9
 50
0.0
 71
     0
 42
64.0
  3
SIMPLEX.shx
  4
BIGFONT.shx
  0
ENDTAB
  0
TABLE
  2
APPID
 70
    19
  0
APPID
  2
ACAD
 70
     0
  0
APPID
  2
AUTOCAD_POSTSCRIPT_FIGURE
 70
     0
  0
APPID
  2
ACAD_EXEMPT_FROM_CAD_STANDARDS
 70
     0
  0
APPID
  2
ACAD_PSEXT
 70
     0
  0
APPID
  2
ACAUTHENVIRON
 70
     0
  0
APPID
  2
GENIUS_GENOENT_13
 70
     0
  0
APPID
  2
GENIUS_GENCFG_13
 70
     0
  0
APPID
  2
GENIUS_GENCFG0_13
 70
     0
  0
APPID
  2
GENIUS_GENCFG1_13
 70
     0
  0
APPID
  2
GENIUS_GENCFG2_13
 70
     0
  0
APPID
  2
GENIUS_GENCFG3_13
 70
     0
  0
APPID
  2
GENIUS_GENCFG4_13
 70
     0
  0
APPID
  2
GENIUS_GEVCFG0_13
 70
     0
  0
APPID
  2
CONTENTBLOCKICON
 70
     0
  0
APPID
  2
CONTENTBLOCKDESCRIPTION
 70
     0
  0
APPID
  2
ACAD_NAV_VCDISPLAY
 70
     0
  0
APPID
  2
ACAD_MLEADERVER
 70
     0
  0
APPID
  2
ACDBDYNAMICBLOCKTRUENAME
 70
     0
  0
APPID
  2
ACDBDYNAMICBLOCKGUID
 70
     0
  0
ENDTAB
  0
TABLE
  2
DIMSTYLE
 70
     1
  0
DIMSTYLE
  2
STANDARD
 70
     0
  3

  4

  5
_ORIGIN
  6

  7

 40
1.0
 41
12.0
 42
20.0
 43
200.0
 44
20.0
 45
0.0
 46
0.0
 47
0.0
 48
0.0
140
64.0
141
0.09
142
0.0
143
25.399999999999999
144
1.0
145
0.0
146
1.0
147
25.0
 71
     0
 72
     0
 73
     0
 74
     0
 75
     0
 76
     0
 77
     1
 78
     8
170
     0
171
     2
172
     1
173
     0
174
     1
175
     0
176
     7
177
     7
178
     7
  0
ENDTAB
  0
TABLE
  2
VIEW
 70
     1
  0
VIEW
  2
ALL
 70
     0
 40
4282.6198079999986
 10
0.0
 20
41.309904000000003
 41
5940.0
 11
0.0
 21
0.0
 31
1.0
 12
0.0
 22
0.0
 32
0.0
 42
50.0
 43
0.0
 44
0.0
 50
0.0
 71
     0
  0
ENDTAB
  0
TABLE
  2
UCS
 70
     0
  0
ENDTAB
  0
TABLE
  2
VPORT
 70
     1
  0
VPORT
  2
*ACTIVE
 70
     0
 10
0.0
 20
0.0
 11
1.0
 21
1.0
 12
185.1265094069831
 22
231.67420438452891
 13
0.0
 23
0.0
 14
1.0
 24
1.0
 15
0.0
 25
0.0
 16
0.0
 26
0.0
 36
1.0
 17
0.0
 27
0.0
 37
0.0
 40
1341.8454299966079
 41
1.747787610619469
 42
50.0
 43
0.0
 44
0.0
 50
0.0
 51
0.0
 71
     0
 72
  1000
 73
     1
 74
     3
 75
     0
 76
     0
 77
     0
 78
     0
  0
ENDTAB
  0
ENDSEC
  0
SECTION
  2
BLOCKS
  0
BLOCK
  8
0
  2
_ORIGIN
 70
     0
 10
0.0
 20
0.0
 30
0.0
  3
_ORIGIN
  1
_ORIGIN
  0
CIRCLE
  8
0
  6
CONTINUOUS
 62
     7
 10
0.0
 20
0.0
 30
0.0
 40
0.5
  0
LINE
  8
0
  6
CONTINUOUS
 62
     7
 10
0.0
 20
0.0
 30
0.0
 11
-1.0
 21
0.0
 31
0.0
  0
ENDBLK
  8
0
  0
ENDSEC
  0
SECTION
  2
ENTITIES
  0
LINE
  8
NOTE
  6
CONTINUOUS
 62
     4
 10
164.9999999999998
 20
-0.0000000000001137
 30
0.0
 11
400.28356798458663
 21
264.81163647897858
 31
0.0
  0
LINE
  8
NOTE
  6
CONTINUOUS
 62
     4
 10
164.9999999999998
 20
-0.0000000000001137
 30
0.0
 11
196.31274534757881
 21
22.68342241888331
 31
0.0
  0
LINE
  8
NOTE
  6
CONTINUOUS
 62
     4
 10
183.99527469402321
 20
35.199296333761033
 30
0.0
 11
164.9999999999998
 21
-0.0000000000001137
 31
0.0
  0
TEXT
  8
NOTE
  6
CONTINUOUS
 62
     4
 10
-406.84241163965942
 20
80.079713965875612
 30
0.0
 40
64.0
  1
EA
 41
0.9
  0
TEXT
  8
NOTE
  6
CONTINUOUS
 62
     4
 10
257.56992120753739
 20
401.6531604653984
 30
0.0
 40
64.0
  1
EL
 41
0.9
  0
LINE
  8
NOTE
  6
CONTINUOUS
 62
     4
 10
380.71297896856407
 20
384.59841560060158
 30
0.0
 11
91.733056303986359
 21
384.5984156005286
 31
0.0
  0
LINE
  8
NOTE
  6
CONTINUOUS
 62
     4
 10
-85.0
 20
168.0
 30
0.0
 11
91.733056303986359
 21
384.5984156005286
 31
0.0
  0
LINE
  8
NOTE
  6
CONTINUOUS
 62
     4
 10
-85.0
 20
168.0
 30
0.0
 11
-52.440288265110667
 21
188.92557120522591
 31
0.0
  0
LINE
  8
NOTE
  6
CONTINUOUS
 62
     4
 10
-70.486536276681818
 20
205.20055449624689
 30
0.0
 11
-85.0
 21
168.0
 31
0.0
  0
CIRCLE
  8
FIX
  6
CONTINUOUS
 62
    11
 10
165.00000000000011
 20
0.0000000000001137
 30
0.0
 40
10.0
  0
LINE
  8
BASIS
  6
DASHDOT
 62
     6
 10
0.0
 20
-33.989709999999953
 30
0.0
 11
0.0
 21
266.822855
 31
0.0
  0
CIRCLE
  8
FIX
  6
CONTINUOUS
 62
    11
 10
100.0
 20
0.0
 30
0.0
 40
10.0
  0
CIRCLE
  8
FIX
  6
CONTINUOUS
 62
    11
 10
-100.0
 20
0.0
 30
0.0
 40
10.0
  0
CIRCLE
  8
FIX
  6
CONTINUOUS
 62
    11
 10
-165.00000000000011
 20
0.0000000000001137
 30
0.0
 40
10.0
  0
CIRCLE
  8
ARRANGE
  6
CONTINUOUS
 62
     1
 10
0.0
 20
0.0
 30
0.0
 40
40.0
  0
POINT
  8
ARRANGE
  6
CONTINUOUS
 62
     1
 10
0.0
 20
0.0
 30
0.0
 50
90.0
  0
LINE
  8
SIZE
  6
CONTINUOUS
 62
    30
 10
-100.0
 20
-27.26081099999999
 30
0.0
 11
-100.0
 21
-184.1636074172884
 31
0.0
  0
LINE
  8
SIZE
  6
CONTINUOUS
 62
    30
 10
100.0
 20
-27.26081099999999
 30
0.0
 11
100.0
 21
-184.1636074172884
 31
0.0
  0
LINE
  8
SIZE
  6
CONTINUOUS
 62
    30
 10
-88.0
 20
-164.1636074172884
 30
0.0
 11
88.0
 21
-164.1636074172884
 31
0.0
  0
CIRCLE
  8
SIZE
  6
CONTINUOUS
 62
    30
 10
-100.0
 20
-164.1636074172884
 30
0.0
 40
6.0
  0
LINE
  8
SIZE
  6
CONTINUOUS
 62
    30
 10
-100.0
 20
-164.1636074172884
 30
0.0
 11
-88.0
 21
-164.1636074172884
 31
0.0
  0
CIRCLE
  8
SIZE
  6
CONTINUOUS
 62
    30
 10
100.0
 20
-164.1636074172884
 30
0.0
 40
6.0
  0
LINE
  8
SIZE
  6
CONTINUOUS
 62
    30
 10
100.0
 20
-164.1636074172884
 30
0.0
 11
88.0
 21
-164.1636074172884
 31
0.0
  0
TEXT
  8
SIZE
  6
CONTINUOUS
 62
    30
 10
-74.05714285714285
 20
-139.1636074172884
 30
0.0
 40
64.0
  1
200
 41
0.9
 72
     1
 11
0.0
 21
-139.1636074172884
 31
0.0
  0
POINT
  8
DEFPOINTS
  6
CONTINUOUS
 62
    30
 10
-100.0
 20
-7.2608109999999897
 30
0.0
  0
POINT
  8
DEFPOINTS
  6
CONTINUOUS
 62
    30
 10
100.0
 20
-7.2608109999999897
 30
0.0
  0
POINT
  8
DEFPOINTS
  6
CONTINUOUS
 62
    30
 10
100.0
 20
-164.1636074172884
 30
0.0
  0
LINE
  8
SIZE
  6
CONTINUOUS
 62
    30
 10
-165.00000000000011
 20
-27.160034
 30
0.0
 11
-165.00000000000011
 21
-302.20459319010092
 31
0.0
  0
LINE
  8
SIZE
  6
CONTINUOUS
 62
    30
 10
165.0
 20
-27.26081099999999
 30
0.0
 11
165.0
 21
-302.20459319010092
 31
0.0
  0
LINE
  8
SIZE
  6
CONTINUOUS
 62
    30
 10
-153.00000000000011
 20
-282.20459319010092
 30
0.0
 11
153.0
 21
-282.20459319010092
 31
0.0
  0
CIRCLE
  8
SIZE
  6
CONTINUOUS
 62
    30
 10
-165.00000000000011
 20
-282.20459319010092
 30
0.0
 40
6.0
  0
LINE
  8
SIZE
  6
CONTINUOUS
 62
    30
 10
-165.00000000000011
 20
-282.20459319010092
 30
0.0
 11
-153.00000000000011
 21
-282.20459319010092
 31
0.0
  0
CIRCLE
  8
SIZE
  6
CONTINUOUS
 62
    30
 10
165.0
 20
-282.20459319010092
 30
0.0
 40
6.0
  0
LINE
  8
SIZE
  6
CONTINUOUS
 62
    30
 10
165.0
 20
-282.20459319010092
 30
0.0
 11
153.0
 21
-282.20459319010092
 31
0.0
  0
TEXT
  8
SIZE
  6
CONTINUOUS
 62
    30
 10
-74.057142857142978
 20
-257.20459319010109
 30
0.0
 40
64.0
  1
330
 41
0.9
 72
     1
 11
-0.0000000000001137
 21
-257.20459319010109
 31
0.0
  0
POINT
  8
DEFPOINTS
  6
CONTINUOUS
 62
    30
 10
-165.00000000000011
 20
-7.160033999999996
 30
0.0
  0
POINT
  8
DEFPOINTS
  6
CONTINUOUS
 62
    30
 10
165.0
 20
-7.2608109999999897
 30
0.0
  0
POINT
  8
DEFPOINTS
  6
CONTINUOUS
 62
    30
 10
165.0
 20
-282.20459319010092
 30
0.0
  0
LINE
  8
SIZE
  6
CONTINUOUS
 62
    30
 10
-181.30426608546941
 20
-24.05235721931194
 30
0.0
 11
-181.30426608546941
 21
-434.68918532599952
 31
0.0
  0
LINE
  8
SIZE
  6
CONTINUOUS
 62
    30
 10
181.3042650854691
 20
-24.05235721931194
 30
0.0
 11
181.3042650854691
 21
-434.68918532599952
 31
0.0
  0
LINE
  8
SIZE
  6
CONTINUOUS
 62
    30
 10
-169.30426608546941
 20
-414.68918532599952
 30
0.0
 11
169.30426508546901
 21
-414.68918532599952
 31
0.0
  0
CIRCLE
  8
SIZE
  6
CONTINUOUS
 62
    30
 10
-181.30426608546941
 20
-414.68918532599952
 30
0.0
 40
6.0
  0
LINE
  8
SIZE
  6
CONTINUOUS
 62
    30
 10
-181.30426608546941
 20
-414.68918532599952
 30
0.0
 11
-169.30426608546941
 21
-414.68918532599952
 31
0.0
  0
CIRCLE
  8
SIZE
  6
CONTINUOUS
 62
    30
 10
181.3042650854691
 20
-414.68918532599952
 30
0.0
 40
6.0
  0
LINE
  8
SIZE
  6
CONTINUOUS
 62
    30
 10
181.3042650854691
 20
-414.68918532599952
 30
0.0
 11
169.30426508546901
 21
-414.68918532599952
 31
0.0
  0
TEXT
  8
SIZE
  6
CONTINUOUS
 62
    30
 10
-74.057143357143005
 20
-389.68918532599952
 30
0.0
 40
64.0
  1
362
 41
0.9
 72
     1
 11
-0.0000005000001693
 21
-389.68918532599952
 31
0.0
  0
POINT
  8
DEFPOINTS
  6
CONTINUOUS
 62
    30
 10
-181.30426608546941
 20
-4.0523572193119426
 30
0.0
  0
POINT
  8
DEFPOINTS
  6
CONTINUOUS
 62
    30
 10
181.3042650854691
 20
-4.0523572193119426
 30
0.0
  0
POINT
  8
DEFPOINTS
  6
CONTINUOUS
 62
    30
 10
181.3042650854691
 20
-414.68918532599952
 30
0.0
  0
LINE
  8
SIZE
  6
CONTINUOUS
 62
    30
 10
-155.99999324704609
 20
20.00000000000011
 30
0.0
 11
-155.99999324704609
 21
678.92085240727465
 31
0.0
  0
LINE
  8
SIZE
  6
CONTINUOUS
 62
    30
 10
154.67145199999999
 20
20.00000000000011
 30
0.0
 11
154.67145199999999
 21
678.92085240727465
 31
0.0
  0
LINE
  8
SIZE
  6
CONTINUOUS
 62
    30
 10
-143.99999324704609
 20
658.92085240727465
 30
0.0
 11
142.67145199999999
 21
658.92085240727465
 31
0.0
  0
CIRCLE
  8
SIZE
  6
CONTINUOUS
 62
    30
 10
-155.99999324704609
 20
658.92085240727465
 30
0.0
 40
6.0
  0
LINE
  8
SIZE
  6
CONTINUOUS
 62
    30
 10
-155.99999324704609
 20
658.92085240727465
 30
0.0
 11
-143.99999324704609
 21
658.92085240727465
 31
0.0
  0
CIRCLE
  8
SIZE
  6
CONTINUOUS
 62
    30
 10
154.67145199999999
 20
658.92085240727465
 30
0.0
 40
6.0
  0
LINE
  8
SIZE
  6
CONTINUOUS
 62
    30
 10
154.67145199999999
 20
658.92085240727465
 30
0.0
 11
142.67145199999999
 21
658.92085240727465
 31
0.0
  0
TEXT
  8
SIZE
  6
CONTINUOUS
 62
    30
 10
-105.7156991949515
 20
683.92085240727465
 30
0.0
 40
64.0
  1
□310
 41
0.9
 72
     1
 11
-0.6642706235229525
 21
683.92085240727465
 31
0.0
  0
POINT
  8
DEFPOINTS
  6
CONTINUOUS
 62
    30
 10
-155.99999324704609
 20
0.0000000000001137
 30
0.0
  0
POINT
  8
DEFPOINTS
  6
CONTINUOUS
 62
    30
 10
154.67145199999999
 20
0.0000000000001137
 30
0.0
  0
POINT
  8
DEFPOINTS
  6
CONTINUOUS
 62
    30
 10
154.67145199999999
 20
658.92085240727465
 30
0.0
  0
LINE
  8
SIZE
  6
CONTINUOUS
 62
    30
 10
-155.99999324704609
 20
20.00000000000011
 30
0.0
 11
-155.99999324704609
 21
678.92085240727465
 31
0.0
  0
LINE
  8
SIZE
  6
CONTINUOUS
 62
    30
 10
-265.0
 20
177.403944
 30
0.0
 11
-265.0
 21
678.92085240727465
 31
0.0
  0
LINE
  8
SIZE
  6
CONTINUOUS
 62
    30
 10
-167.99999324704609
 20
658.92085240727465
 30
0.0
 11
-253.00000000000011
 21
658.92085240727465
 31
0.0
  0
LINE
  8
SIZE
  6
CONTINUOUS
 62
    30
 10
-265.0
 20
658.92085240727465
 30
0.0
 11
-462.28601928571442
 21
658.92085240727465
 31
0.0
  0
CIRCLE
  8
SIZE
  6
CONTINUOUS
 62
    30
 10
-155.99999324704609
 20
658.92085240727465
 30
0.0
 40
6.0
  0
LINE
  8
SIZE
  6
CONTINUOUS
 62
    30
 10
-155.99999324704609
 20
658.92085240727465
 30
0.0
 11
-167.99999324704609
 21
658.92085240727465
 31
0.0
  0
CIRCLE
  8
SIZE
  6
CONTINUOUS
 62
    30
 10
-265.0
 20
658.92085240727465
 30
0.0
 40
6.0
  0
LINE
  8
SIZE
  6
CONTINUOUS
 62
    30
 10
-265.0
 20
658.92085240727465
 30
0.0
 11
-253.00000000000011
 21
658.92085240727465
 31
0.0
  0
TEXT
  8
SIZE
  6
CONTINUOUS
 62
    30
 10
-437.2860192857143
 20
683.92085240727465
 30
0.0
 40
64.0
  1
109
 41
0.9
 72
     1
 11
-370.08601928571431
 21
683.92085240727465
 31
0.0
  0
POINT
  8
DEFPOINTS
  6
CONTINUOUS
 62
    30
 10
-155.99999324704609
 20
0.0000000000001137
 30
0.0
  0
POINT
  8
DEFPOINTS
  6
CONTINUOUS
 62
    30
 10
-265.0
 20
157.403944
 30
0.0
  0
POINT
  8
DEFPOINTS
  6
CONTINUOUS
 62
    30
 10
-265.0
 20
658.92085240727465
 30
0.0
  0
LINE
  8
SIZE
  6
CONTINUOUS
 62
    30
 10
-222.90000000000009
 20
178.29679400000001
 30
0.0
 11
-222.90000000000009
 21
304.89993534706628
 31
0.0
  0
LINE
  8
SIZE
  6
CONTINUOUS
 62
    30
 10
-265.0
 20
177.403944
 30
0.0
 11
-265.0
 21
304.89993534706628
 31
0.0
  0
LINE
  8
SIZE
  6
CONTINUOUS
 62
    30
 10
-210.90000000000009
 20
284.89993534706628
 30
0.0
 11
-198.90000000000009
 21
284.89993534706628
 31
0.0
  0
LINE
  8
SIZE
  6
CONTINUOUS
 62
    30
 10
-277.0
 20
284.89993534706628
 30
0.0
 11
-471.01482953586492
 21
284.89993534706628
 31
0.0
  0
LINE
  8
SIZE
  6
CONTINUOUS
 62
    30
 10
-222.90000000000009
 20
284.89993534706628
 30
0.0
 11
-265.0
 21
284.89993534706628
 31
0.0
  0
CIRCLE
  8
SIZE
  6
CONTINUOUS
 62
    30
 10
-222.90000000000009
 20
284.89993534706628
 30
0.0
 40
6.0
  0
LINE
  8
SIZE
  6
CONTINUOUS
 62
    30
 10
-222.90000000000009
 20
284.89993534706628
 30
0.0
 11
-210.90000000000009
 21
284.89993534706628
 31
0.0
  0
CIRCLE
  8
SIZE
  6
CONTINUOUS
 62
    30
 10
-265.0
 20
284.89993534706628
 30
0.0
 40
6.0
  0
LINE
  8
SIZE
  6
CONTINUOUS
 62
    30
 10
-265.0
 20
284.89993534706628
 30
0.0
 11
-277.0
 21
284.89993534706628
 31
0.0
  0
TEXT
  8
SIZE
  6
CONTINUOUS
 62
    30
 10
-446.01482953586492
 20
309.89993534706628
 30
0.0
 40
64.0
  1
42
 41
0.9
 72
     1
 11
-399.38625810729349
 21
309.89993534706628
 31
0.0
  0
POINT
  8
DEFPOINTS
  6
CONTINUOUS
 62
    30
 10
-222.90000000000009
 20
158.29679400000001
 30
0.0
  0
POINT
  8
DEFPOINTS
  6
CONTINUOUS
 62
    30
 10
-265.0
 20
157.403944
 30
0.0
  0
POINT
  8
DEFPOINTS
  6
CONTINUOUS
 62
    30
 10
-265.0
 20
284.89993534706628
 30
0.0
  0
LINE
  8
SIZE
  6
CONTINUOUS
 62
    30
 10
-265.0
 20
177.403944
 30
0.0
 11
-265.0
 21
445.33696620043878
 31
0.0
  0
LINE
  8
SIZE
  6
CONTINUOUS
 62
    30
 10
-196.00000000000011
 20
181.814483569039
 30
0.0
 11
-196.00000000000011
 21
445.33696620043878
 31
0.0
  0
LINE
  8
SIZE
  6
CONTINUOUS
 62
    30
 10
-184.00000000000011
 20
425.33696620043878
 30
0.0
 11
-172.00000000000011
 21
425.33696620043878
 31
0.0
  0
LINE
  8
SIZE
  6
CONTINUOUS
 62
    30
 10
-277.0
 20
425.33696620043878
 30
0.0
 11
-446.76471012507523
 21
425.33696620043878
 31
0.0
  0
LINE
  8
SIZE
  6
CONTINUOUS
 62
    30
 10
-196.00000000000011
 20
425.33696620043878
 30
0.0
 11
-265.0
 21
425.33696620043878
 31
0.0
  0
CIRCLE
  8
SIZE
  6
CONTINUOUS
 62
    30
 10
-196.00000000000011
 20
425.33696620043878
 30
0.0
 40
6.0
  0
LINE
  8
SIZE
  6
CONTINUOUS
 62
    30
 10
-196.00000000000011
 20
425.33696620043878
 30
0.0
 11
-184.00000000000011
 21
425.33696620043878
 31
0.0
  0
CIRCLE
  8
SIZE
  6
CONTINUOUS
 62
    30
 10
-265.0
 20
425.33696620043878
 30
0.0
 40
6.0
  0
LINE
  8
SIZE
  6
CONTINUOUS
 62
    30
 10
-265.0
 20
425.33696620043878
 30
0.0
 11
-277.0
 21
425.33696620043878
 31
0.0
  0
TEXT
  8
SIZE
  6
CONTINUOUS
 62
    30
 10
-421.7647101250754
 20
450.33696620043878
 30
0.0
 40
64.0
  1
69
 41
0.9
 72
     1
 11
-376.50756726793247
 21
450.33696620043878
 31
0.0
  0
POINT
  8
DEFPOINTS
  6
CONTINUOUS
 62
    30
 10
-265.0
 20
157.403944
 30
0.0
  0
POINT
  8
DEFPOINTS
  6
CONTINUOUS
 62
    30
 10
-196.00000000000011
 20
161.814483569039
 30
0.0
  0
POINT
  8
DEFPOINTS
  6
CONTINUOUS
 62
    30
 10
-196.00000000000011
 20
425.33696620043878
 30
0.0
  0
LINE
  8
SIZE
  6
CONTINUOUS
 62
    30
 10
68.5
 20
200.00003000000001
 30
0.0
 11
463.38346657946749
 21
200.00002999999981
 31
0.0
  0
LINE
  8
SIZE
  6
CONTINUOUS
 62
    30
 10
215.0
 20
0.0000000000001137
 30
0.0
 11
463.38346657946749
 21
0.0000000000000568
 31
0.0
  0
LINE
  8
SIZE
  6
CONTINUOUS
 62
    30
 10
443.38346657946749
 20
188.0000299999999
 30
0.0
 11
443.38346657946749
 21
12.00000000000006
 31
0.0
  0
CIRCLE
  8
SIZE
  6
CONTINUOUS
 62
    30
 10
443.38346657946749
 20
200.0000299999999
 30
0.0
 40
6.0
  0
LINE
  8
SIZE
  6
CONTINUOUS
 62
    30
 10
443.38346657946749
 20
200.0000299999999
 30
0.0
 11
443.38346657946749
 21
188.0000299999999
 31
0.0
  0
CIRCLE
  8
SIZE
  6
CONTINUOUS
 62
    30
 10
443.38346657946749
 20
0.0000000000000568
 30
0.0
 40
6.0
  0
LINE
  8
SIZE
  6
CONTINUOUS
 62
    30
 10
443.38346657946749
 20
0.0000000000000568
 30
0.0
 11
443.38346657946749
 21
12.00000000000006
 31
0.0
  0
TEXT
  8
SIZE
  6
CONTINUOUS
 62
    30
 10
418.38346657946749
 20
25.942872142857109
 30
0.0
 40
64.0
  1
200
 50
90.0
 41
0.9
 72
     1
 11
418.38346657946749
 21
100.000015
 31
0.0
  0
POINT
  8
DEFPOINTS
  6
CONTINUOUS
 62
    30
 10
48.5
 20
200.00003000000001
 30
0.0
  0
POINT
  8
DEFPOINTS
  6
CONTINUOUS
 62
    30
 10
195.0
 20
0.0000000000001137
 30
0.0
  0
POINT
  8
DEFPOINTS
  6
CONTINUOUS
 62
    30
 10
443.38346657946749
 20
0.0000000000000568
 30
0.0
  0
LINE
  8
SIZE
  6
CONTINUOUS
 62
    30
 10
198.30472199999991
 20
-7.0
 30
0.0
 11
463.38346657946749
 21
-7.0000000000000568
 31
0.0
  0
LINE
  8
SIZE
  6
CONTINUOUS
 62
    30
 10
215.0
 20
0.0
 30
0.0
 11
463.38346657946749
 21
-0.0000000000000568
 31
0.0
  0
LINE
  8
SIZE
  6
CONTINUOUS
 62
    30
 10
443.38346657946749
 20
11.99999999999994
 30
0.0
 11
443.38346657946749
 21
23.99999999999994
 31
0.0
  0
LINE
  8
SIZE
  6
CONTINUOUS
 62
    30
 10
443.38346657946749
 20
-19.00000000000006
 30
0.0
 11
443.38346657946749
 21
-151.84285709269679
 31
0.0
  0
LINE
  8
SIZE
  6
CONTINUOUS
 62
    30
 10
443.38346657946749
 20
-0.0000000000000568
 30
0.0
 11
443.38346657946749
 21
-7.0000000000000568
 31
0.0
  0
CIRCLE
  8
SIZE
  6
CONTINUOUS
 62
    30
 10
443.38346657946749
 20
-0.0000000000000568
 30
0.0
 40
6.0
  0
LINE
  8
SIZE
  6
CONTINUOUS
 62
    30
 10
443.38346657946749
 20
-0.0000000000000568
 30
0.0
 11
443.38346657946749
 21
11.99999999999994
 31
0.0
  0
CIRCLE
  8
SIZE
  6
CONTINUOUS
 62
    30
 10
443.38346657946749
 20
-7.0000000000000568
 30
0.0
 40
6.0
  0
LINE
  8
SIZE
  6
CONTINUOUS
 62
    30
 10
443.38346657946749
 20
-7.0000000000000568
 30
0.0
 11
443.38346657946749
 21
-19.00000000000006
 31
0.0
  0
TEXT
  8
SIZE
  6
CONTINUOUS
 62
    30
 10
418.38346657946749
 20
-126.8428570926967
 30
0.0
 40
64.0
  1
7
 50
90.0
 41
0.9
 72
     1
 11
418.38346657946749
 21
-107.6428570926967
 31
0.0
  0
POINT
  8
DEFPOINTS
  6
CONTINUOUS
 62
    30
 10
178.30472199999991
 20
-7.0
 30
0.0
  0
POINT
  8
DEFPOINTS
  6
CONTINUOUS
 62
    30
 10
195.0
 20
0.0
 30
0.0
  0
POINT
  8
DEFPOINTS
  6
CONTINUOUS
 62
    30
 10
443.38346657946749
 20
-0.0000000000000568
 30
0.0
  0
LINE
  8
SIZE
  6
CONTINUOUS
 62
    30
 10
-175.38640592186971
 20
52.136013934021321
 30
0.0
 11
-399.31849891740973
 21
52.136013934021378
 31
0.0
  0
LINE
  8
SIZE
  6
CONTINUOUS
 62
    30
 10
-201.375
 20
0.0
 30
0.0
 11
-399.31849891740973
 21
0.0000000000000568
 31
0.0
  0
LINE
  8
SIZE
  6
CONTINUOUS
 62
    30
 10
-379.31849891740973
 20
64.136013934021378
 30
0.0
 11
-379.31849891740973
 21
76.136013934021378
 31
0.0
  0
LINE
  8
SIZE
  6
CONTINUOUS
 62
    30
 10
-379.31849891740973
 20
-11.99999999999994
 30
0.0
 11
-379.31849891740973
 21
-172.6212663619844
 31
0.0
  0
LINE
  8
SIZE
  6
CONTINUOUS
 62
    30
 10
-379.31849891740973
 20
52.136013934021378
 30
0.0
 11
-379.31849891740973
 21
0.0000000000000568
 31
0.0
  0
CIRCLE
  8
SIZE
  6
CONTINUOUS
 62
    30
 10
-379.31849891740973
 20
52.136013934021378
 30
0.0
 40
6.0
  0
LINE
  8
SIZE
  6
CONTINUOUS
 62
    30
 10
-379.31849891740973
 20
52.136013934021378
 30
0.0
 11
-379.31849891740973
 21
64.136013934021378
 31
0.0
  0
CIRCLE
  8
SIZE
  6
CONTINUOUS
 62
    30
 10
-379.31849891740973
 20
0.0000000000000568
 30
0.0
 40
6.0
  0
LINE
  8
SIZE
  6
CONTINUOUS
 62
    30
 10
-379.31849891740973
 20
0.0000000000000568
 30
0.0
 11
-379.31849891740973
 21
-11.99999999999994
 31
0.0
  0
TEXT
  8
SIZE
  6
CONTINUOUS
 62
    30
 10
-404.31849891740973
 20
-147.6212663619846
 30
0.0
 40
64.0
  1
52
 50
90.0
 41
0.9
 72
     1
 11
-404.31849891740973
 21
-100.99269493341311
 31
0.0
  0
POINT
  8
DEFPOINTS
  6
CONTINUOUS
 62
    30
 10
-155.38640592186971
 20
52.136013934021321
 30
0.0
  0
POINT
  8
DEFPOINTS
  6
CONTINUOUS
 62
    30
 10
-181.375
 20
0.0
 30
0.0
  0
POINT
  8
DEFPOINTS
  6
CONTINUOUS
 62
    30
 10
-379.31849891740973
 20
0.0000000000000568
 30
0.0
  0
LINE
  8
SIZE
  6
CONTINUOUS
 62
    30
 10
-301.03252700000007
 20
109.0
 30
0.0
 11
-518.65836407469578
 21
109.0000000000001
 31
0.0
  0
LINE
  8
SIZE
  6
CONTINUOUS
 62
    30
 10
-201.375
 20
0.0
 30
0.0
 11
-518.65836407469578
 21
0.0000000000001137
 31
0.0
  0
LINE
  8
SIZE
  6
CONTINUOUS
 62
    30
 10
-498.65836407469573
 20
97.000000000000114
 30
0.0
 11
-498.65836407469573
 21
12.00000000000011
 31
0.0
  0
LINE
  8
SIZE
  6
CONTINUOUS
 62
    30
 10
-498.65836407469573
 20
0.0000000000001137
 30
0.0
 11
-498.65836407469573
 21
-197.77142857142849
 31
0.0
  0
CIRCLE
  8
SIZE
  6
CONTINUOUS
 62
    30
 10
-498.65836407469573
 20
109.0000000000001
 30
0.0
 40
6.0
  0
LINE
  8
SIZE
  6
CONTINUOUS
 62
    30
 10
-498.65836407469573
 20
109.0000000000001
 30
0.0
 11
-498.65836407469573
 21
97.000000000000114
 31
0.0
  0
CIRCLE
  8
SIZE
  6
CONTINUOUS
 62
    30
 10
-498.65836407469573
 20
0.0000000000001137
 30
0.0
 40
6.0
  0
LINE
  8
SIZE
  6
CONTINUOUS
 62
    30
 10
-498.65836407469573
 20
0.0000000000001137
 30
0.0
 11
-498.65836407469573
 21
12.00000000000011
 31
0.0
  0
TEXT
  8
SIZE
  6
CONTINUOUS
 62
    30
 10
-523.65836407469578
 20
-172.77142857142849
 30
0.0
 40
64.0
  1
109
 50
90.0
 41
0.9
 72
     1
 11
-523.65836407469578
 21
-105.5714285714286
 31
0.0
  0
POINT
  8
DEFPOINTS
  6
CONTINUOUS
 62
    30
 10
-281.03252700000007
 20
109.0
 30
0.0
  0
POINT
  8
DEFPOINTS
  6
CONTINUOUS
 62
    30
 10
-181.375
 20
0.0
 30
0.0
  0
POINT
  8
DEFPOINTS
  6
CONTINUOUS
 62
    30
 10
-498.65836407469573
 20
0.0000000000001137
 30
0.0
  0
LINE
  8
SIZE
  6
CONTINUOUS
 62
    30
 10
-284.50436326774923
 20
60.095274038468013
 30
0.0
 11
-644.34652774656251
 21
60.095274038468062
 31
0.0
  0
LINE
  8
SIZE
  6
CONTINUOUS
 62
    30
 10
-284.50436326774923
 20
157.90392496153211
 30
0.0
 11
-644.34652774656251
 21
157.9039249615322
 31
0.0
  0
LINE
  8
SIZE
  6
CONTINUOUS
 62
    30
 10
-624.34652774656251
 20
145.9039249615322
 30
0.0
 11
-624.34652774656251
 21
72.095274038468119
 31
0.0
  0
LINE
  8
SIZE
  6
CONTINUOUS
 62
    30
 10
-624.34652774656251
 20
60.095274038468062
 30
0.0
 11
-624.34652774656251
 21
-195.75202623189551
 31
0.0
  0
CIRCLE
  8
SIZE
  6
CONTINUOUS
 62
    30
 10
-624.34652774656251
 20
157.9039249615322
 30
0.0
 40
6.0
  0
LINE
  8
SIZE
  6
CONTINUOUS
 62
    30
 10
-624.34652774656251
 20
157.9039249615322
 30
0.0
 11
-624.34652774656251
 21
145.9039249615322
 31
0.0
  0
CIRCLE
  8
SIZE
  6
CONTINUOUS
 62
    30
 10
-624.34652774656251
 20
60.095274038468062
 30
0.0
 40
6.0
  0
LINE
  8
SIZE
  6
CONTINUOUS
 62
    30
 10
-624.34652774656251
 20
60.095274038468062
 30
0.0
 11
-624.34652774656251
 21
72.095274038468062
 31
0.0
  0
TEXT
  8
SIZE
  6
CONTINUOUS
 62
    30
 10
-660.01319441322926
 20
-180.90059766046701
 30
0.0
 40
64.0
  1
φ98
 50
90.0
 41
0.9
 72
     1
 11
-660.01319441322926
 21
-93.952026231895616
 31
0.0
  0
POINT
  8
DEFPOINTS
  6
CONTINUOUS
 62
    30
 10
-264.50436326774928
 20
60.095274038468013
 30
0.0
  0
POINT
  8
DEFPOINTS
  6
CONTINUOUS
 62
    30
 10
-264.50436326774928
 20
157.90392496153211
 30
0.0
  0
POINT
  8
DEFPOINTS
  6
CONTINUOUS
 62
    30
 10
-624.34652774656251
 20
157.9039249615322
 30
0.0
  0
LINE
  8
SIZE
  6
CONTINUOUS
 62
    30
 10
-233.68387381287471
 20
56.493758609687227
 30
0.0
 11
-765.3235958181491
 21
56.493758609687397
 31
0.0
  0
LINE
  8
SIZE
  6
CONTINUOUS
 62
    30
 10
-233.68387400000009
 20
161.50544099999999
 30
0.0
 11
-765.3235958181491
 21
161.50544100000019
 31
0.0
  0
LINE
  8
SIZE
  6
CONTINUOUS
 62
    30
 10
-745.3235958181491
 20
149.50544100000019
 30
0.0
 11
-745.3235958181491
 21
68.493758609687404
 31
0.0
  0
LINE
  8
SIZE
  6
CONTINUOUS
 62
    30
 10
-745.3235958181491
 20
56.493758609687397
 30
0.0
 11
-745.3235958181491
 21
-202.99195567602689
 31
0.0
  0
CIRCLE
  8
SIZE
  6
CONTINUOUS
 62
    30
 10
-745.3235958181491
 20
161.50544100000019
 30
0.0
 40
6.0
  0
LINE
  8
SIZE
  6
CONTINUOUS
 62
    30
 10
-745.3235958181491
 20
161.50544100000019
 30
0.0
 11
-745.3235958181491
 21
149.50544100000019
 31
0.0
  0
CIRCLE
  8
SIZE
  6
CONTINUOUS
 62
    30
 10
-745.3235958181491
 20
56.493758609687397
 30
0.0
 40
6.0
  0
LINE
  8
SIZE
  6
CONTINUOUS
 62
    30
 10
-745.3235958181491
 20
56.493758609687397
 30
0.0
 11
-745.3235958181491
 21
68.493758609687404
 31
0.0
  0
TEXT
  8
SIZE
  6
CONTINUOUS
 62
    30
 10
-780.99026248481573
 20
-188.14052710459839
 30
0.0
 40
64.0
  1
φ105
 50
90.0
 41
0.9
 72
     1
 11
-780.99026248481573
 21
-79.249098533169786
 31
0.0
  0
POINT
  8
DEFPOINTS
  6
CONTINUOUS
 62
    30
 10
-213.68387381287471
 20
56.493758609687227
 30
0.0
  0
POINT
  8
DEFPOINTS
  6
CONTINUOUS
 62
    30
 10
-213.68387400000009
 20
161.50544099999999
 30
0.0
  0
POINT
  8
DEFPOINTS
  6
CONTINUOUS
 62
    30
 10
-745.3235958181491
 20
161.50544100000019
 30
0.0
  0
LINE
  8
BASIS
  6
DASHDOT
 62
     6
 10
-281.03252700000007
 20
109.0
 30
0.0
 11
-130.21167299999999
 21
109.0
 31
0.0
  0
LINE
  8
NOTE
  6
CENTER
 62
     4
 10
165.0
 20
-7.160033999999996
 30
0.0
 11
165.0
 21
7.5171460000000252
 31
0.0
  0
LINE
  8
NOTE
  6
CENTER
 62
     4
 10
100.0
 20
-7.160033999999996
 30
0.0
 11
100.0
 21
7.5171460000000252
 31
0.0
  0
LINE
  8
NOTE
  6
CENTER
 62
     4
 10
-100.0
 20
-7.160033999999996
 30
0.0
 11
-100.0
 21
7.5171460000000252
 31
0.0
  0
LINE
  8
NOTE
  6
CENTER
 62
     4
 10
-165.00000000000011
 20
-7.160033999999996
 30
0.0
 11
-165.00000000000011
 21
7.5171460000000252
 31
0.0
  0
LINE
  8
NOTE
  6
CENTER
 62
     4
 10
-85.0
 20
154.251428
 30
0.0
 11
-85.0
 21
176.69253599999999
 31
0.0
  0
TEXT
  8
ETC
  6
CONTINUOUS
 62
    61
 10
359.55468105397949
 20
833.91673373223875
 30
0.0
 40
64.0
  1
VD-18ZLSC13-IN_4
 41
0.9
  0
TEXT
  8
ETC
  6
CONTINUOUS
 62
    61
 10
355.3686870539791
 20
715.9614237174078
 30
0.0
 40
64.0
  1
換気扇
 41
0.9
  0
TEXT
  8
ETC
  6
CONTINUOUS
 62
    61
 10
406.07008530253512
 20
607.81265083118251
 30
0.0
 40
40.0
  1
VD-18ZLSC13-IN
 41
0.9
  0
LINE
  8
DETAIL
  6
CONTINUOUS
 62
     5
 10
-64.0
 20
165.0
 30
0.0
 11
-145.3875410000002
 21
165.0
 31
0.0
  0
LINE
  8
OUTLINE
  6
CONTINUOUS
 62
     3
 10
-156.0
 20
-0.0004000000000133
 30
0.0
 11
-155.1313640000001
 21
51.451863000000003
 31
0.0
  0
ARC
  8
OUTLINE
  6
CONTINUOUS
 62
     3
 10
-156.1312210000001
 20
51.468742999999897
 30
0.0
 40
1.0
 50
359.03280200000222
 51
84.680761999991745
  0
LINE
  8
OUTLINE
  6
CONTINUOUS
 62
     3
 10
-153.23022700000001
 20
164.06248999999991
 30
0.0
 11
-153.03319500000001
 21
175.73335999999989
 31
0.0
  0
ARC
  8
OUTLINE
  6
CONTINUOUS
 62
     3
 10
-154.23008500000009
 20
164.0793699999999
 30
0.0
 40
1.0
 50
271.73439200000968
 51
359.03280300000279
  0
LINE
  8
OUTLINE
  6
CONTINUOUS
 62
     3
 10
-195.88469400000011
 20
161.81760499999999
 30
0.0
 11
-154.19981899999991
 21
163.07982799999991
 31
0.0
  0
LINE
  8
OUTLINE
  6
CONTINUOUS
 62
     3
 10
-143.82397200000011
 20
182.69959999999989
 30
0.0
 11
-146.03128899999999
 21
182.69959999999989
 31
0.0
  0
LINE
  8
OUTLINE
  6
CONTINUOUS
 62
     3
 10
-143.81471099999999
 20
183.23017699999991
 30
0.0
 11
-143.82397200000011
 21
182.69959999999989
 31
0.0
  0
LINE
  8
OUTLINE
  6
CONTINUOUS
 62
     3
 10
-118.0020500000001
 20
182.69959999999989
 30
0.0
 11
-125.1582330000001
 21
182.69959999999989
 31
0.0
  0
LINE
  8
OUTLINE
  6
CONTINUOUS
 62
     3
 10
-125.1582330000001
 20
182.69959999999989
 30
0.0
 11
-125.2868600000002
 21
184.16981100000001
 31
0.0
  0
LINE
  8
OUTLINE
  6
CONTINUOUS
 62
     3
 10
-124.0058199999999
 20
169.5274619999999
 30
0.0
 11
-124.5458120000001
 21
175.69959999999989
 31
0.0
  0
LINE
  8
OUTLINE
  6
CONTINUOUS
 62
     3
 10
-117.551103
 20
175.69959999999989
 30
0.0
 11
-124.5458120000001
 21
175.69959999999989
 31
0.0
  0
LINE
  8
OUTLINE
  6
CONTINUOUS
 62
     3
 10
-62.0
 20
167.99999999999989
 30
0.0
 11
-123.804838
 21
167.99999999999989
 31
0.0
  0
LINE
  8
OUTLINE
  6
CONTINUOUS
 62
     3
 10
-123.804838
 20
167.99999999999989
 30
0.0
 11
-124.0058199999999
 21
169.5274619999999
 31
0.0
  0
LINE
  8
OUTLINE
  6
CONTINUOUS
 62
     3
 10
-27.5
 20
174.49999999999989
 30
0.0
 11
-27.5
 21
194.5000299999999
 31
0.0
  0
LINE
  8
OUTLINE
  6
CONTINUOUS
 62
     3
 10
-27.5
 20
174.49999999999989
 30
0.0
 11
-28.85749299999998
 21
172.2375109999999
 31
0.0
  0
LINE
  8
OUTLINE
  6
CONTINUOUS
 62
     3
 10
54.0
 20
167.99999999999989
 30
0.0
 11
54.0
 21
194.5000299999999
 31
0.0
  0
LINE
  8
OUTLINE
  6
CONTINUOUS
 62
     3
 10
94.355560999999852
 20
167.99999999999989
 30
0.0
 11
54.0
 21
167.99999999999989
 31
0.0
  0
LINE
  8
OUTLINE
  6
CONTINUOUS
 62
     3
 10
148.90908899999999
 20
164.99999999999989
 30
0.0
 11
94.987266999999974
 21
164.99999999999989
 31
0.0
  0
LINE
  8
OUTLINE
  6
CONTINUOUS
 62
     3
 10
94.987266999999974
 20
164.99999999999989
 30
0.0
 11
94.854875999999877
 21
167.5261679999999
 31
0.0
  0
LINE
  8
OUTLINE
  6
CONTINUOUS
 62
     3
 10
-62.0
 20
167.99999999999989
 30
0.0
 11
-29.0
 21
167.99999999999989
 31
0.0
  0
ARC
  8
OUTLINE
  6
CONTINUOUS
 62
     3
 10
-143.31478700000031
 20
183.22145099999989
 30
0.0
 40
0.5
 50
155.77225500000071
 51
178.99999999999829
  0
LINE
  8
OUTLINE
  6
CONTINUOUS
 62
     3
 10
-139.59540100000001
 20
192.70518199999989
 30
0.0
 11
-143.77074799999991
 21
183.4266329999999
 31
0.0
  0
LINE
  8
OUTLINE
  6
CONTINUOUS
 62
     3
 10
-126.732299
 20
187.26956599999991
 30
0.0
 11
-132.31628599999999
 21
192.85355299999989
 31
0.0
  0
LINE
  8
OUTLINE
  6
CONTINUOUS
 62
     3
 10
-132.66983999999999
 20
192.99999999999989
 30
0.0
 11
-139.13943999999989
 21
192.99999999999989
 31
0.0
  0
ARC
  8
OUTLINE
  6
CONTINUOUS
 62
     3
 10
-130.26783300000011
 20
183.7340319999997
 30
0.0
 40
5.0
 50
4.9990650000016954
 51
45.000000000008917
  0
ARC
  8
OUTLINE
  6
CONTINUOUS
 62
     3
 10
-132.66983999999999
 20
192.49999999999989
 30
0.0
 40
0.5
 50
45.000000000008917
 51
90.0
  0
ARC
  8
OUTLINE
  6
CONTINUOUS
 62
     3
 10
-139.13943999999989
 20
192.49999999999989
 30
0.0
 40
0.5
 50
90.0
 51
155.77225500000071
  0
ARC
  8
OUTLINE
  6
CONTINUOUS
 62
     3
 10
94.355560999999852
 20
167.49999999999989
 30
0.0
 40
0.5
 50
2.9999999999990901
 51
90.0
  0
ARC
  8
OUTLINE
  6
CONTINUOUS
 62
     3
 10
148.90908899999999
 20
161.99999999999989
 30
0.0
 40
3.0
 50
1.0000000000017619
 51
90.0
  0
LINE
  8
OUTLINE
  6
CONTINUOUS
 62
     3
 10
154.737267
 20
0.0
 30
0.0
 11
151.90863300000001
 21
162.0523569999998
 31
0.0
  0
LINE
  8
OUTLINE
  6
CONTINUOUS
 62
     3
 10
48.5
 20
200.0000299999999
 30
0.0
 11
-22.0
 21
200.0000299999999
 31
0.0
  0
ARC
  8
OUTLINE
  6
CONTINUOUS
 62
     3
 10
-22.0
 20
194.5000299999999
 30
0.0
 40
5.5
 50
90.0
 51
180.0
  0
ARC
  8
OUTLINE
  6
CONTINUOUS
 62
     3
 10
48.5
 20
194.5000299999999
 30
0.0
 40
5.5
 50
0.0
 51
90.0
  0
ARC
  8
OUTLINE
  6
CONTINUOUS
 62
     3
 10
-196.99282600000021
 20
38.199672999999848
 30
0.0
 40
18.0
 50
84.680761000002676
 51
88.999999999998238
  0
LINE
  8
OUTLINE
  6
CONTINUOUS
 62
     3
 10
-156.0385160000001
 20
52.464435999999978
 30
0.0
 11
-195.32413799999989
 21
56.122159000000011
 31
0.0
  0
LINE
  8
OUTLINE
  6
CONTINUOUS
 62
     3
 10
-213.68387400000009
 20
56.493758999999947
 30
0.0
 11
-196.67868300000009
 21
56.196931999999833
 31
0.0
  0
ARC
  8
OUTLINE
  6
CONTINUOUS
 62
     3
 10
-213.64896900000011
 20
58.493453999999929
 30
0.0
 40
2.0
 50
249.99999999999639
 51
268.99999999999818
  0
LINE
  8
OUTLINE
  6
CONTINUOUS
 62
     3
 10
-222.57706300000009
 20
59.614658999999961
 30
0.0
 11
-214.33300900000009
 21
56.614068999999972
 31
0.0
  0
ARC
  8
OUTLINE
  6
CONTINUOUS
 62
     3
 10
-223.26110299999999
 20
57.73527399999989
 30
0.0
 40
2.0
 50
69.999999999996433
 51
89.499999999995424
  0
ARC
  8
OUTLINE
  6
CONTINUOUS
 62
     3
 10
-264.5
 20
60.595254999999952
 30
0.0
 40
0.5
 50
180.0
 51
269.4999999999954
  0
LINE
  8
OUTLINE
  6
CONTINUOUS
 62
     3
 10
-264.50436400000001
 20
60.095273999999897
 30
0.0
 11
-223.24365000000009
 21
59.735196999999971
 31
0.0
  0
LINE
  8
OUTLINE
  6
CONTINUOUS
 62
     3
 10
-265.0
 20
157.40394399999991
 30
0.0
 11
-265.0
 21
60.595254999999952
 31
0.0
  0
ARC
  8
OUTLINE
  6
CONTINUOUS
 62
     3
 10
-264.5
 20
157.40394399999991
 30
0.0
 40
0.5
 50
90.50000000000459
 51
180.0
  0
LINE
  8
OUTLINE
  6
CONTINUOUS
 62
     3
 10
-264.50436400000001
 20
157.90392499999979
 30
0.0
 11
-223.24365000000009
 21
158.26400199999989
 31
0.0
  0
ARC
  8
OUTLINE
  6
CONTINUOUS
 62
     3
 10
-223.26110299999999
 20
160.26392599999991
 30
0.0
 40
2.0
 50
270.50000000000449
 51
290.00000000000352
  0
LINE
  8
OUTLINE
  6
CONTINUOUS
 62
     3
 10
-222.57706300000009
 20
158.3845399999999
 30
0.0
 11
-214.33300900000009
 21
161.38512999999989
 31
0.0
  0
ARC
  8
OUTLINE
  6
CONTINUOUS
 62
     3
 10
-213.64896900000011
 20
159.50574499999991
 30
0.0
 40
2.0
 50
91.000000000001776
 51
110.0000000000036
  0
LINE
  8
OUTLINE
  6
CONTINUOUS
 62
     3
 10
-213.68387400000009
 20
161.50544099999991
 30
0.0
 11
-196.11534299999991
 21
161.8120999999999
 31
0.0
  0
ARC
  8
OUTLINE
  6
CONTINUOUS
 62
     3
 10
-196.429486
 20
179.80935899999989
 30
0.0
 40
18.0
 50
271.00000000000182
 51
271.7343929999937
  0
ARC
  8
OUTLINE
  6
CONTINUOUS
 62
     3
 10
-151.0334800000002
 20
175.69959999999989
 30
0.0
 40
2.0
 50
90.0
 51
179.03280200000219
  0
LINE
  8
OUTLINE
  6
CONTINUOUS
 62
     3
 10
-151.0334800000002
 20
177.69959999999989
 30
0.0
 11
-146.930159
 21
177.69959999999989
 31
0.0
  0
LINE
  8
OUTLINE
  6
CONTINUOUS
 62
     3
 10
-146.930159
 20
177.69959999999989
 30
0.0
 11
-146.78083199999989
 21
181.975774
 31
0.0
  0
ARC
  8
OUTLINE
  6
CONTINUOUS
 62
     3
 10
-146.03128899999999
 20
181.94959999999989
 30
0.0
 40
0.75
 50
90.0
 51
178.0000000000029
  0
ARC
  8
OUTLINE
  6
CONTINUOUS
 62
     3
 10
-117.551103
 20
176.19959999999989
 30
0.0
 40
0.5
 50
270.0
 51
1.999999999997103
  0
LINE
  8
OUTLINE
  6
CONTINUOUS
 62
     3
 10
-117.0514069999999
 20
176.21704899999989
 30
0.0
 11
-117.25250700000019
 21
181.975774
 31
0.0
  0
ARC
  8
OUTLINE
  6
CONTINUOUS
 62
     3
 10
-118.0020500000001
 20
181.94959999999989
 30
0.0
 40
0.75
 50
1.999999999997103
 51
90.0
  0
ARC
  8
OUTLINE
  6
CONTINUOUS
 62
     3
 10
-28.0
 20
171.72301599999989
 30
0.0
 40
1.0
 50
149.036242999998
 51
180.0
  0
LINE
  8
OUTLINE
  6
CONTINUOUS
 62
     3
 10
-29.0
 20
167.99999999999989
 30
0.0
 11
-29.0
 21
171.72301599999989
 31
0.0
  0
LINE
  8
DETAIL
  6
CONTINUOUS
 62
     5
 10
-62.0
 20
168.0
 30
0.0
 11
-123.804838
 21
168.0
 31
0.0
  0
LINE
  8
DETAIL
  6
CONTINUOUS
 62
     5
 10
-62.0
 20
168.0
 30
0.0
 11
-29.0
 21
168.0
 31
0.0
  0
ARC
  8
DETAIL
  6
CONTINUOUS
 62
     5
 10
-143.31478700000031
 20
183.221451
 30
0.0
 40
0.5
 50
155.77225500000071
 51
178.99999999999829
  0
LINE
  8
DETAIL
  6
CONTINUOUS
 62
     5
 10
-143.81471099999999
 20
183.230177
 30
0.0
 11
-143.82745600000001
 21
182.5
 31
0.0
  0
LINE
  8
DETAIL
  6
CONTINUOUS
 62
     5
 10
-139.59540100000001
 20
192.70518200000001
 30
0.0
 11
-143.77074799999991
 21
183.42663300000001
 31
0.0
  0
LINE
  8
DETAIL
  6
CONTINUOUS
 62
     5
 10
-123.4101009999999
 20
165.0
 30
0.0
 11
-124.0058199999999
 21
169.52746200000001
 31
0.0
  0
LINE
  8
DETAIL
  6
CONTINUOUS
 62
     5
 10
-124.0058199999999
 20
169.52746200000001
 30
0.0
 11
-124.52835
 21
175.5
 31
0.0
  0
LINE
  8
DETAIL
  6
CONTINUOUS
 62
     5
 10
-126.732299
 20
187.26956600000011
 30
0.0
 11
-132.31628599999999
 21
192.85355300000001
 31
0.0
  0
LINE
  8
DETAIL
  6
CONTINUOUS
 62
     5
 10
-132.66983999999999
 20
193.0
 30
0.0
 11
-139.13943999999989
 21
193.0
 31
0.0
  0
ARC
  8
DETAIL
  6
CONTINUOUS
 62
     5
 10
-130.26783300000011
 20
183.7340320000001
 30
0.0
 40
5.0
 50
4.9990650000016954
 51
45.000000000008917
  0
ARC
  8
DETAIL
  6
CONTINUOUS
 62
     5
 10
-132.66983999999999
 20
192.5
 30
0.0
 40
0.5
 50
45.000000000008917
 51
90.0
  0
ARC
  8
DETAIL
  6
CONTINUOUS
 62
     5
 10
-139.13943999999989
 20
192.5
 30
0.0
 40
0.5
 50
90.0
 51
155.77225500000071
  0
LINE
  8
DETAIL
  6
CONTINUOUS
 62
     5
 10
-125.14077
 20
182.5
 30
0.0
 11
-125.2868600000002
 21
184.1698110000001
 31
0.0
  0
LINE
  8
DETAIL
  6
CONTINUOUS
 62
     5
 10
94.355560999999852
 20
168.0
 30
0.0
 11
40.0
 21
168.0
 31
0.0
  0
LINE
  8
DETAIL
  6
CONTINUOUS
 62
     5
 10
-21.405623999999989
 20
187.508726
 30
0.0
 11
-21.309469000000039
 21
182.0
 31
0.0
  0
LINE
  8
DETAIL
  6
CONTINUOUS
 62
     5
 10
-21.905548000000181
 20
188.0
 30
0.0
 11
-22.119918000000101
 21
188.0
 31
0.0
  0
ARC
  8
DETAIL
  6
CONTINUOUS
 62
     5
 10
-21.905548000000181
 20
187.49999500000001
 30
0.0
 40
0.5
 50
1.0004720000029941
 51
90.0
  0
ARC
  8
DETAIL
  6
CONTINUOUS
 62
     5
 10
-22.119918000000101
 20
187.49999500000001
 30
0.0
 40
0.5
 50
90.0
 51
178.99951100000001
  0
LINE
  8
DETAIL
  6
CONTINUOUS
 62
     5
 10
-22.619842000000059
 20
187.508726
 30
0.0
 11
-22.715997000000019
 21
182.0
 31
0.0
  0
LINE
  8
DETAIL
  6
CONTINUOUS
 62
     5
 10
21.284002999999981
 20
182.0
 30
0.0
 11
21.380157999999941
 21
187.508726
 31
0.0
  0
LINE
  8
DETAIL
  6
CONTINUOUS
 62
     5
 10
22.690530999999961
 20
182.0
 30
0.0
 11
22.594376000000011
 21
187.508726
 31
0.0
  0
LINE
  8
DETAIL
  6
CONTINUOUS
 62
     5
 10
22.094451999999819
 20
188.0
 30
0.0
 11
21.880081999999899
 21
188.0
 31
0.0
  0
ARC
  8
DETAIL
  6
CONTINUOUS
 62
     5
 10
21.880081999999899
 20
187.49999500000001
 30
0.0
 40
0.5
 50
90.0
 51
178.99944100000309
  0
ARC
  8
DETAIL
  6
CONTINUOUS
 62
     5
 10
22.094451999999819
 20
187.49999500000001
 30
0.0
 40
0.5
 50
1.000565000001816
 51
90.0
  0
LINE
  8
DETAIL
  6
CONTINUOUS
 62
     5
 10
94.987266999999974
 20
165.0
 30
0.0
 11
94.854875999999877
 21
167.52616800000001
 31
0.0
  0
ARC
  8
DETAIL
  6
CONTINUOUS
 62
     5
 10
94.355560999999852
 20
167.5
 30
0.0
 40
0.5
 50
2.9999999999990901
 51
90.0
  0
LINE
  8
DETAIL
  6
CONTINUOUS
 62
     5
 10
148.90908899999999
 20
165.0
 30
0.0
 11
42.0
 21
165.0
 31
0.0
  0
ARC
  8
DETAIL
  6
CONTINUOUS
 62
     5
 10
148.90908899999999
 20
162.0
 30
0.0
 40
3.0
 50
1.0000000000017619
 51
90.0
  0
LINE
  8
DETAIL
  6
CONTINUOUS
 62
     5
 10
154.737267
 20
0.0
 30
0.0
 11
151.90863300000001
 21
162.052357
 31
0.0
  0
LINE
  8
DETAIL
  6
CONTINUOUS
 62
     5
 10
123.5872669999999
 20
165.0
 30
0.0
 11
123.7131939999999
 21
172.21434300000001
 31
0.0
  0
LINE
  8
DETAIL
  6
CONTINUOUS
 62
     5
 10
123.7131939999999
 20
172.21434300000001
 30
0.0
 11
132.34948199999999
 21
186.91440700000001
 31
0.0
  0
LINE
  8
DETAIL
  6
CONTINUOUS
 62
     5
 10
134.2463459999999
 20
188.0
 30
0.0
 11
135.023866
 21
188.0
 31
0.0
  0
ARC
  8
DETAIL
  6
CONTINUOUS
 62
     5
 10
135.023866
 20
185.8000000000001
 30
0.0
 40
2.2000000000000002
 50
0.9922939999968263
 51
90.0
  0
ARC
  8
DETAIL
  6
CONTINUOUS
 62
     5
 10
134.2463459999999
 20
185.8000000000001
 30
0.0
 40
2.2000000000000002
 50
90.0
 51
149.56576400000071
  0
LINE
  8
DETAIL
  6
CONTINUOUS
 62
     5
 10
137.58726699999991
 20
165.0
 30
0.0
 11
137.22353100000009
 21
185.83839500000011
 31
0.0
  0
LINE
  8
DETAIL
  6
CONTINUOUS
 62
     5
 10
54.0
 20
168.0
 30
0.0
 11
54.0
 21
194.50003000000001
 31
0.0
  0
LINE
  8
DETAIL
  6
CONTINUOUS
 62
     5
 10
48.5
 20
200.00003000000001
 30
0.0
 11
-22.0
 21
200.00003000000001
 31
0.0
  0
LINE
  8
DETAIL
  6
CONTINUOUS
 62
     5
 10
-27.5
 20
174.5
 30
0.0
 11
-27.5
 21
194.50003000000001
 31
0.0
  0
ARC
  8
DETAIL
  6
CONTINUOUS
 62
     5
 10
-22.0
 20
194.50003000000001
 30
0.0
 40
5.5
 50
90.0
 51
180.0
  0
ARC
  8
DETAIL
  6
CONTINUOUS
 62
     5
 10
48.5
 20
194.50003000000001
 30
0.0
 40
5.5
 50
0.0
 51
90.0
  0
LINE
  8
DETAIL
  6
CONTINUOUS
 62
     5
 10
-196.0
 20
161.81448399999999
 30
0.0
 11
-196.0
 21
56.172272000000021
 31
0.0
  0
LINE
  8
DETAIL
  6
CONTINUOUS
 62
     5
 10
-214.01850800000011
 20
56.527889999999957
 30
0.0
 11
-214.01850800000011
 21
161.47130899999999
 31
0.0
  0
LINE
  8
DETAIL
  6
CONTINUOUS
 62
     5
 10
-222.90000000000009
 20
59.702404999999999
 30
0.0
 11
-222.90000000000009
 21
158.29679400000001
 31
0.0
  0
LINE
  8
DETAIL
  6
CONTINUOUS
 62
     5
 10
-156.0
 20
-0.0004000000000133
 30
0.0
 11
-153.03319500000001
 21
175.73336000000009
 31
0.0
  0
ARC
  8
DETAIL
  6
CONTINUOUS
 62
     5
 10
-156.1312210000001
 20
51.468743000000018
 30
0.0
 40
1.0
 50
359.03280200000222
 51
84.680761999991745
  0
ARC
  8
DETAIL
  6
CONTINUOUS
 62
     5
 10
-196.99282600000021
 20
38.199672999999962
 30
0.0
 40
18.0
 50
84.680761000002676
 51
88.999999999998238
  0
LINE
  8
DETAIL
  6
CONTINUOUS
 62
     5
 10
-156.0385160000001
 20
52.464436000000092
 30
0.0
 11
-195.32413799999989
 21
56.122159000000011
 31
0.0
  0
LINE
  8
DETAIL
  6
CONTINUOUS
 62
     5
 10
-213.68387400000009
 20
56.493759000000068
 30
0.0
 11
-196.67868300000009
 21
56.196931999999947
 31
0.0
  0
ARC
  8
DETAIL
  6
CONTINUOUS
 62
     5
 10
-213.64896900000011
 20
58.493454000000042
 30
0.0
 40
2.0
 50
249.99999999999639
 51
268.99999999999818
  0
LINE
  8
DETAIL
  6
CONTINUOUS
 62
     5
 10
-222.57706300000009
 20
59.614658999999961
 30
0.0
 11
-214.33300900000009
 21
56.614069000000093
 31
0.0
  0
ARC
  8
DETAIL
  6
CONTINUOUS
 62
     5
 10
-223.26110299999999
 20
57.735273999999997
 30
0.0
 40
2.0
 50
69.999999999996433
 51
89.499999999995424
  0
ARC
  8
DETAIL
  6
CONTINUOUS
 62
     5
 10
-264.5
 20
60.595255000000073
 30
0.0
 40
0.5
 50
180.0
 51
269.4999999999954
  0
LINE
  8
DETAIL
  6
CONTINUOUS
 62
     5
 10
-264.50436400000001
 20
60.095274000000018
 30
0.0
 11
-223.24365000000009
 21
59.735197000000078
 31
0.0
  0
LINE
  8
DETAIL
  6
CONTINUOUS
 62
     5
 10
-265.0
 20
157.403944
 30
0.0
 11
-265.0
 21
60.595255000000073
 31
0.0
  0
ARC
  8
DETAIL
  6
CONTINUOUS
 62
     5
 10
-264.5
 20
157.403944
 30
0.0
 40
0.5
 50
90.50000000000459
 51
180.0
  0
LINE
  8
DETAIL
  6
CONTINUOUS
 62
     5
 10
-264.50436400000001
 20
157.90392499999999
 30
0.0
 11
-223.24365000000009
 21
158.264002
 31
0.0
  0
ARC
  8
DETAIL
  6
CONTINUOUS
 62
     5
 10
-223.26110299999999
 20
160.263926
 30
0.0
 40
2.0
 50
270.50000000000449
 51
290.00000000000352
  0
LINE
  8
DETAIL
  6
CONTINUOUS
 62
     5
 10
-222.57706300000009
 20
158.38453999999999
 30
0.0
 11
-214.33300900000009
 21
161.38513
 31
0.0
  0
ARC
  8
DETAIL
  6
CONTINUOUS
 62
     5
 10
-213.64896900000011
 20
159.50574499999991
 30
0.0
 40
2.0
 50
91.000000000001776
 51
110.0000000000036
  0
LINE
  8
DETAIL
  6
CONTINUOUS
 62
     5
 10
-213.68387400000009
 20
161.50544099999999
 30
0.0
 11
-196.11534299999991
 21
161.81209999999999
 31
0.0
  0
ARC
  8
DETAIL
  6
CONTINUOUS
 62
     5
 10
-196.429486
 20
179.809359
 30
0.0
 40
18.0
 50
271.00000000000182
 51
271.7343929999937
  0
LINE
  8
DETAIL
  6
CONTINUOUS
 62
     5
 10
-195.88469400000011
 20
161.8176050000001
 30
0.0
 11
-154.19981899999991
 21
163.07982799999999
 31
0.0
  0
ARC
  8
DETAIL
  6
CONTINUOUS
 62
     5
 10
-154.23008500000009
 20
164.07937000000001
 30
0.0
 40
1.0
 50
271.73439200000968
 51
359.03280300000279
  0
ARC
  8
DETAIL
  6
CONTINUOUS
 62
     5
 10
-151.0334800000002
 20
175.6996
 30
0.0
 40
2.0
 50
90.0
 51
179.03280200000219
  0
LINE
  8
DETAIL
  6
CONTINUOUS
 62
     5
 10
-151.0334800000002
 20
177.6996
 30
0.0
 11
-146.930159
 21
177.6996
 31
0.0
  0
LINE
  8
DETAIL
  6
CONTINUOUS
 62
     5
 10
-146.930159
 20
177.6996
 30
0.0
 11
-146.78083199999989
 21
181.97577400000009
 31
0.0
  0
ARC
  8
DETAIL
  6
CONTINUOUS
 62
     5
 10
-146.03128899999999
 20
181.9496
 30
0.0
 40
0.75
 50
90.0
 51
178.0000000000029
  0
LINE
  8
DETAIL
  6
CONTINUOUS
 62
     5
 10
-117.551103
 20
175.6996
 30
0.0
 11
-145.20077900000021
 21
175.6996
 31
0.0
  0
ARC
  8
DETAIL
  6
CONTINUOUS
 62
     5
 10
-117.551103
 20
176.1996
 30
0.0
 40
0.5
 50
270.0
 51
1.999999999997103
  0
LINE
  8
DETAIL
  6
CONTINUOUS
 62
     5
 10
-117.0514069999999
 20
176.217049
 30
0.0
 11
-117.25250700000019
 21
181.97577400000009
 31
0.0
  0
ARC
  8
DETAIL
  6
CONTINUOUS
 62
     5
 10
-118.0020500000001
 20
181.9496
 30
0.0
 40
0.75
 50
1.999999999997103
 51
90.0
  0
LINE
  8
DETAIL
  6
CONTINUOUS
 62
     5
 10
-118.0020500000001
 20
182.6996
 30
0.0
 11
-146.03128899999999
 21
182.6996
 31
0.0
  0
LINE
  8
DETAIL
  6
CONTINUOUS
 62
     5
 10
-145.20077900000021
 20
175.6996
 30
0.0
 11
-148.26763399999999
 21
-0.0004000000000133
 31
0.0
  0
LINE
  8
DETAIL
  6
CONTINUOUS
 62
     5
 10
21.301427999999991
 20
179.0
 30
0.0
 11
26.0
 21
171.16904800000009
 31
0.0
  0
LINE
  8
DETAIL
  6
CONTINUOUS
 62
     5
 10
-21.301429000000098
 20
179.0
 30
0.0
 11
-26.0
 21
171.16904800000009
 31
0.0
  0
LINE
  8
DETAIL
  6
CONTINUOUS
 62
     5
 10
21.301427999999991
 20
179.0
 30
0.0
 11
-21.301429000000098
 21
179.0
 31
0.0
  0
ARC
  8
DETAIL
  6
CONTINUOUS
 62
     5
 10
-28.0
 20
171.723016
 30
0.0
 40
1.0
 50
149.036242999998
 51
180.0
  0
ARC
  8
DETAIL
  6
CONTINUOUS
 62
     5
 10
28.0
 20
171.723016
 30
0.0
 40
1.0
 50
0.0
 51
30.963757000002001
  0
ARC
  8
DETAIL
  6
CONTINUOUS
 62
     5
 10
22.433808999999879
 20
181.0
 30
0.0
 40
1.0
 50
30.963757000002001
 51
90.0
  0
ARC
  8
DETAIL
  6
CONTINUOUS
 62
     5
 10
-22.43380999999999
 20
181.0
 30
0.0
 40
1.0
 50
90.0
 51
149.036242999998
  0
LINE
  8
DETAIL
  6
CONTINUOUS
 62
     5
 10
-22.43380999999999
 20
182.0
 30
0.0
 11
22.433808999999879
 21
182.0
 31
0.0
  0
LINE
  8
DETAIL
  6
CONTINUOUS
 62
     5
 10
-23.291302999999971
 20
181.51449500000001
 30
0.0
 11
-28.85749299999998
 21
172.23751100000001
 31
0.0
  0
LINE
  8
DETAIL
  6
CONTINUOUS
 62
     5
 10
23.291302000000091
 20
181.51449500000001
 30
0.0
 11
28.857491999999869
 21
172.23751100000001
 31
0.0
  0
LINE
  8
DETAIL
  6
CONTINUOUS
 62
     5
 10
29.0
 20
168.0
 30
0.0
 11
29.0
 21
171.723016
 31
0.0
  0
LINE
  8
DETAIL
  6
CONTINUOUS
 62
     5
 10
26.0
 20
168.0
 30
0.0
 11
26.0
 21
171.16904800000009
 31
0.0
  0
LINE
  8
DETAIL
  6
CONTINUOUS
 62
     5
 10
-26.0
 20
168.0
 30
0.0
 11
-26.0
 21
171.16904800000009
 31
0.0
  0
LINE
  8
DETAIL
  6
CONTINUOUS
 62
     5
 10
-29.0
 20
168.0
 30
0.0
 11
-29.0
 21
171.723016
 31
0.0
  0
LINE
  8
DETAIL
  6
CONTINUOUS
 62
     5
 10
-64.0
 20
165.0
 30
0.0
 11
42.0
 21
165.0
 31
0.0
  0
LINE
  8
DETAIL
  6
CONTINUOUS
 62
     5
 10
29.0
 20
168.0
 30
0.0
 11
40.0
 21
168.0
 31
0.0
  0
LINE
  8
DETAIL
  6
CONTINUOUS
 62
     5
 10
-26.0
 20
168.0
 30
0.0
 11
26.0
 21
168.0
 31
0.0
  0
ARC
  8
DETAIL
  6
CONTINUOUS
 62
     5
 10
178.30472199999991
 20
-4.0
 30
0.0
 40
3.0
 50
270.0
 51
358.99999999999818
  0
LINE
  8
DETAIL
  6
CONTINUOUS
 62
     5
 10
181.30426499999999
 20
-4.0523580000000274
 30
0.0
 11
181.375
 21
0.0
 31
0.0
  0
LINE
  8
DETAIL
  6
CONTINUOUS
 62
     5
 10
-181.3042660000001
 20
-4.0523580000000274
 30
0.0
 11
-181.375
 21
0.0
 31
0.0
  0
ARC
  8
DETAIL
  6
CONTINUOUS
 62
     5
 10
-178.30472300000019
 20
-4.0
 30
0.0
 40
3.0
 50
181.00000000000179
 51
270.0
  0
LINE
  8
DETAIL
  6
CONTINUOUS
 62
     5
 10
178.30472199999991
 20
-7.0
 30
0.0
 11
-178.30472300000019
 21
-7.0
 31
0.0
  0
LINE
  8
DETAIL
  6
CONTINUOUS
 62
     5
 10
-181.375
 20
0.0
 30
0.0
 11
181.375
 21
0.0
 31
0.0
  0
LINE
  8
OUTLINE
  6
CONTINUOUS
 62
     3
 10
-181.3042660000001
 20
-4.0523580000000274
 30
0.0
 11
-181.375
 21
0.0
 31
0.0
  0
ARC
  8
OUTLINE
  6
CONTINUOUS
 62
     3
 10
-178.30472300000019
 20
-4.0
 30
0.0
 40
3.0
 50
181.00000000000179
 51
270.0
  0
LINE
  8
OUTLINE
  6
CONTINUOUS
 62
     3
 10
-181.375
 20
0.0
 30
0.0
 11
-155.0
 21
0.0
 31
0.0
  0
ARC
  8
OUTLINE
  6
CONTINUOUS
 62
     3
 10
178.30472199999991
 20
-4.0
 30
0.0
 40
3.0
 50
270.0
 51
358.99999999999818
  0
LINE
  8
OUTLINE
  6
CONTINUOUS
 62
     3
 10
181.30426499999999
 20
-4.0523580000000274
 30
0.0
 11
181.375
 21
0.0
 31
0.0
  0
LINE
  8
OUTLINE
  6
CONTINUOUS
 62
     3
 10
178.30472199999991
 20
-7.0
 30
0.0
 11
-178.30472300000019
 21
-7.0
 31
0.0
  0
LINE
  8
OUTLINE
  6
CONTINUOUS
 62
     3
 10
155.0
 20
0.0
 30
0.0
 11
181.375
 21
0.0
 31
0.0
  0
TEXT
  8
NOTE
  6
CONTINUOUS
 62
     4
 10
428.70928374857522
 20
298.12119584812751
 30
0.0
 40
63.999999999999993
  1
8-φ5
 41
0.9
  0
LINE
  8
NOTE
  6
CONTINUOUS
 62
     4
 10
681.86576284140119
 20
264.81163520242472
 30
0.0
 11
400.28357073026609
 21
264.81166468140327
 31
0.0
  0
ENDSEC
  0
EOF
