  0
SECTION
  2
HEADER
  9
$ACADVER
  1
AC1009
  9
$DWGCODEPAGE
  3
dos932
  9
$INSBASE
 10
0.0
 20
0.0
 30
0.0
  9
$EXTMIN
 10
-890.31389698102794
 20
-859.40550635499676
 30
-0.0038144062317542
  9
$EXTMAX
 10
1537.6419232790779
 20
803.00904147211622
 30
0.0057221914242405
  9
$LIMMIN
 10
-2970.0
 20
-2100.0
  9
$LIMMAX
 10
2970.0
 20
2100.0
  9
$ORTHOMODE
 70
     1
  9
$REGENMODE
 70
     1
  9
$FILLMODE
 70
     1
  9
$QTEXTMODE
 70
     0
  9
$MIRRTEXT
 70
     0
  9
$LTSCALE
 40
20.0
  9
$ATTMODE
 70
     1
  9
$TEXTSIZE
 40
64.0
  9
$TRACEWID
 40
0.05
  9
$TEXTSTYLE
  7
STANDARD
  9
$CLAYER
  8
OUTLINE
  9
$CELTYPE
  6
CONTINUOUS
  9
$CECOLOR
 62
     7
  9
$DIMSCALE
 40
1.0
  9
$DIMASZ
 40
12.0
  9
$DIMEXO
 40
20.0
  9
$DIMDLI
 40
200.0
  9
$DIMRND
 40
0.0
  9
$DIMDLE
 40
0.0
  9
$DIMEXE
 40
20.0
  9
$DIMTP
 40
0.0
  9
$DIMTM
 40
0.0
  9
$DIMTXT
 40
64.0
  9
$DIMCEN
 40
0.09
  9
$DIMTSZ
 40
0.0
  9
$DIMTOL
 70
     0
  9
$DIMLIM
 70
     0
  9
$DIMTIH
 70
     0
  9
$DIMTOH
 70
     0
  9
$DIMSE1
 70
     0
  9
$DIMSE2
 70
     0
  9
$DIMTAD
 70
     1
  9
$DIMZIN
 70
     8
  9
$DIMBLK
  1

  9
$DIMASO
 70
     1
  9
$DIMSHO
 70
     0
  9
$DIMPOST
  1

  9
$DIMAPOST
  1

  9
$DIMALT
 70
     0
  9
$DIMALTD
 70
     2
  9
$DIMALTF
 40
25.399999999999999
  9
$DIMLFAC
 40
1.0
  9
$DIMTOFL
 70
     1
  9
$DIMTVP
 40
0.0
  9
$DIMTIX
 70
     1
  9
$DIMSOXD
 70
     0
  9
$DIMSAH
 70
     0
  9
$DIMBLK1
  1

  9
$DIMBLK2
  1

  9
$DIMSTYLE
  2
STANDARD
  9
$DIMCLRD
 70
     7
  9
$DIMCLRE
 70
     7
  9
$DIMCLRT
 70
     7
  9
$DIMTFAC
 40
1.0
  9
$DIMGAP
 40
25.0
  9
$LUNITS
 70
     2
  9
$LUPREC
 70
     4
  9
$SKETCHINC
 40
0.1
  9
$FILLETRAD
 40
3.0
  9
$AUNITS
 70
     1
  9
$AUPREC
 70
     3
  9
$MENU
  1
ACAD
  9
$ELEVATION
 40
0.0
  9
$PELEVATION
 40
0.0
  9
$THICKNESS
 40
50.0
  9
$LIMCHECK
 70
     0
  9
$CHAMFERA
 40
0.0
  9
$CHAMFERB
 40
0.0
  9
$SKPOLY
 70
     0
  9
$TDCREATE
 40
2453019.62301037
  9
$TDUPDATE
 40
2458899.503439005
  9
$TDINDWG
 40
1.9085443866
  9
$TDUSRTIMER
 40
1.9085443866
  9
$USRTIMER
 70
     1
  9
$ANGBASE
 50
0.0
  9
$ANGDIR
 70
     0
  9
$PDMODE
 70
     3
  9
$PDSIZE
 40
-2.0
  9
$PLINEWID
 40
0.0
  9
$SPLFRAME
 70
     0
  9
$SPLINETYPE
 70
     6
  9
$SPLINESEGS
 70
     8
  9
$SURFTAB1
 70
     6
  9
$SURFTAB2
 70
     6
  9
$SURFTYPE
 70
     6
  9
$SURFU
 70
     6
  9
$SURFV
 70
     6
  9
$UCSNAME
  2

  9
$UCSORG
 10
0.0
 20
0.0
 30
0.0
  9
$UCSXDIR
 10
1.0
 20
0.0
 30
0.0
  9
$UCSYDIR
 10
0.0
 20
1.0
 30
0.0
  9
$PUCSNAME
  2

  9
$PUCSORG
 10
0.0
 20
0.0
 30
0.0
  9
$PUCSXDIR
 10
1.0
 20
0.0
 30
0.0
  9
$PUCSYDIR
 10
0.0
 20
1.0
 30
0.0
  9
$USERI1
 70
     0
  9
$USERI2
 70
     0
  9
$USERI3
 70
     0
  9
$USERI4
 70
     0
  9
$USERI5
 70
     0
  9
$USERR1
 40
20.0
  9
$USERR2
 40
0.0
  9
$USERR3
 40
0.0
  9
$USERR4
 40
0.0
  9
$USERR5
 40
0.0
  9
$WORLDVIEW
 70
     1
  9
$SHADEDGE
 70
     3
  9
$SHADEDIF
 70
    70
  9
$TILEMODE
 70
     1
  9
$MAXACTVP
 70
    48
  9
$PINSBASE
 10
0.0
 20
0.0
 30
0.0
  9
$PLIMCHECK
 70
     0
  9
$PEXTMIN
 10
-100000000000000000000.0
 20
-100000000000000000000.0
 30
-100000000000000000000.0
  9
$PEXTMAX
 10
100000000000000000000.0
 20
100000000000000000000.0
 30
100000000000000000000.0
  9
$PLIMMIN
 10
0.0
 20
0.0
  9
$PLIMMAX
 10
12.0
 20
9.0
  9
$UNITMODE
 70
     0
  9
$VISRETAIN
 70
     0
  9
$PLINEGEN
 70
     0
  9
$PSLTSCALE
 70
     0
  9
$TREEDEPTH
 70
  3020
  9
$ATTDIA
 70
     0
  9
$ATTREQ
 70
     1
  9
$BLIPMODE
 70
     1
  9
$COORDS
 70
     1
  9
$DRAGMODE
 70
     2
  9
$OSMODE
 70
     0
  9
$HANDLING
 70
     0
  9
$HANDSEED
  5
354A4
  0
ENDSEC
  0
SECTION
  2
TABLES
  0
TABLE
  2
LTYPE
 70
     3
  0
LTYPE
  2
CONTINUOUS
 70
     0
  3
実線
 72
    65
 73
     0
 40
0.0
  0
LTYPE
  2
DASHDOT
 70
     0
  3
____ _ ____ _ ____ _ ____ _ ____ _ ____ _ ____
 72
    65
 73
     4
 40
5.5
 49
4.0
 49
-0.6
 49
0.3
 49
-0.6
  0
LTYPE
  2
DIVIDE
 70
     0
  3
Divide ____ . . ____ . . ____ . . ____ . . ____
 72
    65
 73
     6
 40
1.25
 49
0.5
 49
-0.25
 49
0.0
 49
-0.25
 49
0.0
 49
-0.25
  0
ENDTAB
  0
TABLE
  2
LAYER
 70
    12
  0
LAYER
  2
0
 70
     0
 62
     7
  6
CONTINUOUS
  0
LAYER
  2
BASIS
 70
     0
 62
     6
  6
DASHDOT
  0
LAYER
  2
OUTLINE
 70
     0
 62
     3
  6
CONTINUOUS
  0
LAYER
  2
DETAIL
 70
     0
 62
     5
  6
CONTINUOUS
  0
LAYER
  2
SIZE
 70
     0
 62
    30
  6
CONTINUOUS
  0
LAYER
  2
ARRANGE
 70
     0
 62
     1
  6
CONTINUOUS
  0
LAYER
  2
DEFPOINTS
 70
     0
 62
     7
  6
CONTINUOUS
  0
LAYER
  2
ETC
 70
     0
 62
    61
  6
CONTINUOUS
  0
LAYER
  2
FIX
 70
     0
 62
    11
  6
CONTINUOUS
  0
LAYER
  2
NOTE
 70
     0
 62
     4
  6
CONTINUOUS
  0
LAYER
  2
SERVICESPACE
 70
    64
 62
     2
  6
DASHDOT
  0
LAYER
  2
SYMBOLLINE
 70
    64
 62
    15
  6
CONTINUOUS
  0
ENDTAB
  0
TABLE
  2
STYLE
 70
     1
  0
STYLE
  2
STANDARD
 70
     0
 40
64.0
 41
0.9
 50
0.0
 71
     0
 42
64.0
  3
SIMPLEX.shx
  4
BIGFONT.shx
  0
ENDTAB
  0
TABLE
  2
APPID
 70
    17
  0
APPID
  2
ACAD
 70
     0
  0
APPID
  2
AUTOCAD_POSTSCRIPT_FIGURE
 70
     0
  0
APPID
  2
ACAD_EXEMPT_FROM_CAD_STANDARDS
 70
     0
  0
APPID
  2
ACAD_PSEXT
 70
     0
  0
APPID
  2
ACAUTHENVIRON
 70
     0
  0
APPID
  2
GENIUS_GENOENT_13
 70
     0
  0
APPID
  2
GENIUS_GENCFG_13
 70
     0
  0
APPID
  2
GENIUS_GENCFG0_13
 70
     0
  0
APPID
  2
GENIUS_GENCFG1_13
 70
     0
  0
APPID
  2
GENIUS_GENCFG2_13
 70
     0
  0
APPID
  2
GENIUS_GENCFG3_13
 70
     0
  0
APPID
  2
GENIUS_GENCFG4_13
 70
     0
  0
APPID
  2
GENIUS_GEVCFG0_13
 70
     0
  0
APPID
  2
CONTENTBLOCKICON
 70
     0
  0
APPID
  2
CONTENTBLOCKDESCRIPTION
 70
     0
  0
APPID
  2
ACAD_NAV_VCDISPLAY
 70
     0
  0
APPID
  2
ACAD_MLEADERVER
 70
     0
  0
ENDTAB
  0
TABLE
  2
DIMSTYLE
 70
     1
  0
DIMSTYLE
  2
STANDARD
 70
     0
  3

  4

  5
_ORIGIN
  6

  7

 40
1.0
 41
12.0
 42
20.0
 43
200.0
 44
20.0
 45
0.0
 46
0.0
 47
0.0
 48
0.0
140
64.0
141
0.09
142
0.0
143
25.399999999999999
144
1.0
145
0.0
146
1.0
147
25.0
 71
     0
 72
     0
 73
     0
 74
     0
 75
     0
 76
     0
 77
     1
 78
     8
170
     0
171
     2
172
     1
173
     0
174
     1
175
     0
176
     7
177
     7
178
     7
  0
ENDTAB
  0
TABLE
  2
VIEW
 70
     1
  0
VIEW
  2
ALL
 70
     0
 40
4282.6198079999986
 10
0.0
 20
41.309904000000003
 41
5940.0
 11
0.0
 21
0.0
 31
1.0
 12
0.0
 22
0.0
 32
0.0
 42
50.0
 43
0.0
 44
0.0
 50
0.0
 71
     0
  0
ENDTAB
  0
TABLE
  2
UCS
 70
     0
  0
ENDTAB
  0
TABLE
  2
VPORT
 70
     1
  0
VPORT
  2
*ACTIVE
 70
     0
 10
0.0
 20
0.0
 11
1.0
 21
1.0
 12
323.66401314902498
 22
-28.198232441440268
 13
0.0
 23
0.0
 14
1.0
 24
1.0
 15
0.0
 25
0.0
 16
0.0
 26
0.0
 36
1.0
 17
0.0
 27
0.0
 37
0.0
 40
1672.718770231
 41
1.6339193381592549
 42
50.0
 43
0.0
 44
0.0
 50
0.0
 51
0.0
 71
     0
 72
  1000
 73
     1
 74
     3
 75
     0
 76
     0
 77
     0
 78
     0
  0
ENDTAB
  0
ENDSEC
  0
SECTION
  2
BLOCKS
  0
BLOCK
  8
0
  2
_ORIGIN
 70
     0
 10
0.0
 20
0.0
 30
0.0
  3
_ORIGIN
  1
_ORIGIN
  0
CIRCLE
  8
0
  6
CONTINUOUS
 62
     7
 10
0.0
 20
0.0
 30
0.0
 40
0.5
  0
LINE
  8
0
  6
CONTINUOUS
 62
     7
 10
0.0
 20
0.0
 30
0.0
 11
-1.0
 21
0.0
 31
0.0
  0
ENDBLK
  8
0
  0
ENDSEC
  0
SECTION
  2
ENTITIES
  0
POINT
  8
ARRANGE
  6
CONTINUOUS
 62
     1
 10
0.0
 20
-0.0000000000000284
 30
0.0
  0
CIRCLE
  8
ARRANGE
  6
CONTINUOUS
 62
     1
 10
0.0
 20
-0.0000000000000284
 30
0.0
 40
40.0
  0
TEXT
  8
SIZE
  6
CONTINUOUS
 62
    30
 10
-72.685714285714283
 20
738.88782645773836
 30
0.0
 40
64.0
  1
349
 41
0.9
 72
     1
 11
0.0
 21
738.88782645773836
 31
0.0
  0
LINE
  8
SIZE
  6
CONTINUOUS
 62
    30
 10
162.5
 20
713.88782645773836
 30
0.0
 11
-162.5
 21
713.88782645773836
 31
0.0
  0
TEXT
  8
SIZE
  6
CONTINUOUS
 62
    30
 10
-61.714285714285708
 20
610.68789445773814
 30
0.0
 40
64.0
  1
341
 41
0.9
 72
     1
 11
0.0
 21
610.68789445773814
 31
0.0
  0
LINE
  8
SIZE
  6
CONTINUOUS
 62
    30
 10
158.5
 20
585.68789445773814
 30
0.0
 11
-158.5
 21
585.68789445773814
 31
0.0
  0
TEXT
  8
SIZE
  6
CONTINUOUS
 62
    30
 10
-76.810799571131525
 20
486.27925159718819
 30
0.0
 40
64.0
  1
332
 41
0.9
 72
     1
 11
-2.7536567139886761
 21
486.27925159718819
 31
0.0
  0
LINE
  8
SIZE
  6
CONTINUOUS
 62
    30
 10
154.0
 20
462.41494451158309
 30
0.0
 11
-154.0
 21
462.41494451158309
 31
0.0
  0
TEXT
  8
SIZE
  6
CONTINUOUS
 62
    30
 10
-76.810799571131525
 20
350.19625159718788
 30
0.0
 40
64.0
  1
200
 41
0.9
 72
     1
 11
-2.7536567139886761
 21
350.19625159718788
 31
0.0
  0
LINE
  8
SIZE
  6
CONTINUOUS
 62
    30
 10
88.0
 20
326.33194451158312
 30
0.0
 11
-88.0
 21
326.33194451158312
 31
0.0
  0
CIRCLE
  8
DETAIL
  6
CONTINUOUS
 62
     5
 10
23.0
 20
1.999999999999972
 30
0.0
 40
41.0
  0
LINE
  8
BASIS
  6
DASHDOT
 62
     6
 10
-205.53087599999981
 20
-0.0000000000000284
 30
0.0
 11
206.95267299999981
 21
-0.0000000000000284
 31
0.0
  0
LINE
  8
DETAIL
  6
CONTINUOUS
 62
     5
 10
153.5
 20
153.5
 30
0.0
 11
-153.5
 21
153.5
 31
0.0
  0
LINE
  8
DETAIL
  6
CONTINUOUS
 62
     5
 10
-153.5
 20
-153.5
 30
0.0
 11
153.5
 21
-153.5
 31
0.0
  0
LINE
  8
DETAIL
  6
CONTINUOUS
 62
     5
 10
-179.5
 20
-156.5
 30
0.0
 11
-171.03932499999971
 21
-156.5
 31
0.0
  0
TEXT
  8
SIZE
  6
CONTINUOUS
 62
    30
 10
-826.10471017687212
 20
-110.5371428571429
 30
0.0
 40
64.0
  1
□307
 50
90.0
 41
0.9
 72
     1
 11
-826.10471017687212
 21
-0.0000000000000284
 31
0.0
  0
LINE
  8
SIZE
  6
CONTINUOUS
 62
    30
 10
-800.76156117687242
 20
141.5
 30
0.0
 11
-800.76156117687242
 21
-141.5
 31
0.0
  0
LINE
  8
DETAIL
  6
CONTINUOUS
 62
     5
 10
-174.5
 20
-70.000000000000028
 30
0.0
 11
-174.5
 21
69.999999999999972
 31
0.0
  0
TEXT
  8
SIZE
  6
CONTINUOUS
 62
    30
 10
-587.37624193534612
 20
-74.057142857142878
 30
0.0
 40
64.0
  1
200
 50
90.0
 41
0.9
 72
     1
 11
-587.37624193534612
 21
-0.0000000000000284
 31
0.0
  0
LINE
  8
SIZE
  6
CONTINUOUS
 62
    30
 10
-553.5548701768721
 20
87.999999999999972
 30
0.0
 11
-553.5548701768721
 21
-88.000000000000028
 31
0.0
  0
LINE
  8
BASIS
  6
DASHDOT
 62
     6
 10
0.0
 20
-234.13516899999999
 30
0.0
 11
0.0
 21
199.0700710000001
 31
0.0
  0
LINE
  8
DETAIL
  6
CONTINUOUS
 62
     5
 10
-153.5
 20
153.5
 30
0.0
 11
-153.5
 21
-153.5
 31
0.0
  0
LINE
  8
SIZE
  6
CONTINUOUS
 62
    30
 10
-166.0
 20
140.0
 30
0.0
 11
-166.0
 21
482.41494451158309
 31
0.0
  0
LINE
  8
SIZE
  6
CONTINUOUS
 62
    30
 10
-100.0
 20
206.0
 30
0.0
 11
-100.0
 21
346.33194451158312
 31
0.0
  0
LINE
  8
SIZE
  6
CONTINUOUS
 62
    30
 10
-162.0
 20
-288.5
 30
0.0
 11
-162.0
 21
-859.38615278205214
 31
0.0
  0
LINE
  8
SIZE
  6
CONTINUOUS
 62
    30
 10
-10.21122999999989
 20
-288.10827399999988
 30
0.0
 11
-10.21122999999989
 21
-859.38615278205214
 31
0.0
  0
LINE
  8
SIZE
  6
CONTINUOUS
 62
    30
 10
-166.0
 20
462.41494451158309
 30
0.0
 11
-154.0
 21
462.41494451158309
 31
0.0
  0
CIRCLE
  8
SIZE
  6
CONTINUOUS
 62
    30
 10
-166.0
 20
462.41494451158309
 30
0.0
 40
6.0
  0
LINE
  8
SIZE
  6
CONTINUOUS
 62
    30
 10
-100.0
 20
326.33194451158312
 30
0.0
 11
-88.0
 21
326.33194451158312
 31
0.0
  0
CIRCLE
  8
SIZE
  6
CONTINUOUS
 62
    30
 10
-100.0
 20
326.33194451158312
 30
0.0
 40
6.0
  0
LINE
  8
SIZE
  6
CONTINUOUS
 62
    30
 10
-165.71122999999989
 20
-839.38615278205214
 30
0.0
 11
-421.44879500000008
 21
-839.38615278205214
 31
0.0
  0
TEXT
  8
SIZE
  6
CONTINUOUS
 62
    30
 10
-403.69773414285731
 20
-814.38615278205214
 30
0.0
 40
64.0
  1
φ152
 41
0.9
 72
     1
 11
-304.95487700000012
 21
-814.38615278205214
 31
0.0
  0
LINE
  8
SIZE
  6
CONTINUOUS
 62
    30
 10
-427.32630499999999
 20
-839.38615278205214
 30
0.0
 11
-161.5
 21
-839.38615278205214
 31
0.0
  0
LINE
  8
SIZE
  6
CONTINUOUS
 62
    30
 10
-21.71122999999989
 20
-839.38615278205214
 30
0.0
 11
-149.5
 21
-839.38615278205214
 31
0.0
  0
LINE
  8
SIZE
  6
CONTINUOUS
 62
    30
 10
-161.5
 20
-839.38615278205214
 30
0.0
 11
-149.5
 21
-839.38615278205214
 31
0.0
  0
CIRCLE
  8
SIZE
  6
CONTINUOUS
 62
    30
 10
-161.5
 20
-839.38615278205214
 30
0.0
 40
6.0
  0
LINE
  8
SIZE
  6
CONTINUOUS
 62
    30
 10
-9.7112299999998868
 20
-839.38615278205214
 30
0.0
 11
-21.71122999999989
 21
-839.38615278205214
 31
0.0
  0
CIRCLE
  8
SIZE
  6
CONTINUOUS
 62
    30
 10
-9.7112299999998868
 20
-839.38615278205214
 30
0.0
 40
6.0
  0
LINE
  8
SIZE
  6
CONTINUOUS
 62
    30
 10
-185.5
 20
-238.5
 30
0.0
 11
-705.3960091768721
 21
-238.5
 31
0.0
  0
LINE
  8
SIZE
  6
CONTINUOUS
 62
    30
 10
-177.5
 20
-295.5
 30
0.0
 11
-705.3960091768721
 21
-295.5
 31
0.0
  0
LINE
  8
SIZE
  6
CONTINUOUS
 62
    30
 10
-181.5
 20
-268.5
 30
0.0
 11
-576.71771017687229
 21
-268.5
 31
0.0
  0
LINE
  8
SIZE
  6
CONTINUOUS
 62
    30
 10
-177.5
 20
-295.5
 30
0.0
 11
-576.71771017687229
 21
-295.5
 31
0.0
  0
LINE
  8
SIZE
  6
CONTINUOUS
 62
    30
 10
-177.5
 20
-295.5
 30
0.0
 11
-820.76156117687242
 21
-295.5
 31
0.0
  0
LINE
  8
SIZE
  6
CONTINUOUS
 62
    30
 10
-173.5
 20
-153.5
 30
0.0
 11
-820.76156117687242
 21
-153.5
 31
0.0
  0
LINE
  8
SIZE
  6
CONTINUOUS
 62
    30
 10
-173.5
 20
-153.5
 30
0.0
 11
-820.76156117687242
 21
-153.5
 31
0.0
  0
LINE
  8
SIZE
  6
CONTINUOUS
 62
    30
 10
-210.68088200000011
 20
-100.0
 30
0.0
 11
-573.55487017687244
 21
-100.0
 31
0.0
  0
TEXT
  8
SIZE
  6
CONTINUOUS
 62
    30
 10
-710.00979417687211
 20
-415.78610942857142
 30
0.0
 40
64.0
  1
57
 50
90.0
 41
0.9
 72
     1
 11
-710.00979417687211
 21
-369.15753799999987
 31
0.0
  0
TEXT
  8
SIZE
  6
CONTINUOUS
 62
    30
 10
-582.49569917687211
 20
-414.99669242857141
 30
0.0
 40
64.0
  1
27
 50
90.0
 41
0.9
 72
     1
 11
-582.49569917687211
 21
-368.36812099999997
 31
0.0
  0
TEXT
  8
SIZE
  6
CONTINUOUS
 62
    30
 10
-826.10471017687212
 20
-451.67499257142862
 30
0.0
 40
64.0
  1
142
 50
90.0
 41
0.9
 72
     1
 11
-826.10471017687212
 21
-383.10356400000001
 31
0.0
  0
LINE
  8
SIZE
  6
CONTINUOUS
 62
    30
 10
-800.76156117687242
 20
-278.0
 30
0.0
 11
-800.76156117687242
 21
-467.579835
 31
0.0
  0
LINE
  8
SIZE
  6
CONTINUOUS
 62
    30
 10
-685.3960091768721
 20
-280.0
 30
0.0
 11
-685.3960091768721
 21
-429.19194499999998
 31
0.0
  0
LINE
  8
SIZE
  6
CONTINUOUS
 62
    30
 10
-556.71771017687206
 20
-284.0
 30
0.0
 11
-556.71771017687206
 21
-426.63275299999998
 31
0.0
  0
LINE
  8
SIZE
  6
CONTINUOUS
 62
    30
 10
-800.76156117687242
 20
-153.5
 30
0.0
 11
-800.76156117687242
 21
-165.5
 31
0.0
  0
LINE
  8
SIZE
  6
CONTINUOUS
 62
    30
 10
-800.76156117687242
 20
-165.5
 30
0.0
 11
-800.76156117687242
 21
-283.5
 31
0.0
  0
LINE
  8
SIZE
  6
CONTINUOUS
 62
    30
 10
-800.76156117687242
 20
-295.5
 30
0.0
 11
-800.76156117687242
 21
-283.5
 31
0.0
  0
CIRCLE
  8
SIZE
  6
CONTINUOUS
 62
    30
 10
-800.76156117687242
 20
-295.5
 30
0.0
 40
6.0
  0
CIRCLE
  8
SIZE
  6
CONTINUOUS
 62
    30
 10
-800.76156117687242
 20
-153.5
 30
0.0
 40
6.0
  0
LINE
  8
SIZE
  6
CONTINUOUS
 62
    30
 10
-800.76156117687242
 20
-153.5
 30
0.0
 11
-800.76156117687242
 21
-141.5
 31
0.0
  0
CIRCLE
  8
SIZE
  6
CONTINUOUS
 62
    30
 10
-800.76156117687242
 20
-153.5
 30
0.0
 40
6.0
  0
LINE
  8
SIZE
  6
CONTINUOUS
 62
    30
 10
-685.3960091768721
 20
-295.5
 30
0.0
 11
-685.3960091768721
 21
-238.5
 31
0.0
  0
LINE
  8
SIZE
  6
CONTINUOUS
 62
    30
 10
-685.3960091768721
 20
-295.5
 30
0.0
 11
-685.3960091768721
 21
-238.5
 31
0.0
  0
LINE
  8
SIZE
  6
CONTINUOUS
 62
    30
 10
-685.3960091768721
 20
-295.5
 30
0.0
 11
-685.3960091768721
 21
-307.5
 31
0.0
  0
CIRCLE
  8
SIZE
  6
CONTINUOUS
 62
    30
 10
-685.3960091768721
 20
-295.5
 30
0.0
 40
6.0
  0
LINE
  8
SIZE
  6
CONTINUOUS
 62
    30
 10
-685.3960091768721
 20
-307.5
 30
0.0
 11
-685.3960091768721
 21
-319.5
 31
0.0
  0
CIRCLE
  8
SIZE
  6
CONTINUOUS
 62
    30
 10
-685.3960091768721
 20
-238.5
 30
0.0
 40
6.0
  0
LINE
  8
SIZE
  6
CONTINUOUS
 62
    30
 10
-556.71771017687206
 20
-256.5
 30
0.0
 11
-556.71771017687206
 21
-244.5
 31
0.0
  0
LINE
  8
SIZE
  6
CONTINUOUS
 62
    30
 10
-556.71771017687206
 20
-268.5
 30
0.0
 11
-556.71771017687206
 21
-256.5
 31
0.0
  0
CIRCLE
  8
SIZE
  6
CONTINUOUS
 62
    30
 10
-556.71771017687206
 20
-268.5
 30
0.0
 40
6.0
  0
LINE
  8
SIZE
  6
CONTINUOUS
 62
    30
 10
-556.71771017687206
 20
-295.5
 30
0.0
 11
-556.71771017687206
 21
-307.5
 31
0.0
  0
CIRCLE
  8
SIZE
  6
CONTINUOUS
 62
    30
 10
-556.71771017687206
 20
-295.5
 30
0.0
 40
6.0
  0
LINE
  8
SIZE
  6
CONTINUOUS
 62
    30
 10
-556.71771017687206
 20
-295.5
 30
0.0
 11
-556.71771017687206
 21
-268.5
 31
0.0
  0
LINE
  8
SIZE
  6
CONTINUOUS
 62
    30
 10
-556.71771017687206
 20
-295.5
 30
0.0
 11
-556.71771017687206
 21
-268.5
 31
0.0
  0
LINE
  8
SIZE
  6
CONTINUOUS
 62
    30
 10
-556.71771017687206
 20
-307.5
 30
0.0
 11
-556.71771017687206
 21
-319.5
 31
0.0
  0
LINE
  8
SIZE
  6
CONTINUOUS
 62
    30
 10
-553.5548701768721
 20
-100.0
 30
0.0
 11
-553.5548701768721
 21
-88.000000000000028
 31
0.0
  0
CIRCLE
  8
SIZE
  6
CONTINUOUS
 62
    30
 10
-553.5548701768721
 20
-100.0
 30
0.0
 40
6.0
  0
LINE
  8
SIZE
  6
CONTINUOUS
 62
    30
 10
-158.0
 20
-315.5
 30
0.0
 11
-158.0
 21
-717.70446078205214
 31
0.0
  0
LINE
  8
SIZE
  6
CONTINUOUS
 62
    30
 10
-14.0
 20
-315.5
 30
0.0
 11
-14.0
 21
-717.70446078205214
 31
0.0
  0
TEXT
  8
NOTE
  6
CONTINUOUS
 62
     4
 10
-135.69313299999979
 20
-431.67403612227753
 30
0.0
 40
64.0
  1
EA
 41
0.9
  0
LINE
  8
SIZE
  6
CONTINUOUS
 62
    30
 10
-157.71122999999989
 20
-697.70446078205214
 30
0.0
 11
-420.86528300000009
 21
-697.70446078205214
 31
0.0
  0
TEXT
  8
SIZE
  6
CONTINUOUS
 62
    30
 10
-405.69989671428573
 20
-672.70446078205214
 30
0.0
 40
64.0
  1
φ144
 41
0.9
 72
     1
 11
-305.58561099999997
 21
-672.70446078205214
 31
0.0
  0
LINE
  8
SIZE
  6
CONTINUOUS
 62
    30
 10
-429.3284679999997
 20
-697.70446078205214
 30
0.0
 11
-157.5
 21
-697.70446078205214
 31
0.0
  0
LINE
  8
SIZE
  6
CONTINUOUS
 62
    30
 10
-25.5
 20
-697.70446078205214
 30
0.0
 11
-145.5
 21
-697.70446078205214
 31
0.0
  0
LINE
  8
SIZE
  6
CONTINUOUS
 62
    30
 10
-157.5
 20
-697.70446078205214
 30
0.0
 11
-145.5
 21
-697.70446078205214
 31
0.0
  0
CIRCLE
  8
SIZE
  6
CONTINUOUS
 62
    30
 10
-157.5
 20
-697.70446078205214
 30
0.0
 40
6.0
  0
LINE
  8
SIZE
  6
CONTINUOUS
 62
    30
 10
-13.5
 20
-697.70446078205214
 30
0.0
 11
-25.5
 21
-697.70446078205214
 31
0.0
  0
CIRCLE
  8
SIZE
  6
CONTINUOUS
 62
    30
 10
-13.5
 20
-697.70446078205214
 30
0.0
 40
6.0
  0
LINE
  8
NOTE
  6
CONTINUOUS
 62
     4
 10
-100.0
 20
-186.0
 30
0.0
 11
-100.0
 21
-146.0
 31
0.0
  0
CIRCLE
  8
FIX
  6
CONTINUOUS
 62
    11
 10
-100.0
 20
-166.0
 30
0.0
 40
2.5
  0
CIRCLE
  8
FIX
  6
CONTINUOUS
 62
    11
 10
-100.0
 20
-166.0
 30
0.0
 40
2.5
  0
LINE
  8
BASIS
  6
DASHDOT
 62
     6
 10
-86.0
 20
-321.5
 30
0.0
 11
-86.0
 21
-127.598681
 31
0.0
  0
LINE
  8
DETAIL
  6
CONTINUOUS
 62
     5
 10
-166.0
 20
-238.5
 30
0.0
 11
-166.0
 21
-162.54372699999999
 31
0.0
  0
LINE
  8
DETAIL
  6
CONTINUOUS
 62
     5
 10
-6.0
 20
-238.5
 30
0.0
 11
-6.0
 21
-153.5
 31
0.0
  0
LINE
  8
DETAIL
  6
CONTINUOUS
 62
     5
 10
-158.0
 20
-295.5
 30
0.0
 11
-14.0
 21
-295.5
 31
0.0
  0
LINE
  8
NOTE
  6
CONTINUOUS
 62
     4
 10
-80.0
 20
-166.0
 30
0.0
 11
-120.0
 21
-166.0
 31
0.0
  0
LINE
  8
DETAIL
  6
CONTINUOUS
 62
     5
 10
-166.0
 20
-238.5
 30
0.0
 11
-6.0
 21
-238.5
 31
0.0
  0
LINE
  8
DETAIL
  6
CONTINUOUS
 62
     5
 10
-162.0
 20
-268.5
 30
0.0
 11
-10.0
 21
-268.5
 31
0.0
  0
LINE
  8
DETAIL
  6
CONTINUOUS
 62
     5
 10
-162.0
 20
-268.5
 30
0.0
 11
-162.0
 21
-238.5
 31
0.0
  0
LINE
  8
DETAIL
  6
CONTINUOUS
 62
     5
 10
-158.0
 20
-295.5
 30
0.0
 11
-158.0
 21
-268.5
 31
0.0
  0
LINE
  8
DETAIL
  6
CONTINUOUS
 62
     5
 10
-10.0
 20
-268.5
 30
0.0
 11
-10.0
 21
-238.5
 31
0.0
  0
LINE
  8
DETAIL
  6
CONTINUOUS
 62
     5
 10
-14.0
 20
-295.5
 30
0.0
 11
-14.0
 21
-268.5
 31
0.0
  0
LINE
  8
NOTE
  6
CONTINUOUS
 62
     4
 10
-170.5
 20
-120.0
 30
0.0
 11
-170.5
 21
-80.000000000000028
 31
0.0
  0
LINE
  8
DETAIL
  6
CONTINUOUS
 62
     5
 10
-155.25
 20
-130.0
 30
0.0
 11
-155.25
 21
-70.000000000000028
 31
0.0
  0
LINE
  8
DETAIL
  6
CONTINUOUS
 62
     5
 10
-185.75
 20
-130.0
 30
0.0
 11
-185.75
 21
-70.000000000000028
 31
0.0
  0
LINE
  8
NOTE
  6
CONTINUOUS
 62
     4
 10
-166.0
 20
-80.000000000000028
 30
0.0
 11
-166.0
 21
-120.0
 31
0.0
  0
LINE
  8
DETAIL
  6
CONTINUOUS
 62
     5
 10
-149.5
 20
-153.5
 30
0.0
 11
-179.5
 21
-153.5
 31
0.0
  0
LINE
  8
NOTE
  6
CONTINUOUS
 62
     4
 10
-150.5
 20
-100.0
 30
0.0
 11
-190.5
 21
-100.0
 31
0.0
  0
LINE
  8
DETAIL
  6
CONTINUOUS
 62
     5
 10
-155.25
 20
-130.0
 30
0.0
 11
-185.75
 21
-130.0
 31
0.0
  0
ARC
  8
DETAIL
  6
CONTINUOUS
 62
     5
 10
-170.5
 20
-103.5
 30
0.0
 40
7.5
 50
180.0
 51
0.0
  0
ARC
  8
DETAIL
  6
CONTINUOUS
 62
     5
 10
-170.5
 20
-96.500000000000028
 30
0.0
 40
7.5
 50
0.0
 51
180.0
  0
CIRCLE
  8
FIX
  6
CONTINUOUS
 62
    11
 10
-170.5
 20
-100.0
 30
0.0
 40
7.5
  0
LINE
  8
NOTE
  6
CONTINUOUS
 62
     4
 10
-146.0
 20
-100.0
 30
0.0
 11
-186.0
 21
-100.0
 31
0.0
  0
LINE
  8
DETAIL
  6
CONTINUOUS
 62
     5
 10
-174.5
 20
-90.155710999999911
 30
0.0
 11
-174.5
 21
-109.8442889999999
 31
0.0
  0
LINE
  8
DETAIL
  6
CONTINUOUS
 62
     5
 10
-178.0
 20
-103.5
 30
0.0
 11
-178.0
 21
-96.500000000000028
 31
0.0
  0
LINE
  8
DETAIL
  6
CONTINUOUS
 62
     5
 10
-179.5
 20
-156.5
 30
0.0
 11
-179.5
 21
-153.5
 31
0.0
  0
LINE
  8
DETAIL
  6
CONTINUOUS
 62
     5
 10
-174.5
 20
-153.5
 30
0.0
 11
-174.5
 21
-130.0
 31
0.0
  0
LINE
  8
DETAIL
  6
CONTINUOUS
 62
     5
 10
-163.0
 20
-103.5
 30
0.0
 11
-163.0
 21
-96.500000000000028
 31
0.0
  0
CIRCLE
  8
FIX
  6
CONTINUOUS
 62
    11
 10
-166.0
 20
-100.0
 30
0.0
 40
2.5
  0
LINE
  8
DETAIL
  6
CONTINUOUS
 62
     5
 10
-155.25
 20
-70.000000000000028
 30
0.0
 11
-185.75
 21
-70.000000000000028
 31
0.0
  0
LINE
  8
DETAIL
  6
CONTINUOUS
 62
     5
 10
-155.25
 20
-70.000000000000028
 30
0.0
 11
-153.5
 21
-70.000000000000028
 31
0.0
  0
TEXT
  8
NOTE
  6
CONTINUOUS
 62
     4
 10
-612.33429794733456
 20
339.02322499999991
 30
0.0
 40
64.0
  1
AH 4
 41
0.9
  0
LINE
  8
NOTE
  6
CONTINUOUS
 62
     4
 10
-391.04410999999988
 20
303.83135799999991
 30
0.0
 11
-633.10467614386653
 21
303.83135799999991
 31
0.0
  0
LINE
  8
SIZE
  6
CONTINUOUS
 62
    30
 10
-173.5
 20
153.5
 30
0.0
 11
-820.76156117687242
 21
153.5
 31
0.0
  0
LINE
  8
SIZE
  6
CONTINUOUS
 62
    30
 10
-210.68088200000011
 20
99.999999999999972
 30
0.0
 11
-573.55487017687244
 21
99.999999999999972
 31
0.0
  0
LINE
  8
SIZE
  6
CONTINUOUS
 62
    30
 10
-800.76156117687242
 20
153.5
 30
0.0
 11
-800.76156117687242
 21
141.5
 31
0.0
  0
CIRCLE
  8
SIZE
  6
CONTINUOUS
 62
    30
 10
-800.76156117687242
 20
153.5
 30
0.0
 40
6.0
  0
LINE
  8
SIZE
  6
CONTINUOUS
 62
    30
 10
-553.5548701768721
 20
99.999999999999972
 30
0.0
 11
-553.5548701768721
 21
87.999999999999972
 31
0.0
  0
CIRCLE
  8
SIZE
  6
CONTINUOUS
 62
    30
 10
-553.5548701768721
 20
99.999999999999972
 30
0.0
 40
6.0
  0
LINE
  8
SIZE
  6
CONTINUOUS
 62
    30
 10
-174.5
 20
147.9024039999999
 30
0.0
 11
-174.5
 21
733.88782645773836
 31
0.0
  0
LINE
  8
SIZE
  6
CONTINUOUS
 62
    30
 10
-170.5
 20
140.0
 30
0.0
 11
-170.5
 21
605.68789445773814
 31
0.0
  0
LINE
  8
NOTE
  6
CONTINUOUS
 62
     4
 10
-170.5
 20
99.999999999999972
 30
0.0
 11
-391.04410999999988
 21
303.83135799999991
 31
0.0
  0
ARC
  8
DETAIL
  6
CONTINUOUS
 62
     5
 10
-100.0
 20
164.5
 30
0.0
 40
2.5
 50
180.0
 51
0.0
  0
CIRCLE
  8
FIX
  6
CONTINUOUS
 62
    11
 10
-100.0
 20
166.0
 30
0.0
 40
2.5
  0
LINE
  8
NOTE
  6
CONTINUOUS
 62
     4
 10
-100.0
 20
146.0
 30
0.0
 11
-100.0
 21
186.0
 31
0.0
  0
LINE
  8
NOTE
  6
CONTINUOUS
 62
     4
 10
-170.5
 20
120.0
 30
0.0
 11
-170.5
 21
79.999999999999972
 31
0.0
  0
LINE
  8
DETAIL
  6
CONTINUOUS
 62
     5
 10
-185.75
 20
130.0
 30
0.0
 11
-185.75
 21
69.999999999999972
 31
0.0
  0
LINE
  8
DETAIL
  6
CONTINUOUS
 62
     5
 10
-155.25
 20
130.0
 30
0.0
 11
-155.25
 21
69.999999999999972
 31
0.0
  0
LINE
  8
NOTE
  6
CONTINUOUS
 62
     4
 10
-166.0
 20
120.0
 30
0.0
 11
-166.0
 21
79.999999999999972
 31
0.0
  0
LINE
  8
DETAIL
  6
CONTINUOUS
 62
     5
 10
-155.25
 20
69.999999999999972
 30
0.0
 11
-185.75
 21
69.999999999999972
 31
0.0
  0
LINE
  8
DETAIL
  6
CONTINUOUS
 62
     5
 10
-155.25
 20
69.999999999999972
 30
0.0
 11
-153.5
 21
69.999999999999972
 31
0.0
  0
CIRCLE
  8
FIX
  6
CONTINUOUS
 62
    11
 10
-170.5
 20
99.999999999999972
 30
0.0
 40
7.5
  0
LINE
  8
NOTE
  6
CONTINUOUS
 62
     4
 10
-150.5
 20
99.999999999999972
 30
0.0
 11
-190.5
 21
99.999999999999972
 31
0.0
  0
ARC
  8
DETAIL
  6
CONTINUOUS
 62
     5
 10
-170.5
 20
96.499999999999972
 30
0.0
 40
7.5
 50
180.0
 51
0.0
  0
ARC
  8
DETAIL
  6
CONTINUOUS
 62
     5
 10
-170.5
 20
103.5
 30
0.0
 40
7.5
 50
0.0
 51
180.0
  0
LINE
  8
DETAIL
  6
CONTINUOUS
 62
     5
 10
-155.25
 20
130.0
 30
0.0
 11
-185.75
 21
130.0
 31
0.0
  0
LINE
  8
NOTE
  6
CONTINUOUS
 62
     4
 10
-146.0
 20
99.999999999999972
 30
0.0
 11
-186.0
 21
99.999999999999972
 31
0.0
  0
LINE
  8
NOTE
  6
CONTINUOUS
 62
     4
 10
-170.5
 20
99.999999999999972
 30
0.0
 11
-192.4678899999999
 21
133.42770999999991
 31
0.0
  0
LINE
  8
NOTE
  6
CONTINUOUS
 62
     4
 10
-206.23860599999989
 20
117.9653009999999
 30
0.0
 11
-170.5
 21
99.999999999999972
 31
0.0
  0
LINE
  8
DETAIL
  6
CONTINUOUS
 62
     5
 10
-174.5
 20
109.8442889999999
 30
0.0
 11
-174.5
 21
90.155710999999854
 31
0.0
  0
LINE
  8
DETAIL
  6
CONTINUOUS
 62
     5
 10
-178.0
 20
103.5
 30
0.0
 11
-178.0
 21
96.499999999999972
 31
0.0
  0
LINE
  8
DETAIL
  6
CONTINUOUS
 62
     5
 10
-163.0
 20
103.5
 30
0.0
 11
-163.0
 21
96.499999999999972
 31
0.0
  0
LINE
  8
DETAIL
  6
CONTINUOUS
 62
     5
 10
-155.25
 20
130.0
 30
0.0
 11
-153.5
 21
130.0
 31
0.0
  0
CIRCLE
  8
FIX
  6
CONTINUOUS
 62
    11
 10
-166.0
 20
99.999999999999972
 30
0.0
 40
2.5
  0
LINE
  8
NOTE
  6
CONTINUOUS
 62
     4
 10
-120.0
 20
166.0
 30
0.0
 11
-80.0
 21
166.0
 31
0.0
  0
LINE
  8
DETAIL
  6
CONTINUOUS
 62
     5
 10
-102.5
 20
167.5
 30
0.0
 11
-102.5
 21
164.5
 31
0.0
  0
LINE
  8
DETAIL
  6
CONTINUOUS
 62
     5
 10
-97.5
 20
167.5
 30
0.0
 11
-97.5
 21
164.5
 31
0.0
  0
ARC
  8
DETAIL
  6
CONTINUOUS
 62
     5
 10
-100.0
 20
167.5
 30
0.0
 40
2.5
 50
0.0
 51
180.0
  0
CIRCLE
  8
SIZE
  6
CONTINUOUS
 62
    30
 10
-170.5
 20
585.68789445773814
 30
0.0
 40
6.0
  0
LINE
  8
SIZE
  6
CONTINUOUS
 62
    30
 10
-170.5
 20
585.68789445773814
 30
0.0
 11
-158.5
 21
585.68789445773814
 31
0.0
  0
LINE
  8
SIZE
  6
CONTINUOUS
 62
    30
 10
-174.5
 20
713.88782645773836
 30
0.0
 11
-162.5
 21
713.88782645773836
 31
0.0
  0
CIRCLE
  8
SIZE
  6
CONTINUOUS
 62
    30
 10
-174.5
 20
713.88782645773836
 30
0.0
 40
6.0
  0
TEXT
  8
SIZE
  6
CONTINUOUS
 62
    30
 10
868.53762199999983
 20
-72.685714285714312
 30
0.0
 40
64.0
  1
349
 50
90.0
 41
0.9
 72
     1
 11
868.53762199999983
 21
-0.0000000000000284
 31
0.0
  0
LINE
  8
SIZE
  6
CONTINUOUS
 62
    30
 10
896.21124999999984
 20
162.5
 30
0.0
 11
896.21124999999984
 21
-162.5
 31
0.0
  0
TEXT
  8
SIZE
  6
CONTINUOUS
 62
    30
 10
742.92671800000016
 20
-74.057142857142878
 30
0.0
 40
64.0
  1
332
 50
90.0
 41
0.9
 72
     1
 11
742.92671800000016
 21
-0.0000000000000284
 31
0.0
  0
LINE
  8
SIZE
  6
CONTINUOUS
 62
    30
 10
766.834339
 20
154.0
 30
0.0
 11
766.834339
 21
-154.0
 31
0.0
  0
LINE
  8
DETAIL
  6
CONTINUOUS
 62
     5
 10
174.5
 20
-70.000000000000028
 30
0.0
 11
174.5
 21
69.999999999999972
 31
0.0
  0
LINE
  8
DETAIL
  6
CONTINUOUS
 62
     5
 10
153.5
 20
153.5
 30
0.0
 11
153.5
 21
-153.5
 31
0.0
  0
LINE
  8
SIZE
  6
CONTINUOUS
 62
    30
 10
166.0
 20
140.0
 30
0.0
 11
166.0
 21
482.41494451158309
 31
0.0
  0
LINE
  8
SIZE
  6
CONTINUOUS
 62
    30
 10
100.0
 20
206.0
 30
0.0
 11
100.0
 21
346.33194451158312
 31
0.0
  0
LINE
  8
SIZE
  6
CONTINUOUS
 62
    30
 10
166.0
 20
462.41494451158309
 30
0.0
 11
154.0
 21
462.41494451158309
 31
0.0
  0
CIRCLE
  8
SIZE
  6
CONTINUOUS
 62
    30
 10
166.0
 20
462.41494451158309
 30
0.0
 40
6.0
  0
LINE
  8
SIZE
  6
CONTINUOUS
 62
    30
 10
100.0
 20
326.33194451158312
 30
0.0
 11
88.0
 21
326.33194451158312
 31
0.0
  0
CIRCLE
  8
SIZE
  6
CONTINUOUS
 62
    30
 10
100.0
 20
326.33194451158312
 30
0.0
 40
6.0
  0
LINE
  8
SIZE
  6
CONTINUOUS
 62
    30
 10
150.34468899999999
 20
-174.5
 30
0.0
 11
916.21124999999984
 21
-174.5
 31
0.0
  0
LINE
  8
SIZE
  6
CONTINUOUS
 62
    30
 10
140.0
 20
-166.0
 30
0.0
 11
786.834339
 21
-166.0
 31
0.0
  0
TEXT
  8
NOTE
  6
CONTINUOUS
 62
     4
 10
211.93636400000011
 20
-374.51113099999998
 30
0.0
 40
64.0
  1
EL
 41
0.9
  0
LINE
  8
NOTE
  6
CONTINUOUS
 62
     4
 10
200.571203
 20
-401.81120700000008
 30
0.0
 11
312.78028300000011
 21
-401.81120700000008
 31
0.0
  0
LINE
  8
NOTE
  6
CONTINUOUS
 62
     4
 10
130.0
 20
-118.0
 30
0.0
 11
200.571203
 21
-401.81120700000008
 31
0.0
  0
LINE
  8
NOTE
  6
CONTINUOUS
 62
     4
 10
100.0
 20
-186.0
 30
0.0
 11
100.0
 21
-146.0
 31
0.0
  0
CIRCLE
  8
FIX
  6
CONTINUOUS
 62
    11
 10
100.0
 20
-166.0
 30
0.0
 40
2.5
  0
ARC
  8
DETAIL
  6
CONTINUOUS
 62
     5
 10
100.0
 20
-164.5
 30
0.0
 40
2.5
 50
0.0
 51
180.0
  0
LINE
  8
NOTE
  6
CONTINUOUS
 62
     4
 10
80.0
 20
-166.0
 30
0.0
 11
120.0
 21
-166.0
 31
0.0
  0
ARC
  8
DETAIL
  6
CONTINUOUS
 62
     5
 10
100.0
 20
-167.5
 30
0.0
 40
2.5
 50
180.0
 51
0.0
  0
LINE
  8
DETAIL
  6
CONTINUOUS
 62
     5
 10
102.5
 20
-164.5
 30
0.0
 11
102.5
 21
-167.5
 31
0.0
  0
LINE
  8
DETAIL
  6
CONTINUOUS
 62
     5
 10
97.5
 20
-164.5
 30
0.0
 11
97.5
 21
-167.5
 31
0.0
  0
LINE
  8
NOTE
  6
CONTINUOUS
 62
     4
 10
110.0
 20
-118.0
 30
0.0
 11
150.0
 21
-118.0
 31
0.0
  0
LINE
  8
NOTE
  6
CONTINUOUS
 62
     4
 10
170.5
 20
-120.0
 30
0.0
 11
170.5
 21
-80.000000000000028
 31
0.0
  0
LINE
  8
DETAIL
  6
CONTINUOUS
 62
     5
 10
185.75
 20
-130.0
 30
0.0
 11
185.75
 21
-70.000000000000028
 31
0.0
  0
LINE
  8
DETAIL
  6
CONTINUOUS
 62
     5
 10
155.25
 20
-130.0
 30
0.0
 11
155.25
 21
-70.000000000000028
 31
0.0
  0
LINE
  8
NOTE
  6
CONTINUOUS
 62
     4
 10
166.0
 20
-120.0
 30
0.0
 11
166.0
 21
-80.000000000000028
 31
0.0
  0
LINE
  8
NOTE
  6
CONTINUOUS
 62
     4
 10
150.5
 20
-100.0
 30
0.0
 11
190.5
 21
-100.0
 31
0.0
  0
CIRCLE
  8
FIX
  6
CONTINUOUS
 62
    11
 10
170.5
 20
-100.0
 30
0.0
 40
7.5
  0
ARC
  8
DETAIL
  6
CONTINUOUS
 62
     5
 10
170.5
 20
-96.500000000000028
 30
0.0
 40
7.5
 50
0.0
 51
180.0
  0
ARC
  8
DETAIL
  6
CONTINUOUS
 62
     5
 10
170.5
 20
-103.5
 30
0.0
 40
7.5
 50
180.0
 51
0.0
  0
LINE
  8
DETAIL
  6
CONTINUOUS
 62
     5
 10
155.25
 20
-130.0
 30
0.0
 11
185.75
 21
-130.0
 31
0.0
  0
LINE
  8
NOTE
  6
CONTINUOUS
 62
     4
 10
146.0
 20
-100.0
 30
0.0
 11
186.0
 21
-100.0
 31
0.0
  0
CIRCLE
  8
DETAIL
  6
CONTINUOUS
 62
     5
 10
130.0
 20
-118.0
 30
0.0
 40
9.5
  0
LINE
  8
NOTE
  6
CONTINUOUS
 62
     4
 10
130.0
 20
-138.0
 30
0.0
 11
130.0
 21
-98.000000000000028
 31
0.0
  0
LINE
  8
DETAIL
  6
CONTINUOUS
 62
     5
 10
163.0
 20
-103.5
 30
0.0
 11
163.0
 21
-96.500000000000028
 31
0.0
  0
LINE
  8
DETAIL
  6
CONTINUOUS
 62
     5
 10
155.25
 20
-130.0
 30
0.0
 11
153.5
 21
-130.0
 31
0.0
  0
CIRCLE
  8
FIX
  6
CONTINUOUS
 62
    11
 10
166.0
 20
-100.0
 30
0.0
 40
2.5
  0
LINE
  8
NOTE
  6
CONTINUOUS
 62
     4
 10
130.0
 20
-118.0
 30
0.0
 11
131.2248890000001
 21
-157.98124100000001
 31
0.0
  0
LINE
  8
NOTE
  6
CONTINUOUS
 62
     4
 10
151.05140599999999
 20
-152.01232600000009
 30
0.0
 11
130.0
 21
-118.0
 31
0.0
  0
LINE
  8
DETAIL
  6
CONTINUOUS
 62
     5
 10
174.5
 20
-90.155710999999911
 30
0.0
 11
174.5
 21
-109.8442889999999
 31
0.0
  0
LINE
  8
DETAIL
  6
CONTINUOUS
 62
     5
 10
178.0
 20
-103.5
 30
0.0
 11
178.0
 21
-96.500000000000028
 31
0.0
  0
LINE
  8
DETAIL
  6
CONTINUOUS
 62
     5
 10
155.25
 20
-70.000000000000028
 30
0.0
 11
185.75
 21
-70.000000000000028
 31
0.0
  0
LINE
  8
DETAIL
  6
CONTINUOUS
 62
     5
 10
155.25
 20
-70.000000000000028
 30
0.0
 11
153.5
 21
-70.000000000000028
 31
0.0
  0
LINE
  8
SIZE
  6
CONTINUOUS
 62
    30
 10
896.21124999999984
 20
-174.5
 30
0.0
 11
896.21124999999984
 21
-162.5
 31
0.0
  0
LINE
  8
SIZE
  6
CONTINUOUS
 62
    30
 10
766.834339
 20
-166.0
 30
0.0
 11
766.834339
 21
-154.0
 31
0.0
  0
CIRCLE
  8
SIZE
  6
CONTINUOUS
 62
    30
 10
766.834339
 20
-166.0
 30
0.0
 40
6.0
  0
CIRCLE
  8
SIZE
  6
CONTINUOUS
 62
    30
 10
896.21124999999984
 20
-174.5
 30
0.0
 40
6.0
  0
LINE
  8
SIZE
  6
CONTINUOUS
 62
    30
 10
148.72126600000001
 20
174.5
 30
0.0
 11
916.21124999999984
 21
174.5
 31
0.0
  0
LINE
  8
SIZE
  6
CONTINUOUS
 62
    30
 10
140.0
 20
166.0
 30
0.0
 11
786.834339
 21
166.0
 31
0.0
  0
TEXT
  8
NOTE
  6
CONTINUOUS
 62
     4
 10
264.13120235133692
 20
277.28124156765398
 30
0.0
 40
64.0
  1
8-φ5×8
 41
0.9
  0
LINE
  8
NOTE
  6
CONTINUOUS
 62
     4
 10
648.42156835133665
 20
250.7499865676541
 30
0.0
 11
255.3904046275311
 21
250.7499865676541
 31
0.0
  0
LINE
  8
SIZE
  6
CONTINUOUS
 62
    30
 10
174.5
 20
154.26558299999991
 30
0.0
 11
174.5
 21
733.88782645773836
 31
0.0
  0
LINE
  8
SIZE
  6
CONTINUOUS
 62
    30
 10
170.5
 20
140.0
 30
0.0
 11
170.5
 21
605.68789445773814
 31
0.0
  0
LINE
  8
NOTE
  6
CONTINUOUS
 62
     4
 10
100.0
 20
166.0
 30
0.0
 11
255.3904046275311
 21
250.7499865676541
 31
0.0
  0
LINE
  8
NOTE
  6
CONTINUOUS
 62
     4
 10
100.0
 20
146.0
 30
0.0
 11
100.0
 21
186.0
 31
0.0
  0
CIRCLE
  8
FIX
  6
CONTINUOUS
 62
    11
 10
100.0
 20
166.0
 30
0.0
 40
2.5
  0
ARC
  8
DETAIL
  6
CONTINUOUS
 62
     5
 10
100.0
 20
164.5
 30
0.0
 40
2.5
 50
180.0
 51
0.0
  0
LINE
  8
NOTE
  6
CONTINUOUS
 62
     4
 10
170.5
 20
120.0
 30
0.0
 11
170.5
 21
79.999999999999972
 31
0.0
  0
LINE
  8
DETAIL
  6
CONTINUOUS
 62
     5
 10
155.25
 20
130.0
 30
0.0
 11
155.25
 21
69.999999999999972
 31
0.0
  0
LINE
  8
DETAIL
  6
CONTINUOUS
 62
     5
 10
185.75
 20
130.0
 30
0.0
 11
185.75
 21
69.999999999999972
 31
0.0
  0
LINE
  8
NOTE
  6
CONTINUOUS
 62
     4
 10
166.0
 20
120.0
 30
0.0
 11
166.0
 21
79.999999999999972
 31
0.0
  0
LINE
  8
DETAIL
  6
CONTINUOUS
 62
     5
 10
155.25
 20
69.999999999999972
 30
0.0
 11
185.75
 21
69.999999999999972
 31
0.0
  0
LINE
  8
DETAIL
  6
CONTINUOUS
 62
     5
 10
155.25
 20
69.999999999999972
 30
0.0
 11
153.5
 21
69.999999999999972
 31
0.0
  0
LINE
  8
NOTE
  6
CONTINUOUS
 62
     4
 10
150.5
 20
99.999999999999972
 30
0.0
 11
190.5
 21
99.999999999999972
 31
0.0
  0
LINE
  8
DETAIL
  6
CONTINUOUS
 62
     5
 10
155.25
 20
130.0
 30
0.0
 11
185.75
 21
130.0
 31
0.0
  0
ARC
  8
DETAIL
  6
CONTINUOUS
 62
     5
 10
170.5
 20
103.5
 30
0.0
 40
7.5
 50
0.0
 51
180.0
  0
ARC
  8
DETAIL
  6
CONTINUOUS
 62
     5
 10
170.5
 20
96.499999999999972
 30
0.0
 40
7.5
 50
180.0
 51
0.0
  0
CIRCLE
  8
FIX
  6
CONTINUOUS
 62
    11
 10
170.5
 20
99.999999999999972
 30
0.0
 40
7.5
  0
LINE
  8
NOTE
  6
CONTINUOUS
 62
     4
 10
146.0
 20
99.999999999999972
 30
0.0
 11
186.0
 21
99.999999999999972
 31
0.0
  0
LINE
  8
DETAIL
  6
CONTINUOUS
 62
     5
 10
155.25
 20
130.0
 30
0.0
 11
153.5
 21
130.0
 31
0.0
  0
LINE
  8
DETAIL
  6
CONTINUOUS
 62
     5
 10
163.0
 20
103.5
 30
0.0
 11
163.0
 21
96.499999999999972
 31
0.0
  0
CIRCLE
  8
FIX
  6
CONTINUOUS
 62
    11
 10
166.0
 20
99.999999999999972
 30
0.0
 40
2.5
  0
LINE
  8
DETAIL
  6
CONTINUOUS
 62
     5
 10
178.0
 20
103.5
 30
0.0
 11
178.0
 21
96.499999999999972
 31
0.0
  0
LINE
  8
NOTE
  6
CONTINUOUS
 62
     4
 10
120.0
 20
166.0
 30
0.0
 11
80.0
 21
166.0
 31
0.0
  0
LINE
  8
NOTE
  6
CONTINUOUS
 62
     4
 10
100.0
 20
166.0
 30
0.0
 11
138.84749075045721
 21
175.5327058293214
 31
0.0
  0
LINE
  8
NOTE
  6
CONTINUOUS
 62
     4
 10
128.87656025853201
 20
193.67931115295389
 30
0.0
 11
100.0
 21
166.0
 31
0.0
  0
ARC
  8
DETAIL
  6
CONTINUOUS
 62
     5
 10
100.0
 20
167.5
 30
0.0
 40
2.5
 50
0.0
 51
180.0
  0
LINE
  8
DETAIL
  6
CONTINUOUS
 62
     5
 10
97.5
 20
167.5
 30
0.0
 11
97.5
 21
164.5
 31
0.0
  0
LINE
  8
DETAIL
  6
CONTINUOUS
 62
     5
 10
102.5
 20
167.5
 30
0.0
 11
102.5
 21
164.5
 31
0.0
  0
CIRCLE
  8
SIZE
  6
CONTINUOUS
 62
    30
 10
170.5
 20
585.68789445773814
 30
0.0
 40
6.0
  0
LINE
  8
SIZE
  6
CONTINUOUS
 62
    30
 10
170.5
 20
585.68789445773814
 30
0.0
 11
158.5
 21
585.68789445773814
 31
0.0
  0
LINE
  8
SIZE
  6
CONTINUOUS
 62
    30
 10
174.5
 20
713.88782645773836
 30
0.0
 11
162.5
 21
713.88782645773836
 31
0.0
  0
CIRCLE
  8
SIZE
  6
CONTINUOUS
 62
    30
 10
174.5
 20
713.88782645773836
 30
0.0
 40
6.0
  0
LINE
  8
SIZE
  6
CONTINUOUS
 62
    30
 10
896.21124999999984
 20
174.5
 30
0.0
 11
896.21124999999984
 21
162.5
 31
0.0
  0
LINE
  8
SIZE
  6
CONTINUOUS
 62
    30
 10
766.834339
 20
166.0
 30
0.0
 11
766.834339
 21
154.0
 31
0.0
  0
CIRCLE
  8
SIZE
  6
CONTINUOUS
 62
    30
 10
766.834339
 20
166.0
 30
0.0
 40
6.0
  0
CIRCLE
  8
SIZE
  6
CONTINUOUS
 62
    30
 10
896.21124999999984
 20
174.5
 30
0.0
 40
6.0
  0
LINE
  8
SIZE
  6
CONTINUOUS
 62
    30
 10
-86.0
 20
-341.5
 30
0.0
 11
-86.0
 21
-586.81906640730642
 31
0.0
  0
LINE
  8
SIZE
  6
CONTINUOUS
 62
    30
 10
0.0
 20
-254.13516899999999
 30
0.0
 11
0.0
 21
-586.81906640730642
 31
0.0
  0
LINE
  8
SIZE
  6
CONTINUOUS
 62
    30
 10
-12.0
 20
-566.81906640730642
 30
0.0
 11
-74.0
 21
-566.81906640730642
 31
0.0
  0
LINE
  8
SIZE
  6
CONTINUOUS
 62
    30
 10
-86.0
 20
-566.81906640730642
 30
0.0
 11
183.83005354858321
 21
-566.81906640730642
 31
0.0
  0
CIRCLE
  8
SIZE
  6
CONTINUOUS
 62
    30
 10
0.0
 20
-566.81906640730642
 30
0.0
 40
6.0
  0
LINE
  8
SIZE
  6
CONTINUOUS
 62
    30
 10
0.0
 20
-566.81906640730642
 30
0.0
 11
-12.0
 21
-566.81906640730642
 31
0.0
  0
CIRCLE
  8
SIZE
  6
CONTINUOUS
 62
    30
 10
-86.0
 20
-566.81906640730642
 30
0.0
 40
6.0
  0
LINE
  8
SIZE
  6
CONTINUOUS
 62
    30
 10
-86.0
 20
-566.81906640730642
 30
0.0
 11
-74.0
 21
-566.81906640730642
 31
0.0
  0
TEXT
  8
SIZE
  6
CONTINUOUS
 62
    30
 10
55.484984325157598
 20
-541.81906640730642
 30
0.0
 40
64.0
  1
86
 41
0.9
 72
     1
 11
100.74212718230049
 21
-541.81906640730642
 31
0.0
  0
POINT
  8
DEFPOINTS
  6
CONTINUOUS
 62
    30
 10
-86.0
 20
-321.5
 30
0.0
  0
POINT
  8
DEFPOINTS
  6
CONTINUOUS
 62
    30
 10
0.0
 20
-234.13516899999999
 30
0.0
  0
POINT
  8
DEFPOINTS
  6
CONTINUOUS
 62
    30
 10
0.0
 20
-566.81906640730642
 30
0.0
  0
LINE
  8
OUTLINE
  6
CONTINUOUS
 62
     3
 10
-174.5000019999998
 20
140.24824399999989
 30
0.0
 11
-174.5000019999998
 21
130.0
 31
0.0
  0
LINE
  8
OUTLINE
  6
CONTINUOUS
 62
     3
 10
174.49999600000001
 20
-140.24824399999989
 30
0.0
 11
174.49999600000001
 21
-130.0
 31
0.0
  0
LINE
  8
OUTLINE
  6
CONTINUOUS
 62
     3
 10
-140.24824100000021
 20
174.49999900000009
 30
0.0
 11
140.24824100000021
 21
174.49999900000009
 31
0.0
  0
ARC
  8
OUTLINE
  6
CONTINUOUS
 62
     3
 10
161.76608800000031
 20
152.60870100000011
 30
0.0
 40
10.057642
 50
0.0
 51
45.556491999984061
  0
ARC
  8
OUTLINE
  6
CONTINUOUS
 62
     3
 10
169.47485299999971
 20
147.34442600000011
 30
0.0
 40
3.0172919999999999
 50
14.999999999994451
 51
90.0
  0
LINE
  8
OUTLINE
  6
CONTINUOUS
 62
     3
 10
174.49999600000001
 20
140.24824399999989
 30
0.0
 11
172.38933399999999
 21
148.1253550000001
 31
0.0
  0
LINE
  8
OUTLINE
  6
CONTINUOUS
 62
     3
 10
171.8237300000001
 20
149.238325
 30
0.0
 11
171.8237300000001
 21
152.60870100000011
 31
0.0
  0
ARC
  8
OUTLINE
  6
CONTINUOUS
 62
     3
 10
147.34442300000001
 20
169.47485
 30
0.0
 40
3.0172919999999999
 50
0.0
 51
75.000000000005542
  0
ARC
  8
OUTLINE
  6
CONTINUOUS
 62
     3
 10
152.60869199999979
 20
161.7660969999998
 30
0.0
 40
10.057642
 50
44.443507999988313
 51
90.0
  0
LINE
  8
OUTLINE
  6
CONTINUOUS
 62
     3
 10
149.2383099999997
 20
171.8237389999999
 30
0.0
 11
152.60869199999979
 21
171.8237389999999
 31
0.0
  0
LINE
  8
OUTLINE
  6
CONTINUOUS
 62
     3
 10
159.78925499999971
 20
168.80851699999991
 30
0.0
 11
164.2550769999998
 21
164.25509199999979
 31
0.0
  0
LINE
  8
OUTLINE
  6
CONTINUOUS
 62
     3
 10
168.8085080000001
 20
159.789264
 30
0.0
 11
164.2550769999998
 21
164.25509199999979
 31
0.0
  0
LINE
  8
OUTLINE
  6
CONTINUOUS
 62
     3
 10
150.361715
 20
169.47485
 30
0.0
 11
150.361715
 21
167.93875900000009
 31
0.0
  0
LINE
  8
OUTLINE
  6
CONTINUOUS
 62
     3
 10
140.24824100000021
 20
174.49999900000009
 30
0.0
 11
148.1253580000002
 21
172.38933100000011
 31
0.0
  0
LINE
  8
OUTLINE
  6
CONTINUOUS
 62
     3
 10
169.47485299999971
 20
150.36171800000011
 30
0.0
 11
167.93875000000031
 21
150.36171800000011
 31
0.0
  0
ARC
  8
OUTLINE
  6
CONTINUOUS
 62
     3
 10
-152.60868000000031
 20
161.7660969999998
 30
0.0
 40
10.057642
 50
90.0
 51
135.5564920000117
  0
ARC
  8
OUTLINE
  6
CONTINUOUS
 62
     3
 10
-147.34442300000001
 20
169.47485
 30
0.0
 40
3.0172919999999999
 50
104.9999999999945
 51
180.0
  0
LINE
  8
OUTLINE
  6
CONTINUOUS
 62
     3
 10
-149.23829800000021
 20
171.8237389999999
 30
0.0
 11
-152.60868000000031
 21
171.8237389999999
 31
0.0
  0
LINE
  8
OUTLINE
  6
CONTINUOUS
 62
     3
 10
-140.24824100000021
 20
174.49999900000009
 30
0.0
 11
-148.1253580000002
 21
172.38933100000011
 31
0.0
  0
ARC
  8
OUTLINE
  6
CONTINUOUS
 62
     3
 10
-161.76607599999991
 20
152.60870100000011
 30
0.0
 40
10.057642
 50
134.44350800001601
 51
180.0
  0
LINE
  8
OUTLINE
  6
CONTINUOUS
 62
     3
 10
-159.7892430000002
 20
168.80851699999991
 30
0.0
 11
-164.25507099999999
 21
164.25509199999979
 31
0.0
  0
LINE
  8
OUTLINE
  6
CONTINUOUS
 62
     3
 10
-168.8084960000001
 20
159.789264
 30
0.0
 11
-164.25507099999999
 21
164.25509199999979
 31
0.0
  0
LINE
  8
OUTLINE
  6
CONTINUOUS
 62
     3
 10
-174.5000019999998
 20
140.24824399999989
 30
0.0
 11
-172.38933399999999
 21
148.1253550000001
 31
0.0
  0
LINE
  8
OUTLINE
  6
CONTINUOUS
 62
     3
 10
-171.8237180000001
 20
149.238325
 30
0.0
 11
-171.8237180000001
 21
152.60870100000011
 31
0.0
  0
ARC
  8
OUTLINE
  6
CONTINUOUS
 62
     3
 10
-169.47485299999971
 20
147.34442600000011
 30
0.0
 40
3.0172919999999999
 50
90.0
 51
165.00000000000551
  0
LINE
  8
OUTLINE
  6
CONTINUOUS
 62
     3
 10
-169.47485299999971
 20
150.36171800000011
 30
0.0
 11
-167.9387379999998
 21
150.36171800000011
 31
0.0
  0
LINE
  8
OUTLINE
  6
CONTINUOUS
 62
     3
 10
140.24824100000021
 20
-174.49999900000009
 30
0.0
 11
-140.24824100000021
 21
-174.49999900000009
 31
0.0
  0
LINE
  8
OUTLINE
  6
CONTINUOUS
 62
     3
 10
159.78925499999971
 20
-168.80851699999999
 30
0.0
 11
164.2550769999998
 21
-164.25508600000009
 31
0.0
  0
ARC
  8
OUTLINE
  6
CONTINUOUS
 62
     3
 10
161.76608800000031
 20
-152.60870100000011
 30
0.0
 40
10.057642
 50
314.44350800001592
 51
0.0
  0
ARC
  8
OUTLINE
  6
CONTINUOUS
 62
     3
 10
169.47485299999971
 20
-147.34442600000011
 30
0.0
 40
3.0172919999999999
 50
270.0
 51
345.00000000000563
  0
LINE
  8
OUTLINE
  6
CONTINUOUS
 62
     3
 10
174.49999600000001
 20
-140.24824399999989
 30
0.0
 11
172.38933399999999
 21
-148.12535500000021
 31
0.0
  0
LINE
  8
OUTLINE
  6
CONTINUOUS
 62
     3
 10
171.8237300000001
 20
-149.23831300000009
 30
0.0
 11
171.8237300000001
 21
-152.60870100000011
 31
0.0
  0
LINE
  8
OUTLINE
  6
CONTINUOUS
 62
     3
 10
168.8085080000001
 20
-159.789264
 30
0.0
 11
164.2550769999998
 21
-164.25508600000009
 31
0.0
  0
ARC
  8
OUTLINE
  6
CONTINUOUS
 62
     3
 10
147.34442300000001
 20
-169.47485000000009
 30
0.0
 40
3.0172919999999999
 50
284.99999999999437
 51
0.0
  0
LINE
  8
OUTLINE
  6
CONTINUOUS
 62
     3
 10
149.2383099999997
 20
-171.82373899999999
 30
0.0
 11
152.60869199999979
 21
-171.82373899999999
 31
0.0
  0
ARC
  8
OUTLINE
  6
CONTINUOUS
 62
     3
 10
152.60869199999979
 20
-161.76609699999989
 30
0.0
 40
10.057642
 50
270.0
 51
315.5564920000117
  0
LINE
  8
OUTLINE
  6
CONTINUOUS
 62
     3
 10
150.361715
 20
-169.47485000000009
 30
0.0
 11
150.361715
 21
-167.93875900000009
 31
0.0
  0
LINE
  8
OUTLINE
  6
CONTINUOUS
 62
     3
 10
140.24824100000021
 20
-174.49999900000009
 30
0.0
 11
148.1253580000002
 21
-172.38933100000011
 31
0.0
  0
LINE
  8
OUTLINE
  6
CONTINUOUS
 62
     3
 10
-159.7892430000002
 20
-168.80851699999999
 30
0.0
 11
-164.25507099999999
 21
-164.25508600000009
 31
0.0
  0
LINE
  8
OUTLINE
  6
CONTINUOUS
 62
     3
 10
-174.5000019999998
 20
-140.24824399999989
 30
0.0
 11
-172.38933399999999
 21
-148.12535500000021
 31
0.0
  0
ARC
  8
OUTLINE
  6
CONTINUOUS
 62
     3
 10
-161.76607599999991
 20
-152.60870100000011
 30
0.0
 40
10.057642
 50
180.0
 51
225.5564919999841
  0
LINE
  8
OUTLINE
  6
CONTINUOUS
 62
     3
 10
-171.8237180000001
 20
-149.2383190000001
 30
0.0
 11
-171.8237180000001
 21
-152.60870100000011
 31
0.0
  0
ARC
  8
OUTLINE
  6
CONTINUOUS
 62
     3
 10
-169.47485299999971
 20
-147.34442600000011
 30
0.0
 40
3.0172919999999999
 50
194.99999999999449
 51
270.0
  0
LINE
  8
OUTLINE
  6
CONTINUOUS
 62
     3
 10
-169.47485299999971
 20
-150.36171800000011
 30
0.0
 11
-167.9387379999998
 21
-150.36171800000011
 31
0.0
  0
LINE
  8
OUTLINE
  6
CONTINUOUS
 62
     3
 10
-168.8084960000001
 20
-159.789264
 30
0.0
 11
-164.25507099999999
 21
-164.25508600000009
 31
0.0
  0
ARC
  8
OUTLINE
  6
CONTINUOUS
 62
     3
 10
-152.60868000000031
 20
-161.76609699999989
 30
0.0
 40
10.057642
 50
224.4435079999883
 51
270.0
  0
LINE
  8
OUTLINE
  6
CONTINUOUS
 62
     3
 10
-149.23829800000021
 20
-171.82373899999999
 30
0.0
 11
-152.60868000000031
 21
-171.82373899999999
 31
0.0
  0
ARC
  8
OUTLINE
  6
CONTINUOUS
 62
     3
 10
-147.34442300000001
 20
-169.47485000000009
 30
0.0
 40
3.0172919999999999
 50
180.0
 51
255.0000000000056
  0
LINE
  8
OUTLINE
  6
CONTINUOUS
 62
     3
 10
-140.24824100000021
 20
-174.49999900000009
 30
0.0
 11
-148.1253580000002
 21
-172.38933100000011
 31
0.0
  0
LINE
  8
OUTLINE
  6
CONTINUOUS
 62
     3
 10
174.49999600000001
 20
130.0
 30
0.0
 11
174.49999600000001
 21
140.24824399999989
 31
0.0
  0
LINE
  8
OUTLINE
  6
CONTINUOUS
 62
     3
 10
174.49999600000001
 20
-129.54957800000011
 30
0.0
 11
174.49999600000001
 21
129.77788100000001
 31
0.0
  0
LINE
  8
OUTLINE
  6
CONTINUOUS
 62
     3
 10
-174.5000019999998
 20
129.5125579999999
 30
0.0
 11
-174.5000019999998
 21
-128.70572599999991
 31
0.0
  0
LINE
  8
OUTLINE
  6
CONTINUOUS
 62
     3
 10
-174.5000019999998
 20
-130.0
 30
0.0
 11
-174.5000019999998
 21
-140.24824399999989
 31
0.0
  0
LINE
  8
DETAIL
  6
CONTINUOUS
 62
     5
 10
-166.0
 20
-159.2600680000001
 30
0.0
 11
-166.0
 21
-156.5
 31
0.0
  0
LINE
  8
DETAIL
  6
CONTINUOUS
 62
     5
 10
-171.4827100000002
 20
133.8671839999999
 30
0.0
 11
-171.4827100000002
 21
130.0
 31
0.0
  0
LINE
  8
DETAIL
  6
CONTINUOUS
 62
     5
 10
-174.5000019999998
 20
140.24824399999989
 30
0.0
 11
-174.5000019999998
 21
130.0
 31
0.0
  0
LINE
  8
DETAIL
  6
CONTINUOUS
 62
     5
 10
171.48270400000001
 20
-133.86718400000001
 30
0.0
 11
171.48270400000001
 21
-130.0
 31
0.0
  0
LINE
  8
DETAIL
  6
CONTINUOUS
 62
     5
 10
174.49999600000001
 20
-140.24824399999989
 30
0.0
 11
174.49999600000001
 21
-130.0
 31
0.0
  0
LINE
  8
DETAIL
  6
CONTINUOUS
 62
     5
 10
-133.8671869999998
 20
171.48270700000009
 30
0.0
 11
133.8671869999998
 21
171.48270700000009
 31
0.0
  0
LINE
  8
DETAIL
  6
CONTINUOUS
 62
     5
 10
-140.24824100000021
 20
174.49999900000009
 30
0.0
 11
140.24824100000021
 21
174.49999900000009
 31
0.0
  0
LINE
  8
DETAIL
  6
CONTINUOUS
 62
     5
 10
172.790199
 20
133.8671839999999
 30
0.0
 11
174.49999600000001
 21
140.24824399999989
 31
0.0
  0
ARC
  8
DETAIL
  6
CONTINUOUS
 62
     5
 10
161.76608800000031
 20
152.60870100000011
 30
0.0
 40
10.057642
 50
0.0
 51
45.556491999984061
  0
ARC
  8
DETAIL
  6
CONTINUOUS
 62
     5
 10
169.47485299999971
 20
147.34442600000011
 30
0.0
 40
3.0172919999999999
 50
14.999999999994451
 51
90.0
  0
LINE
  8
DETAIL
  6
CONTINUOUS
 62
     5
 10
174.49999600000001
 20
140.24824399999989
 30
0.0
 11
172.38933399999999
 21
148.1253550000001
 31
0.0
  0
LINE
  8
DETAIL
  6
CONTINUOUS
 62
     5
 10
171.8237300000001
 20
149.238325
 30
0.0
 11
171.8237300000001
 21
152.60870100000011
 31
0.0
  0
LINE
  8
DETAIL
  6
CONTINUOUS
 62
     5
 10
166.69578199999981
 20
157.6350930000001
 30
0.0
 11
162.14235099999999
 21
162.10092000000009
 31
0.0
  0
LINE
  8
DETAIL
  6
CONTINUOUS
 62
     5
 10
150.361715
 20
161.225719
 30
0.0
 11
150.361715
 21
153.932176
 31
0.0
  0
LINE
  8
DETAIL
  6
CONTINUOUS
 62
     5
 10
151.5072959999998
 20
161.06206700000001
 30
0.0
 11
145.330477
 21
161.94446799999989
 31
0.0
  0
LINE
  8
DETAIL
  6
CONTINUOUS
 62
     5
 10
151.5072959999998
 20
168.10241099999999
 30
0.0
 11
145.330477
 21
167.22001
 31
0.0
  0
ARC
  8
DETAIL
  6
CONTINUOUS
 62
     5
 10
147.34442300000001
 20
169.47485
 30
0.0
 40
3.0172919999999999
 50
0.0
 51
75.000000000005542
  0
LINE
  8
DETAIL
  6
CONTINUOUS
 62
     5
 10
153.3086009999997
 20
171.79936000000001
 30
0.0
 11
153.22286200000011
 21
170.57024799999999
 31
0.0
  0
ARC
  8
DETAIL
  6
CONTINUOUS
 62
     5
 10
152.60869199999979
 20
161.7660969999998
 30
0.0
 40
10.057642
 50
44.443507999988313
 51
90.0
  0
LINE
  8
DETAIL
  6
CONTINUOUS
 62
     5
 10
149.2383099999997
 20
171.8237389999999
 30
0.0
 11
152.60869199999979
 21
171.8237389999999
 31
0.0
  0
ARC
  8
DETAIL
  6
CONTINUOUS
 62
     5
 10
155.22951199999989
 20
170.43026299999991
 30
0.0
 40
2.0115259999999999
 50
176.00957199999681
 51
253.16998299999969
  0
LINE
  8
DETAIL
  6
CONTINUOUS
 62
     5
 10
152.0101759999998
 20
161.06206700000001
 30
0.0
 11
151.5072959999998
 21
161.06206700000001
 31
0.0
  0
LINE
  8
DETAIL
  6
CONTINUOUS
 62
     5
 10
157.63508400000001
 20
166.6957910000001
 30
0.0
 11
162.100911
 21
162.14236600000001
 31
0.0
  0
LINE
  8
DETAIL
  6
CONTINUOUS
 62
     5
 10
152.0101759999998
 20
161.06206700000001
 30
0.0
 11
152.0101759999998
 21
168.10241099999999
 31
0.0
  0
LINE
  8
DETAIL
  6
CONTINUOUS
 62
     5
 10
152.0101759999998
 20
168.10241099999999
 30
0.0
 11
151.5072959999998
 21
168.10241099999999
 31
0.0
  0
LINE
  8
DETAIL
  6
CONTINUOUS
 62
     5
 10
159.78925499999971
 20
168.80851699999991
 30
0.0
 11
164.2550769999998
 21
164.25509199999979
 31
0.0
  0
ARC
  8
DETAIL
  6
CONTINUOUS
 62
     5
 10
152.60869199999979
 20
161.7660969999998
 30
0.0
 40
7.0403500000000001
 50
44.443507999988313
 51
73.169982999999647
  0
LINE
  8
DETAIL
  6
CONTINUOUS
 62
     5
 10
168.8085080000001
 20
159.789264
 30
0.0
 11
164.2550769999998
 21
164.25509199999979
 31
0.0
  0
LINE
  8
DETAIL
  6
CONTINUOUS
 62
     5
 10
150.361715
 20
169.47485
 30
0.0
 11
150.361715
 21
167.93875900000009
 31
0.0
  0
LINE
  8
DETAIL
  6
CONTINUOUS
 62
     5
 10
133.8671869999998
 20
171.48270700000009
 30
0.0
 11
133.8671869999998
 21
172.79020199999991
 31
0.0
  0
LINE
  8
DETAIL
  6
CONTINUOUS
 62
     5
 10
140.24824100000021
 20
174.49999900000009
 30
0.0
 11
148.1253580000002
 21
172.38933100000011
 31
0.0
  0
LINE
  8
DETAIL
  6
CONTINUOUS
 62
     5
 10
133.8671869999998
 20
172.79020199999991
 30
0.0
 11
140.24824100000021
 21
174.49999900000009
 31
0.0
  0
LINE
  8
DETAIL
  6
CONTINUOUS
 62
     5
 10
144.46694600000001
 20
166.22435100000001
 30
0.0
 11
144.46694600000001
 21
162.94012599999991
 31
0.0
  0
ARC
  8
DETAIL
  6
CONTINUOUS
 62
     5
 10
145.4727119999998
 20
162.94012599999991
 30
0.0
 40
1.0057659999999999
 50
180.0
 51
261.86989800001538
  0
ARC
  8
DETAIL
  6
CONTINUOUS
 62
     5
 10
145.4727119999998
 20
166.22435100000001
 30
0.0
 40
1.0057659999999999
 50
98.13010199998466
 51
180.0
  0
LINE
  8
DETAIL
  6
CONTINUOUS
 62
     5
 10
161.06205200000019
 20
151.50730500000009
 30
0.0
 11
161.94445900000031
 21
145.33048600000001
 31
0.0
  0
LINE
  8
DETAIL
  6
CONTINUOUS
 62
     5
 10
168.1024010000001
 20
151.50730500000009
 30
0.0
 11
167.22000099999971
 21
145.33048600000001
 31
0.0
  0
LINE
  8
DETAIL
  6
CONTINUOUS
 62
     5
 10
152.84314100000029
 20
154.67170800000011
 30
0.0
 11
150.36172100000019
 21
154.88880199999991
 31
0.0
  0
LINE
  8
DETAIL
  6
CONTINUOUS
 62
     5
 10
154.67169899999999
 20
152.84314999999989
 30
0.0
 11
154.88879300000011
 21
150.36171800000011
 31
0.0
  0
ARC
  8
DETAIL
  6
CONTINUOUS
 62
     5
 10
170.43025399999991
 20
155.22952099999989
 30
0.0
 40
2.0115259999999999
 50
196.83001700000031
 51
273.99042800000308
  0
LINE
  8
DETAIL
  6
CONTINUOUS
 62
     5
 10
171.79934399999999
 20
153.30860999999999
 30
0.0
 11
170.5702389999997
 21
153.22287099999991
 31
0.0
  0
ARC
  8
DETAIL
  6
CONTINUOUS
 62
     5
 10
152.66782499999999
 20
152.66783400000011
 30
0.0
 40
2.0115259999999999
 50
45.0
 51
85.000000000000256
  0
ARC
  8
DETAIL
  6
CONTINUOUS
 62
     5
 10
161.76608800000031
 20
152.60870100000011
 30
0.0
 40
7.0403500000000001
 50
16.83001700000036
 51
45.556491999984061
  0
LINE
  8
DETAIL
  6
CONTINUOUS
 62
     5
 10
168.1024010000001
 20
152.01019099999999
 30
0.0
 11
168.1024010000001
 21
151.50730500000009
 31
0.0
  0
LINE
  8
DETAIL
  6
CONTINUOUS
 62
     5
 10
161.06205200000019
 20
152.01019099999999
 30
0.0
 11
161.06205200000019
 21
151.50730500000009
 31
0.0
  0
LINE
  8
DETAIL
  6
CONTINUOUS
 62
     5
 10
161.06205200000019
 20
152.01019099999999
 30
0.0
 11
168.1024010000001
 21
152.01019099999999
 31
0.0
  0
ARC
  8
DETAIL
  6
CONTINUOUS
 62
     5
 10
152.66782499999999
 20
152.66783400000011
 30
0.0
 40
2.0115259999999999
 50
5.0000000000000284
 51
45.0
  0
LINE
  8
DETAIL
  6
CONTINUOUS
 62
     5
 10
161.22570999999971
 20
150.36171800000011
 30
0.0
 11
153.93217899999991
 21
150.36171800000011
 31
0.0
  0
LINE
  8
DETAIL
  6
CONTINUOUS
 62
     5
 10
169.47485299999971
 20
150.36171800000011
 30
0.0
 11
167.93875000000031
 21
150.36171800000011
 31
0.0
  0
ARC
  8
DETAIL
  6
CONTINUOUS
 62
     5
 10
153.37900600000009
 20
153.379009
 30
0.0
 40
1.0057659999999999
 50
0.0
 51
90.0
  0
LINE
  8
DETAIL
  6
CONTINUOUS
 62
     5
 10
154.38477199999991
 20
150.36171800000011
 30
0.0
 11
154.38477199999991
 21
153.379009
 31
0.0
  0
LINE
  8
DETAIL
  6
CONTINUOUS
 62
     5
 10
150.361715
 20
154.38476900000001
 30
0.0
 11
153.37900600000009
 21
154.38476900000001
 31
0.0
  0
ARC
  8
DETAIL
  6
CONTINUOUS
 62
     5
 10
162.94011099999989
 20
145.47272100000009
 30
0.0
 40
1.0057659999999999
 50
188.1301019999982
 51
270.0
  0
LINE
  8
DETAIL
  6
CONTINUOUS
 62
     5
 10
166.22434200000001
 20
144.46696100000011
 30
0.0
 11
162.94011099999989
 21
144.46696100000011
 31
0.0
  0
ARC
  8
DETAIL
  6
CONTINUOUS
 62
     5
 10
166.22434200000001
 20
145.47272100000009
 30
0.0
 40
1.0057659999999999
 50
270.0
 51
351.86989800000168
  0
LINE
  8
DETAIL
  6
CONTINUOUS
 62
     5
 10
171.48270400000001
 20
133.8671839999999
 30
0.0
 11
172.790199
 21
133.8671839999999
 31
0.0
  0
LINE
  8
DETAIL
  6
CONTINUOUS
 62
     5
 10
-172.790199
 20
133.8671839999999
 30
0.0
 11
-174.5000019999998
 21
140.24824399999989
 31
0.0
  0
LINE
  8
DETAIL
  6
CONTINUOUS
 62
     5
 10
-157.63507200000001
 20
166.6957910000001
 30
0.0
 11
-162.100899
 21
162.14236600000001
 31
0.0
  0
ARC
  8
DETAIL
  6
CONTINUOUS
 62
     5
 10
-152.60868000000031
 20
161.7660969999998
 30
0.0
 40
10.057642
 50
90.0
 51
135.5564920000117
  0
LINE
  8
DETAIL
  6
CONTINUOUS
 62
     5
 10
-161.22569699999991
 20
150.36171800000011
 30
0.0
 11
-153.93217899999991
 21
150.36171800000011
 31
0.0
  0
LINE
  8
DETAIL
  6
CONTINUOUS
 62
     5
 10
-150.361715
 20
161.225719
 30
0.0
 11
-150.361715
 21
153.932176
 31
0.0
  0
LINE
  8
DETAIL
  6
CONTINUOUS
 62
     5
 10
-133.8671869999998
 20
172.79020199999991
 30
0.0
 11
-140.24824100000021
 21
174.49999900000009
 31
0.0
  0
LINE
  8
DETAIL
  6
CONTINUOUS
 62
     5
 10
-133.8671869999998
 20
171.48270700000009
 30
0.0
 11
-133.8671869999998
 21
172.79020199999991
 31
0.0
  0
LINE
  8
DETAIL
  6
CONTINUOUS
 62
     5
 10
-153.30858900000021
 20
171.79936000000001
 30
0.0
 11
-153.22285000000011
 21
170.57024799999999
 31
0.0
  0
ARC
  8
DETAIL
  6
CONTINUOUS
 62
     5
 10
-147.34442300000001
 20
169.47485
 30
0.0
 40
3.0172919999999999
 50
104.9999999999945
 51
180.0
  0
LINE
  8
DETAIL
  6
CONTINUOUS
 62
     5
 10
-149.23829800000021
 20
171.8237389999999
 30
0.0
 11
-152.60868000000031
 21
171.8237389999999
 31
0.0
  0
LINE
  8
DETAIL
  6
CONTINUOUS
 62
     5
 10
-140.24824100000021
 20
174.49999900000009
 30
0.0
 11
-148.1253580000002
 21
172.38933100000011
 31
0.0
  0
ARC
  8
DETAIL
  6
CONTINUOUS
 62
     5
 10
-155.22949999999989
 20
170.43026299999991
 30
0.0
 40
2.0115259999999999
 50
286.83001700000028
 51
3.990428000003226
  0
LINE
  8
DETAIL
  6
CONTINUOUS
 62
     5
 10
-151.50728400000031
 20
161.06206700000001
 30
0.0
 11
-145.330465
 21
161.94446799999989
 31
0.0
  0
LINE
  8
DETAIL
  6
CONTINUOUS
 62
     5
 10
-152.01016999999999
 20
161.06206700000001
 30
0.0
 11
-151.50728400000031
 21
161.06206700000001
 31
0.0
  0
LINE
  8
DETAIL
  6
CONTINUOUS
 62
     5
 10
-144.46694000000019
 20
166.22435100000001
 30
0.0
 11
-144.46694000000019
 21
162.94012599999991
 31
0.0
  0
ARC
  8
DETAIL
  6
CONTINUOUS
 62
     5
 10
-145.47270000000029
 20
162.94012599999991
 30
0.0
 40
1.0057659999999999
 50
278.13010199998462
 51
0.0
  0
LINE
  8
DETAIL
  6
CONTINUOUS
 62
     5
 10
-151.50728400000031
 20
168.10241099999999
 30
0.0
 11
-145.330465
 21
167.22001
 31
0.0
  0
LINE
  8
DETAIL
  6
CONTINUOUS
 62
     5
 10
-152.01016999999999
 20
161.06206700000001
 30
0.0
 11
-152.01016999999999
 21
168.10241099999999
 31
0.0
  0
LINE
  8
DETAIL
  6
CONTINUOUS
 62
     5
 10
-152.01016999999999
 20
168.10241099999999
 30
0.0
 11
-151.50728400000031
 21
168.10241099999999
 31
0.0
  0
ARC
  8
DETAIL
  6
CONTINUOUS
 62
     5
 10
-145.47270000000029
 20
166.22435100000001
 30
0.0
 40
1.0057659999999999
 50
0.0
 51
81.869898000015354
  0
ARC
  8
DETAIL
  6
CONTINUOUS
 62
     5
 10
-152.60868000000031
 20
161.7660969999998
 30
0.0
 40
7.0403500000000001
 50
106.8300170000004
 51
135.5564920000117
  0
LINE
  8
DETAIL
  6
CONTINUOUS
 62
     5
 10
-150.361715
 20
169.47485
 30
0.0
 11
-150.361715
 21
167.93875900000009
 31
0.0
  0
LINE
  8
DETAIL
  6
CONTINUOUS
 62
     5
 10
-154.67168699999999
 20
152.84314999999989
 30
0.0
 11
-154.88878100000011
 21
150.36171800000011
 31
0.0
  0
LINE
  8
DETAIL
  6
CONTINUOUS
 62
     5
 10
-152.84312899999989
 20
154.67170800000011
 30
0.0
 11
-150.36170799999991
 21
154.88880199999991
 31
0.0
  0
ARC
  8
DETAIL
  6
CONTINUOUS
 62
     5
 10
-152.667813
 20
152.66783400000011
 30
0.0
 40
2.0115259999999999
 50
94.999999999999744
 51
135.0
  0
ARC
  8
DETAIL
  6
CONTINUOUS
 62
     5
 10
-152.667813
 20
152.66783400000011
 30
0.0
 40
2.0115259999999999
 50
135.0
 51
175.0
  0
LINE
  8
DETAIL
  6
CONTINUOUS
 62
     5
 10
-150.361715
 20
154.38476900000001
 30
0.0
 11
-153.37900600000009
 21
154.38476900000001
 31
0.0
  0
LINE
  8
DETAIL
  6
CONTINUOUS
 62
     5
 10
-154.38477199999991
 20
150.36171800000011
 30
0.0
 11
-154.38477199999991
 21
153.379009
 31
0.0
  0
ARC
  8
DETAIL
  6
CONTINUOUS
 62
     5
 10
-153.37900600000009
 20
153.379009
 30
0.0
 40
1.0057659999999999
 50
90.0
 51
180.0
  0
ARC
  8
DETAIL
  6
CONTINUOUS
 62
     5
 10
-161.76607599999991
 20
152.60870100000011
 30
0.0
 40
10.057642
 50
134.44350800001601
 51
180.0
  0
LINE
  8
DETAIL
  6
CONTINUOUS
 62
     5
 10
-166.69577000000029
 20
157.6350930000001
 30
0.0
 11
-162.1423450000002
 21
162.10092000000009
 31
0.0
  0
LINE
  8
DETAIL
  6
CONTINUOUS
 62
     5
 10
-159.7892430000002
 20
168.80851699999991
 30
0.0
 11
-164.25507099999999
 21
164.25509199999979
 31
0.0
  0
LINE
  8
DETAIL
  6
CONTINUOUS
 62
     5
 10
-168.8084960000001
 20
159.789264
 30
0.0
 11
-164.25507099999999
 21
164.25509199999979
 31
0.0
  0
LINE
  8
DETAIL
  6
CONTINUOUS
 62
     5
 10
-161.06204600000001
 20
151.50730500000009
 30
0.0
 11
-161.94444699999991
 21
145.33048600000001
 31
0.0
  0
LINE
  8
DETAIL
  6
CONTINUOUS
 62
     5
 10
-168.1023890000001
 20
151.50730500000009
 30
0.0
 11
-167.2199879999998
 21
145.33048600000001
 31
0.0
  0
LINE
  8
DETAIL
  6
CONTINUOUS
 62
     5
 10
-174.5000019999998
 20
140.24824399999989
 30
0.0
 11
-172.38933399999999
 21
148.1253550000001
 31
0.0
  0
LINE
  8
DETAIL
  6
CONTINUOUS
 62
     5
 10
-171.8237180000001
 20
149.238325
 30
0.0
 11
-171.8237180000001
 21
152.60870100000011
 31
0.0
  0
ARC
  8
DETAIL
  6
CONTINUOUS
 62
     5
 10
-170.43024199999991
 20
155.22952099999989
 30
0.0
 40
2.0115259999999999
 50
266.00957199999692
 51
343.16998299999972
  0
LINE
  8
DETAIL
  6
CONTINUOUS
 62
     5
 10
-171.79933799999981
 20
153.30860999999999
 30
0.0
 11
-170.57022599999979
 21
153.22287099999991
 31
0.0
  0
ARC
  8
DETAIL
  6
CONTINUOUS
 62
     5
 10
-161.76607599999991
 20
152.60870100000011
 30
0.0
 40
7.0403500000000001
 50
134.44350800001601
 51
163.1699829999996
  0
LINE
  8
DETAIL
  6
CONTINUOUS
 62
     5
 10
-168.1023890000001
 20
152.01019099999999
 30
0.0
 11
-168.1023890000001
 21
151.50730500000009
 31
0.0
  0
LINE
  8
DETAIL
  6
CONTINUOUS
 62
     5
 10
-161.06204600000001
 20
152.01019099999999
 30
0.0
 11
-161.06204600000001
 21
151.50730500000009
 31
0.0
  0
LINE
  8
DETAIL
  6
CONTINUOUS
 62
     5
 10
-161.06204600000001
 20
152.01019099999999
 30
0.0
 11
-168.1023890000001
 21
152.01019099999999
 31
0.0
  0
ARC
  8
DETAIL
  6
CONTINUOUS
 62
     5
 10
-169.47485299999971
 20
147.34442600000011
 30
0.0
 40
3.0172919999999999
 50
90.0
 51
165.00000000000551
  0
LINE
  8
DETAIL
  6
CONTINUOUS
 62
     5
 10
-169.47485299999971
 20
150.36171800000011
 30
0.0
 11
-167.9387379999998
 21
150.36171800000011
 31
0.0
  0
ARC
  8
DETAIL
  6
CONTINUOUS
 62
     5
 10
-162.9401050000001
 20
145.47272100000009
 30
0.0
 40
1.0057659999999999
 50
270.0
 51
351.86989800000168
  0
LINE
  8
DETAIL
  6
CONTINUOUS
 62
     5
 10
-166.22433000000001
 20
144.46696100000011
 30
0.0
 11
-162.9401050000001
 21
144.46696100000011
 31
0.0
  0
ARC
  8
DETAIL
  6
CONTINUOUS
 62
     5
 10
-166.22433000000001
 20
145.47272100000009
 30
0.0
 40
1.0057659999999999
 50
188.1301019999982
 51
270.0
  0
LINE
  8
DETAIL
  6
CONTINUOUS
 62
     5
 10
-171.4827100000002
 20
133.8671839999999
 30
0.0
 11
-172.790199
 21
133.8671839999999
 31
0.0
  0
LINE
  8
DETAIL
  6
CONTINUOUS
 62
     5
 10
140.24824100000021
 20
-174.49999900000009
 30
0.0
 11
-6.0
 21
-174.49999900000009
 31
0.0
  0
LINE
  8
DETAIL
  6
CONTINUOUS
 62
     5
 10
133.8671869999998
 20
-171.48270700000009
 30
0.0
 11
-6.0
 21
-171.48270700000009
 31
0.0
  0
LINE
  8
DETAIL
  6
CONTINUOUS
 62
     5
 10
152.0101759999998
 20
-161.06206100000011
 30
0.0
 11
152.0101759999998
 21
-168.1024110000001
 31
0.0
  0
ARC
  8
DETAIL
  6
CONTINUOUS
 62
     5
 10
145.4727119999998
 20
-166.2243510000001
 30
0.0
 40
1.0057659999999999
 50
180.0
 51
261.86989800001538
  0
LINE
  8
DETAIL
  6
CONTINUOUS
 62
     5
 10
159.78925499999971
 20
-168.80851699999999
 30
0.0
 11
164.2550769999998
 21
-164.25508600000009
 31
0.0
  0
ARC
  8
DETAIL
  6
CONTINUOUS
 62
     5
 10
152.60869199999979
 20
-161.76609699999989
 30
0.0
 40
7.0403500000000001
 50
286.83001700000028
 51
315.5564920000117
  0
ARC
  8
DETAIL
  6
CONTINUOUS
 62
     5
 10
161.76608800000031
 20
-152.60870100000011
 30
0.0
 40
10.057642
 50
314.44350800001592
 51
0.0
  0
ARC
  8
DETAIL
  6
CONTINUOUS
 62
     5
 10
169.47485299999971
 20
-147.34442600000011
 30
0.0
 40
3.0172919999999999
 50
270.0
 51
345.00000000000563
  0
LINE
  8
DETAIL
  6
CONTINUOUS
 62
     5
 10
171.48270400000001
 20
-133.86718400000001
 30
0.0
 11
172.790199
 21
-133.86718400000001
 31
0.0
  0
LINE
  8
DETAIL
  6
CONTINUOUS
 62
     5
 10
174.49999600000001
 20
-140.24824399999989
 30
0.0
 11
172.38933399999999
 21
-148.12535500000021
 31
0.0
  0
LINE
  8
DETAIL
  6
CONTINUOUS
 62
     5
 10
172.790199
 20
-133.86718400000001
 30
0.0
 11
174.49999600000001
 21
-140.24824399999989
 31
0.0
  0
LINE
  8
DETAIL
  6
CONTINUOUS
 62
     5
 10
171.8237300000001
 20
-149.23831300000009
 30
0.0
 11
171.8237300000001
 21
-152.60870100000011
 31
0.0
  0
LINE
  8
DETAIL
  6
CONTINUOUS
 62
     5
 10
151.5072959999998
 20
-161.06206100000011
 30
0.0
 11
145.330477
 21
-161.94446799999989
 31
0.0
  0
ARC
  8
DETAIL
  6
CONTINUOUS
 62
     5
 10
170.43025399999991
 20
-155.22952100000001
 30
0.0
 40
2.0115259999999999
 50
86.009571999996894
 51
163.1699829999996
  0
ARC
  8
DETAIL
  6
CONTINUOUS
 62
     5
 10
152.66782499999999
 20
-152.66783400000011
 30
0.0
 40
2.0115259999999999
 50
274.99999999999972
 51
315.0
  0
LINE
  8
DETAIL
  6
CONTINUOUS
 62
     5
 10
150.361715
 20
-161.22571900000011
 30
0.0
 11
150.361715
 21
-153.93217600000011
 31
0.0
  0
ARC
  8
DETAIL
  6
CONTINUOUS
 62
     5
 10
153.37900600000009
 20
-153.379009
 30
0.0
 40
1.0057659999999999
 50
270.0
 51
0.0
  0
LINE
  8
DETAIL
  6
CONTINUOUS
 62
     5
 10
154.67169899999999
 20
-152.84315000000001
 30
0.0
 11
154.88879300000011
 21
-150.36171800000011
 31
0.0
  0
LINE
  8
DETAIL
  6
CONTINUOUS
 62
     5
 10
171.79934399999999
 20
-153.3086100000001
 30
0.0
 11
170.5702389999997
 21
-153.22286500000001
 31
0.0
  0
ARC
  8
DETAIL
  6
CONTINUOUS
 62
     5
 10
162.94011099999989
 20
-145.47272100000009
 30
0.0
 40
1.0057659999999999
 50
90.0
 51
171.86989800000171
  0
LINE
  8
DETAIL
  6
CONTINUOUS
 62
     5
 10
166.22434200000001
 20
-144.4669550000001
 30
0.0
 11
162.94011099999989
 21
-144.4669550000001
 31
0.0
  0
ARC
  8
DETAIL
  6
CONTINUOUS
 62
     5
 10
166.22434200000001
 20
-145.47272100000009
 30
0.0
 40
1.0057659999999999
 50
8.1301019999982547
 51
90.0
  0
LINE
  8
DETAIL
  6
CONTINUOUS
 62
     5
 10
168.1024010000001
 20
-152.01018500000009
 30
0.0
 11
168.1024010000001
 21
-151.50730500000009
 31
0.0
  0
LINE
  8
DETAIL
  6
CONTINUOUS
 62
     5
 10
161.06205200000019
 20
-152.01018500000009
 30
0.0
 11
161.06205200000019
 21
-151.50730500000009
 31
0.0
  0
LINE
  8
DETAIL
  6
CONTINUOUS
 62
     5
 10
161.06205200000019
 20
-152.01018500000009
 30
0.0
 11
168.1024010000001
 21
-152.01018500000009
 31
0.0
  0
LINE
  8
DETAIL
  6
CONTINUOUS
 62
     5
 10
161.06205200000019
 20
-151.50730500000009
 30
0.0
 11
161.94445900000031
 21
-145.33048600000009
 31
0.0
  0
LINE
  8
DETAIL
  6
CONTINUOUS
 62
     5
 10
168.1024010000001
 20
-151.50730500000009
 30
0.0
 11
167.22000099999971
 21
-145.33048600000009
 31
0.0
  0
ARC
  8
DETAIL
  6
CONTINUOUS
 62
     5
 10
152.66782499999999
 20
-152.66783400000011
 30
0.0
 40
2.0115259999999999
 50
315.0
 51
354.99999999999989
  0
LINE
  8
DETAIL
  6
CONTINUOUS
 62
     5
 10
161.22570999999971
 20
-150.36171800000011
 30
0.0
 11
153.93217899999991
 21
-150.36171800000011
 31
0.0
  0
LINE
  8
DETAIL
  6
CONTINUOUS
 62
     5
 10
154.38477199999991
 20
-150.36171800000011
 30
0.0
 11
154.38477199999991
 21
-153.379009
 31
0.0
  0
LINE
  8
DETAIL
  6
CONTINUOUS
 62
     5
 10
169.47485299999971
 20
-150.36171800000011
 30
0.0
 11
167.93875000000031
 21
-150.36171800000011
 31
0.0
  0
LINE
  8
DETAIL
  6
CONTINUOUS
 62
     5
 10
152.84314100000029
 20
-154.67170800000011
 30
0.0
 11
150.36172100000019
 21
-154.888802
 31
0.0
  0
LINE
  8
DETAIL
  6
CONTINUOUS
 62
     5
 10
152.0101759999998
 20
-161.06206100000011
 30
0.0
 11
151.5072959999998
 21
-161.06206100000011
 31
0.0
  0
LINE
  8
DETAIL
  6
CONTINUOUS
 62
     5
 10
157.63508400000001
 20
-166.6957910000001
 30
0.0
 11
162.100911
 21
-162.1423600000002
 31
0.0
  0
ARC
  8
DETAIL
  6
CONTINUOUS
 62
     5
 10
161.76608800000031
 20
-152.60870100000011
 30
0.0
 40
7.0403500000000001
 50
314.44350800001592
 51
343.16998299999972
  0
LINE
  8
DETAIL
  6
CONTINUOUS
 62
     5
 10
168.8085080000001
 20
-159.789264
 30
0.0
 11
164.2550769999998
 21
-164.25508600000009
 31
0.0
  0
LINE
  8
DETAIL
  6
CONTINUOUS
 62
     5
 10
166.69578199999981
 20
-157.6350930000001
 30
0.0
 11
162.14235099999999
 21
-162.10092000000009
 31
0.0
  0
LINE
  8
DETAIL
  6
CONTINUOUS
 62
     5
 10
150.361715
 20
-154.38476900000001
 30
0.0
 11
153.37900600000009
 21
-154.38476900000001
 31
0.0
  0
LINE
  8
DETAIL
  6
CONTINUOUS
 62
     5
 10
144.46694600000001
 20
-166.2243510000001
 30
0.0
 11
144.46694600000001
 21
-162.94012000000001
 31
0.0
  0
ARC
  8
DETAIL
  6
CONTINUOUS
 62
     5
 10
145.4727119999998
 20
-162.94012000000001
 30
0.0
 40
1.0057659999999999
 50
98.13010199998466
 51
180.0
  0
LINE
  8
DETAIL
  6
CONTINUOUS
 62
     5
 10
151.5072959999998
 20
-168.1024110000001
 30
0.0
 11
145.330477
 21
-167.22001
 31
0.0
  0
ARC
  8
DETAIL
  6
CONTINUOUS
 62
     5
 10
147.34442300000001
 20
-169.47485000000009
 30
0.0
 40
3.0172919999999999
 50
284.99999999999437
 51
0.0
  0
LINE
  8
DETAIL
  6
CONTINUOUS
 62
     5
 10
149.2383099999997
 20
-171.82373899999999
 30
0.0
 11
152.60869199999979
 21
-171.82373899999999
 31
0.0
  0
LINE
  8
DETAIL
  6
CONTINUOUS
 62
     5
 10
153.3086009999997
 20
-171.79935399999999
 30
0.0
 11
153.22286200000011
 21
-170.57024799999999
 31
0.0
  0
ARC
  8
DETAIL
  6
CONTINUOUS
 62
     5
 10
155.22951199999989
 20
-170.430263
 30
0.0
 40
2.0115259999999999
 50
106.8300170000004
 51
183.99042800000319
  0
LINE
  8
DETAIL
  6
CONTINUOUS
 62
     5
 10
152.0101759999998
 20
-168.1024110000001
 30
0.0
 11
151.5072959999998
 21
-168.1024110000001
 31
0.0
  0
ARC
  8
DETAIL
  6
CONTINUOUS
 62
     5
 10
152.60869199999979
 20
-161.76609699999989
 30
0.0
 40
10.057642
 50
270.0
 51
315.5564920000117
  0
LINE
  8
DETAIL
  6
CONTINUOUS
 62
     5
 10
150.361715
 20
-169.47485000000009
 30
0.0
 11
150.361715
 21
-167.93875900000009
 31
0.0
  0
LINE
  8
DETAIL
  6
CONTINUOUS
 62
     5
 10
140.24824100000021
 20
-174.49999900000009
 30
0.0
 11
148.1253580000002
 21
-172.38933100000011
 31
0.0
  0
LINE
  8
DETAIL
  6
CONTINUOUS
 62
     5
 10
133.8671869999998
 20
-172.79019600000001
 30
0.0
 11
140.24824100000021
 21
-174.49999900000009
 31
0.0
  0
LINE
  8
DETAIL
  6
CONTINUOUS
 62
     5
 10
133.8671869999998
 20
-171.48270700000009
 30
0.0
 11
133.8671869999998
 21
-172.79019600000001
 31
0.0
  0
LINE
  8
DETAIL
  6
CONTINUOUS
 62
     5
 10
-161.22569699999991
 20
-150.36171800000011
 30
0.0
 11
-153.93217899999991
 21
-150.36171800000011
 31
0.0
  0
ARC
  8
DETAIL
  6
CONTINUOUS
 62
     5
 10
-153.37900600000009
 20
-153.379009
 30
0.0
 40
1.0057659999999999
 50
180.0
 51
186.9092379999953
  0
LINE
  8
DETAIL
  6
CONTINUOUS
 62
     5
 10
-154.67168699999999
 20
-152.84315000000001
 30
0.0
 11
-154.88878100000011
 21
-150.36171800000011
 31
0.0
  0
ARC
  8
DETAIL
  6
CONTINUOUS
 62
     5
 10
-152.667813
 20
-152.66783400000011
 30
0.0
 40
2.0115259999999999
 50
185.0
 51
204.43741200000599
  0
LINE
  8
DETAIL
  6
CONTINUOUS
 62
     5
 10
-154.38477199999991
 20
-150.36171800000011
 30
0.0
 11
-154.38477199999991
 21
-153.379009
 31
0.0
  0
LINE
  8
DETAIL
  6
CONTINUOUS
 62
     5
 10
-174.5000019999998
 20
-140.24824399999989
 30
0.0
 11
-172.38933399999999
 21
-148.12535500000021
 31
0.0
  0
LINE
  8
DETAIL
  6
CONTINUOUS
 62
     5
 10
-172.790199
 20
-133.86718400000001
 30
0.0
 11
-174.5000019999998
 21
-140.24824399999989
 31
0.0
  0
LINE
  8
DETAIL
  6
CONTINUOUS
 62
     5
 10
-171.4827100000002
 20
-133.86718400000001
 30
0.0
 11
-172.790199
 21
-133.86718400000001
 31
0.0
  0
ARC
  8
DETAIL
  6
CONTINUOUS
 62
     5
 10
-170.43024199999991
 20
-155.22952100000001
 30
0.0
 40
2.0115259999999999
 50
16.83001700000036
 51
93.990428000003121
  0
ARC
  8
DETAIL
  6
CONTINUOUS
 62
     5
 10
-161.76607599999991
 20
-152.60870100000011
 30
0.0
 40
10.057642
 50
180.0
 51
225.5564919999841
  0
LINE
  8
DETAIL
  6
CONTINUOUS
 62
     5
 10
-171.8237180000001
 20
-149.2383190000001
 30
0.0
 11
-171.8237180000001
 21
-152.60870100000011
 31
0.0
  0
LINE
  8
DETAIL
  6
CONTINUOUS
 62
     5
 10
-171.79933799999981
 20
-153.3086100000001
 30
0.0
 11
-170.57022599999979
 21
-153.22286500000001
 31
0.0
  0
ARC
  8
DETAIL
  6
CONTINUOUS
 62
     5
 10
-162.9401050000001
 20
-145.47272100000009
 30
0.0
 40
1.0057659999999999
 50
8.1301019999982547
 51
90.0
  0
LINE
  8
DETAIL
  6
CONTINUOUS
 62
     5
 10
-166.22433000000001
 20
-144.4669550000001
 30
0.0
 11
-162.9401050000001
 21
-144.4669550000001
 31
0.0
  0
ARC
  8
DETAIL
  6
CONTINUOUS
 62
     5
 10
-166.22433000000001
 20
-145.47272100000009
 30
0.0
 40
1.0057659999999999
 50
90.0
 51
171.86989800000171
  0
LINE
  8
DETAIL
  6
CONTINUOUS
 62
     5
 10
-168.1023890000001
 20
-152.01018500000009
 30
0.0
 11
-168.1023890000001
 21
-151.50730500000009
 31
0.0
  0
LINE
  8
DETAIL
  6
CONTINUOUS
 62
     5
 10
-161.06204600000001
 20
-152.01018500000009
 30
0.0
 11
-161.06204600000001
 21
-151.50730500000009
 31
0.0
  0
LINE
  8
DETAIL
  6
CONTINUOUS
 62
     5
 10
-161.06204600000001
 20
-152.01018500000009
 30
0.0
 11
-168.1023890000001
 21
-152.01018500000009
 31
0.0
  0
LINE
  8
DETAIL
  6
CONTINUOUS
 62
     5
 10
-161.06204600000001
 20
-151.50730500000009
 30
0.0
 11
-161.94444699999991
 21
-145.33048600000009
 31
0.0
  0
LINE
  8
DETAIL
  6
CONTINUOUS
 62
     5
 10
-168.1023890000001
 20
-151.50730500000009
 30
0.0
 11
-167.2199879999998
 21
-145.33048600000009
 31
0.0
  0
ARC
  8
DETAIL
  6
CONTINUOUS
 62
     5
 10
-169.47485299999971
 20
-147.34442600000011
 30
0.0
 40
3.0172919999999999
 50
194.99999999999449
 51
270.0
  0
LINE
  8
DETAIL
  6
CONTINUOUS
 62
     5
 10
-169.47485299999971
 20
-150.36171800000011
 30
0.0
 11
-167.9387379999998
 21
-150.36171800000011
 31
0.0
  0
ARC
  8
DETAIL
  6
CONTINUOUS
 62
     5
 10
-161.76607599999991
 20
-152.60870100000011
 30
0.0
 40
7.0403500000000001
 50
196.83001700000031
 51
225.5564919999841
  0
LINE
  8
DETAIL
  6
CONTINUOUS
 62
     5
 10
-168.8084960000001
 20
-159.789264
 30
0.0
 11
-166.0
 21
-162.54372699999999
 31
0.0
  0
LINE
  8
DETAIL
  6
CONTINUOUS
 62
     5
 10
-166.69577000000029
 20
-157.6350930000001
 30
0.0
 11
-166.0
 21
-158.31747799999999
 31
0.0
  0
LINE
  8
DETAIL
  6
CONTINUOUS
 62
     5
 10
171.48270400000001
 20
130.0
 30
0.0
 11
171.48270400000001
 21
133.8671839999999
 31
0.0
  0
LINE
  8
DETAIL
  6
CONTINUOUS
 62
     5
 10
174.49999600000001
 20
130.0
 30
0.0
 11
174.49999600000001
 21
140.24824399999989
 31
0.0
  0
LINE
  8
DETAIL
  6
CONTINUOUS
 62
     5
 10
174.49999600000001
 20
-70.000000000000028
 30
0.0
 11
174.49999600000001
 21
69.999999999999972
 31
0.0
  0
LINE
  8
DETAIL
  6
CONTINUOUS
 62
     5
 10
171.48270400000001
 20
-70.000000000000028
 30
0.0
 11
171.48270400000001
 21
69.999999999999972
 31
0.0
  0
LINE
  8
DETAIL
  6
CONTINUOUS
 62
     5
 10
-171.4827100000002
 20
69.999999999999972
 30
0.0
 11
-171.4827100000002
 21
-70.000000000000028
 31
0.0
  0
LINE
  8
DETAIL
  6
CONTINUOUS
 62
     5
 10
-174.5000019999998
 20
69.999999999999972
 30
0.0
 11
-174.5000019999998
 21
-70.000000000000028
 31
0.0
  0
LINE
  8
DETAIL
  6
CONTINUOUS
 62
     5
 10
-171.4827100000002
 20
-130.0
 30
0.0
 11
-171.4827100000002
 21
-133.86718400000001
 31
0.0
  0
LINE
  8
DETAIL
  6
CONTINUOUS
 62
     5
 10
-174.5000019999998
 20
-130.0
 30
0.0
 11
-174.5000019999998
 21
-140.24824399999989
 31
0.0
  0
ARC
  8
DETAIL
  6
CONTINUOUS
 62
     5
 10
-152.667813
 20
-152.66783400000011
 30
0.0
 40
2.0115259999999999
 50
224.84619400001429
 51
225.0
  0
LINE
  8
SIZE
  6
CONTINUOUS
 62
    30
 10
-153.5
 20
-173.5
 30
0.0
 11
-153.5
 21
-494.17157177499769
 31
0.0
  0
LINE
  8
SIZE
  6
CONTINUOUS
 62
    30
 10
-179.5
 20
-176.5
 30
0.0
 11
-179.5
 21
-494.17157177499769
 31
0.0
  0
LINE
  8
SIZE
  6
CONTINUOUS
 62
    30
 10
-141.5
 20
-474.17157177499769
 30
0.0
 11
-129.5
 21
-474.17157177499769
 31
0.0
  0
LINE
  8
SIZE
  6
CONTINUOUS
 62
    30
 10
-191.5
 20
-474.17157177499769
 30
0.0
 11
-344.01428571428568
 21
-474.17157177499769
 31
0.0
  0
LINE
  8
SIZE
  6
CONTINUOUS
 62
    30
 10
-153.5
 20
-474.17157177499769
 30
0.0
 11
-179.5
 21
-474.17157177499769
 31
0.0
  0
CIRCLE
  8
SIZE
  6
CONTINUOUS
 62
    30
 10
-153.5
 20
-474.17157177499769
 30
0.0
 40
6.0
  0
LINE
  8
SIZE
  6
CONTINUOUS
 62
    30
 10
-153.5
 20
-474.17157177499769
 30
0.0
 11
-141.5
 21
-474.17157177499769
 31
0.0
  0
CIRCLE
  8
SIZE
  6
CONTINUOUS
 62
    30
 10
-179.5
 20
-474.17157177499769
 30
0.0
 40
6.0
  0
LINE
  8
SIZE
  6
CONTINUOUS
 62
    30
 10
-179.5
 20
-474.17157177499769
 30
0.0
 11
-191.5
 21
-474.17157177499769
 31
0.0
  0
TEXT
  8
SIZE
  6
CONTINUOUS
 62
    30
 10
-319.01428571428568
 20
-449.17157177499769
 30
0.0
 40
64.0
  1
26
 41
0.9
 72
     1
 11
-273.75714285714292
 21
-449.17157177499769
 31
0.0
  0
POINT
  8
DEFPOINTS
  6
CONTINUOUS
 62
    30
 10
-153.5
 20
-153.5
 30
0.0
  0
POINT
  8
DEFPOINTS
  6
CONTINUOUS
 62
    30
 10
-179.5
 20
-156.5
 30
0.0
  0
POINT
  8
DEFPOINTS
  6
CONTINUOUS
 62
    30
 10
-179.5
 20
-474.17157177499769
 30
0.0
  0
LINE
  8
SIZE
  6
CONTINUOUS
 62
    30
 10
419.56998461385768
 20
-92.8181810668016
 30
0.0
 11
74.547086140105193
 21
-10.324687033128869
 31
0.0
  0
LINE
  8
SIZE
  6
CONTINUOUS
 62
    30
 10
-28.54708614010519
 20
14.324687033128811
 30
0.0
 11
-40.218124511449787
 21
17.11518221044102
 31
0.0
  0
TEXT
  8
SIZE
  6
CONTINUOUS
 62
    30
 10
255.68106067658829
 20
-27.928389107820511
 30
0.0
 40
64.0
  1
φ82
 50
346.55326706186412
 41
0.9
 72
     1
 11
330.37570625319358
 21
-45.78755824261853
 31
0.0
  0
LINE
  8
SIZE
  6
CONTINUOUS
 62
    30
 10
-16.8760477687606
 20
11.5341918558166
 30
0.0
 11
62.8760477687606
 21
-7.5341918558166583
 31
0.0
  0
CIRCLE
  8
SIZE
  6
CONTINUOUS
 62
    30
 10
-16.8760477687606
 20
11.5341918558166
 30
0.0
 40
6.0
  0
LINE
  8
SIZE
  6
CONTINUOUS
 62
    30
 10
-16.8760477687606
 20
11.5341918558166
 30
0.0
 11
-28.54708614010519
 21
14.324687033128811
 31
0.0
  0
CIRCLE
  8
SIZE
  6
CONTINUOUS
 62
    30
 10
62.8760477687606
 20
-7.5341918558166583
 30
0.0
 40
6.0
  0
LINE
  8
SIZE
  6
CONTINUOUS
 62
    30
 10
62.8760477687606
 20
-7.5341918558166583
 30
0.0
 11
74.547086140105193
 21
-10.324687033128869
 31
0.0
  0
POINT
  8
DEFPOINTS
  6
CONTINUOUS
 62
    30
 10
62.8760477687606
 20
-7.5341918558166583
 30
0.0
  0
POINT
  8
DEFPOINTS
  6
CONTINUOUS
 62
    30
 10
-16.8760477687606
 20
11.5341918558166
 30
0.0
  0
LINE
  8
SIZE
  6
CONTINUOUS
 62
    30
 10
-178.0
 20
-295.4999999999992
 30
0.0
 11
-454.71557739123909
 21
-295.49999999999909
 31
0.0
  0
LINE
  8
SIZE
  6
CONTINUOUS
 62
    30
 10
-142.00763950123559
 20
-341.54554870406997
 30
0.0
 11
-454.71557739123909
 21
-341.54554870406997
 31
0.0
  0
LINE
  8
SIZE
  6
CONTINUOUS
 62
    30
 10
-434.71557739123909
 20
-283.49999999999909
 30
0.0
 11
-434.71557739123909
 21
-271.49999999999909
 31
0.0
  0
LINE
  8
SIZE
  6
CONTINUOUS
 62
    30
 10
-434.71557739123909
 20
-353.54554870406997
 30
0.0
 11
-434.71557739123921
 21
-591.53983441835567
 31
0.0
  0
LINE
  8
SIZE
  6
CONTINUOUS
 62
    30
 10
-434.71557739123909
 20
-295.49999999999909
 30
0.0
 11
-434.71557739123909
 21
-341.54554870406997
 31
0.0
  0
CIRCLE
  8
SIZE
  6
CONTINUOUS
 62
    30
 10
-434.71557739123909
 20
-295.49999999999909
 30
0.0
 40
6.0
  0
LINE
  8
SIZE
  6
CONTINUOUS
 62
    30
 10
-434.71557739123909
 20
-295.49999999999909
 30
0.0
 11
-434.71557739123909
 21
-283.49999999999909
 31
0.0
  0
CIRCLE
  8
SIZE
  6
CONTINUOUS
 62
    30
 10
-434.71557739123909
 20
-341.54554870406997
 30
0.0
 40
6.0
  0
LINE
  8
SIZE
  6
CONTINUOUS
 62
    30
 10
-434.71557739123909
 20
-341.54554870406997
 30
0.0
 11
-434.71557739123909
 21
-353.54554870406997
 31
0.0
  0
TEXT
  8
SIZE
  6
CONTINUOUS
 62
    30
 10
-459.71557739123909
 20
-593.41983441835578
 30
0.0
 40
64.0
  1
（46）
 50
90.0
 41
0.9
 72
     1
 11
-459.71557739123909
 21
-479.04269156121291
 31
0.0
  0
POINT
  8
DEFPOINTS
  6
CONTINUOUS
 62
    30
 10
-158.0
 20
-295.4999999999992
 30
0.0
  0
POINT
  8
DEFPOINTS
  6
CONTINUOUS
 62
    30
 10
-122.0076395012356
 20
-341.54554870406997
 30
0.0
  0
POINT
  8
DEFPOINTS
  6
CONTINUOUS
 62
    30
 10
-434.71557739123909
 20
-341.54554870406997
 30
0.0
  0
ARC
  8
DETAIL
  6
DIVIDE
 62
     5
 10
-93.566710262984998
 20
-295.69945317337181
 30
0.0
 40
61.433613514755358
 50
179.81398058054489
 51
199.3870312222175
  0
ARC
  8
DETAIL
  6
DIVIDE
 62
     5
 10
-105.43330228521179
 20
-299.87227966888031
 30
0.0
 40
48.854723387499192
 50
199.39039584754761
 51
215.23646079412191
  0
ARC
  8
DETAIL
  6
DIVIDE
 62
     5
 10
-115.8364978562952
 20
-307.30717854410739
 30
0.0
 40
36.068110688870149
 50
215.1244451210878
 51
234.53723037236401
  0
ARC
  8
DETAIL
  6
DIVIDE
 62
     5
 10
-121.71577351376369
 20
-315.83739630250221
 30
0.0
 40
25.709809133035609
 50
234.1798074252107
 51
269.3495459879482
  0
ARC
  8
DETAIL
  6
DIVIDE
 62
     5
 10
-122.2995054895237
 20
-315.83739630250199
 30
0.0
 40
25.709809133035691
 50
270.6504540120518
 51
305.82019257478919
  0
ARC
  8
DETAIL
  6
DIVIDE
 62
     5
 10
-128.17878114699059
 20
-307.30717854410892
 30
0.0
 40
36.068110688867812
 50
305.46276962763602
 51
324.87555487891223
  0
ARC
  8
DETAIL
  6
DIVIDE
 62
     5
 10
-138.58197671807511
 20
-299.87227966888048
 30
0.0
 40
48.854723387498588
 50
324.76353920587809
 51
340.60960415245239
  0
ARC
  8
DETAIL
  6
DIVIDE
 62
     5
 10
-150.44856874030179
 20
-295.69945317337209
 30
0.0
 40
61.43361351475469
 50
340.6129687777825
 51
0.1860194194550952
  0
LINE
  8
SIZE
  6
CONTINUOUS
 62
    30
 10
210.5
 20
99.999999999999972
 30
0.0
 11
594.51525663248594
 21
99.999999999999858
 31
0.0
  0
LINE
  8
SIZE
  6
CONTINUOUS
 62
    30
 10
210.5
 20
-100.0
 30
0.0
 11
594.51525663248594
 21
-100.0000000000001
 31
0.0
  0
LINE
  8
SIZE
  6
CONTINUOUS
 62
    30
 10
574.51525663248594
 20
87.999999999999858
 30
0.0
 11
574.51525663248594
 21
-88.000000000000142
 31
0.0
  0
CIRCLE
  8
SIZE
  6
CONTINUOUS
 62
    30
 10
574.51525663248594
 20
99.999999999999858
 30
0.0
 40
6.0
  0
LINE
  8
SIZE
  6
CONTINUOUS
 62
    30
 10
574.51525663248594
 20
99.999999999999858
 30
0.0
 11
574.51525663248594
 21
87.999999999999858
 31
0.0
  0
CIRCLE
  8
SIZE
  6
CONTINUOUS
 62
    30
 10
574.51525663248594
 20
-100.0000000000001
 30
0.0
 40
6.0
  0
LINE
  8
SIZE
  6
CONTINUOUS
 62
    30
 10
574.51525663248594
 20
-100.0000000000001
 30
0.0
 11
574.51525663248594
 21
-88.000000000000142
 31
0.0
  0
TEXT
  8
SIZE
  6
CONTINUOUS
 62
    30
 10
549.51525663248594
 20
-74.057142857142878
 30
0.0
 40
64.0
  1
200
 50
90.0
 41
0.9
 72
     1
 11
549.51525663248594
 21
-0.0000000000000284
 31
0.0
  0
POINT
  8
DEFPOINTS
  6
CONTINUOUS
 62
    30
 10
190.5
 20
99.999999999999972
 30
0.0
  0
POINT
  8
DEFPOINTS
  6
CONTINUOUS
 62
    30
 10
190.5
 20
-100.0
 30
0.0
  0
POINT
  8
DEFPOINTS
  6
CONTINUOUS
 62
    30
 10
574.51525663248594
 20
-100.0000000000001
 30
0.0
  0
LINE
  8
OUTLINE
  6
CONTINUOUS
 62
     3
 10
-166.0
 20
-238.5
 30
0.0
 11
-166.0
 21
-162.54372699999999
 31
0.0
  0
LINE
  8
OUTLINE
  6
CONTINUOUS
 62
     3
 10
-6.0
 20
-238.5
 30
0.0
 11
-6.0
 21
-174.49999900000009
 31
0.0
  0
LINE
  8
OUTLINE
  6
CONTINUOUS
 62
     3
 10
-158.0
 20
-295.5
 30
0.0
 11
-14.0
 21
-295.5
 31
0.0
  0
LINE
  8
OUTLINE
  6
CONTINUOUS
 62
     3
 10
-166.0
 20
-238.5
 30
0.0
 11
-6.0
 21
-238.5
 31
0.0
  0
LINE
  8
OUTLINE
  6
CONTINUOUS
 62
     3
 10
-162.0
 20
-268.5
 30
0.0
 11
-10.0
 21
-268.5
 31
0.0
  0
LINE
  8
OUTLINE
  6
CONTINUOUS
 62
     3
 10
-162.0
 20
-268.5
 30
0.0
 11
-162.0
 21
-238.5
 31
0.0
  0
LINE
  8
OUTLINE
  6
CONTINUOUS
 62
     3
 10
-158.0
 20
-295.5
 30
0.0
 11
-158.0
 21
-268.5
 31
0.0
  0
LINE
  8
OUTLINE
  6
CONTINUOUS
 62
     3
 10
-10.0
 20
-268.5
 30
0.0
 11
-10.0
 21
-238.5
 31
0.0
  0
LINE
  8
OUTLINE
  6
CONTINUOUS
 62
     3
 10
-14.0
 20
-295.5
 30
0.0
 11
-14.0
 21
-268.5
 31
0.0
  0
TEXT
  8
ETC
  6
CONTINUOUS
 62
    61
 10
687.05162654142896
 20
734.07920067351824
 30
0.0
 40
64.0
  1
VD-18ZLXP13-IN_1
 41
0.9
  0
TEXT
  8
ETC
  6
CONTINUOUS
 62
    61
 10
682.86563254142857
 20
616.12389065868729
 30
0.0
 40
64.0
  1
換気扇
 41
0.9
  0
TEXT
  8
ETC
  6
CONTINUOUS
 62
    61
 10
733.19996104973609
 20
510.50022101714057
 30
0.0
 40
40.0
  1
VD-18ZLXP13-IN
 41
0.9
  0
TEXT
  8
ETC
  6
CONTINUOUS
 62
    61
 10
733.19996104973609
 20
444.50022101714057
 30
0.0
 40
40.0
  1
VD-18ZB13-IN
 41
0.9
  0
TEXT
  8
ETC
  6
CONTINUOUS
 62
    61
 10
733.19996104973609
 20
378.50022101714057
 30
0.0
 40
40.0
  1
VD-20ZLX13-IN
 41
0.9
  0
TEXT
  8
ETC
  6
CONTINUOUS
 62
    61
 10
733.19996104973609
 20
312.50022101714057
 30
0.0
 40
40.0
  1
VD-20ZB13-IN
 41
0.9
  0
ENDSEC
  0
EOF
