  0
SECTION
  2
HEADER
  9
$ACADVER
  1
AC1009
  9
$DWGCODEPAGE
  3
dos932
  9
$INSBASE
 10
0.0
 20
0.0
 30
0.0
  9
$EXTMIN
 10
-722.37852359234785
 20
-680.60301591246753
 30
-0.0015258207003583
  9
$EXTMAX
 10
1449.7421385251689
 20
791.15296235675123
 30
0.0000000349246037
  9
$LIMMIN
 10
-2970.0
 20
-2100.0
  9
$LIMMAX
 10
2970.0
 20
2100.0
  9
$ORTHOMODE
 70
     1
  9
$REGENMODE
 70
     1
  9
$FILLMODE
 70
     1
  9
$QTEXTMODE
 70
     0
  9
$MIRRTEXT
 70
     0
  9
$LTSCALE
 40
20.0
  9
$ATTMODE
 70
     1
  9
$TEXTSIZE
 40
64.0
  9
$TRACEWID
 40
0.05
  9
$TEXTSTYLE
  7
STANDARD
  9
$CLAYER
  8
SIZE
  9
$CELTYPE
  6
CONTINUOUS
  9
$CECOLOR
 62
     7
  9
$DIMSCALE
 40
1.0
  9
$DIMASZ
 40
12.0
  9
$DIMEXO
 40
20.0
  9
$DIMDLI
 40
200.0
  9
$DIMRND
 40
0.0
  9
$DIMDLE
 40
0.0
  9
$DIMEXE
 40
20.0
  9
$DIMTP
 40
0.0
  9
$DIMTM
 40
0.0
  9
$DIMTXT
 40
64.0
  9
$DIMCEN
 40
0.09
  9
$DIMTSZ
 40
0.0
  9
$DIMTOL
 70
     0
  9
$DIMLIM
 70
     0
  9
$DIMTIH
 70
     0
  9
$DIMTOH
 70
     0
  9
$DIMSE1
 70
     0
  9
$DIMSE2
 70
     0
  9
$DIMTAD
 70
     1
  9
$DIMZIN
 70
     8
  9
$DIMBLK
  1

  9
$DIMASO
 70
     1
  9
$DIMSHO
 70
     0
  9
$DIMPOST
  1

  9
$DIMAPOST
  1

  9
$DIMALT
 70
     0
  9
$DIMALTD
 70
     2
  9
$DIMALTF
 40
25.399999999999999
  9
$DIMLFAC
 40
1.0
  9
$DIMTOFL
 70
     1
  9
$DIMTVP
 40
0.0
  9
$DIMTIX
 70
     1
  9
$DIMSOXD
 70
     0
  9
$DIMSAH
 70
     0
  9
$DIMBLK1
  1

  9
$DIMBLK2
  1

  9
$DIMSTYLE
  2
STANDARD
  9
$DIMCLRD
 70
     7
  9
$DIMCLRE
 70
     7
  9
$DIMCLRT
 70
     7
  9
$DIMTFAC
 40
1.0
  9
$DIMGAP
 40
25.0
  9
$LUNITS
 70
     2
  9
$LUPREC
 70
     4
  9
$SKETCHINC
 40
0.1
  9
$FILLETRAD
 40
3.0
  9
$AUNITS
 70
     1
  9
$AUPREC
 70
     3
  9
$MENU
  1
ACAD
  9
$ELEVATION
 40
0.0
  9
$PELEVATION
 40
0.0
  9
$THICKNESS
 40
0.0
  9
$LIMCHECK
 70
     0
  9
$CHAMFERA
 40
0.0
  9
$CHAMFERB
 40
0.0
  9
$SKPOLY
 70
     0
  9
$TDCREATE
 40
2453019.62301037
  9
$TDUPDATE
 40
2459025.509281806
  9
$TDINDWG
 40
1.7131062616
  9
$TDUSRTIMER
 40
1.7131062616
  9
$USRTIMER
 70
     1
  9
$ANGBASE
 50
0.0
  9
$ANGDIR
 70
     0
  9
$PDMODE
 70
     3
  9
$PDSIZE
 40
-2.0
  9
$PLINEWID
 40
0.0
  9
$SPLFRAME
 70
     0
  9
$SPLINETYPE
 70
     6
  9
$SPLINESEGS
 70
     8
  9
$SURFTAB1
 70
     6
  9
$SURFTAB2
 70
     6
  9
$SURFTYPE
 70
     6
  9
$SURFU
 70
     6
  9
$SURFV
 70
     6
  9
$UCSNAME
  2

  9
$UCSORG
 10
0.0
 20
0.0
 30
0.0
  9
$UCSXDIR
 10
1.0
 20
0.0
 30
0.0
  9
$UCSYDIR
 10
0.0
 20
1.0
 30
0.0
  9
$PUCSNAME
  2

  9
$PUCSORG
 10
0.0
 20
0.0
 30
0.0
  9
$PUCSXDIR
 10
1.0
 20
0.0
 30
0.0
  9
$PUCSYDIR
 10
0.0
 20
1.0
 30
0.0
  9
$USERI1
 70
     0
  9
$USERI2
 70
     0
  9
$USERI3
 70
     0
  9
$USERI4
 70
     0
  9
$USERI5
 70
     0
  9
$USERR1
 40
20.0
  9
$USERR2
 40
0.0
  9
$USERR3
 40
0.0
  9
$USERR4
 40
0.0
  9
$USERR5
 40
0.0
  9
$WORLDVIEW
 70
     1
  9
$SHADEDGE
 70
     3
  9
$SHADEDIF
 70
    70
  9
$TILEMODE
 70
     1
  9
$MAXACTVP
 70
    48
  9
$PINSBASE
 10
0.0
 20
0.0
 30
0.0
  9
$PLIMCHECK
 70
     0
  9
$PEXTMIN
 10
-100000000000000000000.0
 20
-100000000000000000000.0
 30
-100000000000000000000.0
  9
$PEXTMAX
 10
100000000000000000000.0
 20
100000000000000000000.0
 30
100000000000000000000.0
  9
$PLIMMIN
 10
0.0
 20
0.0
  9
$PLIMMAX
 10
12.0
 20
9.0
  9
$UNITMODE
 70
     0
  9
$VISRETAIN
 70
     0
  9
$PLINEGEN
 70
     0
  9
$PSLTSCALE
 70
     0
  9
$TREEDEPTH
 70
  3020
  9
$ATTDIA
 70
     0
  9
$ATTREQ
 70
     1
  9
$BLIPMODE
 70
     1
  9
$COORDS
 70
     1
  9
$DRAGMODE
 70
     2
  9
$OSMODE
 70
     0
  9
$HANDLING
 70
     0
  9
$HANDSEED
  5
ED2E
  0
ENDSEC
  0
SECTION
  2
TABLES
  0
TABLE
  2
LTYPE
 70
     2
  0
LTYPE
  2
CONTINUOUS
 70
     0
  3
実線
 72
    65
 73
     0
 40
0.0
  0
LTYPE
  2
DASHDOT
 70
     0
  3
____ _ ____ _ ____ _ ____ _ ____ _ ____ _ ____
 72
    65
 73
     4
 40
5.5
 49
4.0
 49
-0.6
 49
0.3
 49
-0.6
  0
ENDTAB
  0
TABLE
  2
LAYER
 70
    12
  0
LAYER
  2
0
 70
     0
 62
     7
  6
CONTINUOUS
  0
LAYER
  2
BASIS
 70
     0
 62
     6
  6
DASHDOT
  0
LAYER
  2
OUTLINE
 70
     0
 62
     3
  6
CONTINUOUS
  0
LAYER
  2
DETAIL
 70
     0
 62
     5
  6
CONTINUOUS
  0
LAYER
  2
SIZE
 70
     0
 62
    30
  6
CONTINUOUS
  0
LAYER
  2
ARRANGE
 70
     0
 62
     1
  6
CONTINUOUS
  0
LAYER
  2
DEFPOINTS
 70
     0
 62
     7
  6
CONTINUOUS
  0
LAYER
  2
ETC
 70
     0
 62
    61
  6
CONTINUOUS
  0
LAYER
  2
FIX
 70
     0
 62
    11
  6
CONTINUOUS
  0
LAYER
  2
NOTE
 70
     0
 62
     4
  6
CONTINUOUS
  0
LAYER
  2
SERVICESPACE
 70
    64
 62
     2
  6
DASHDOT
  0
LAYER
  2
SYMBOLLINE
 70
    64
 62
    15
  6
CONTINUOUS
  0
ENDTAB
  0
TABLE
  2
STYLE
 70
     1
  0
STYLE
  2
STANDARD
 70
     0
 40
64.0
 41
0.9
 50
0.0
 71
     0
 42
64.0
  3
SIMPLEX.shx
  4
BIGFONT.shx
  0
ENDTAB
  0
TABLE
  2
APPID
 70
    19
  0
APPID
  2
ACAD
 70
     0
  0
APPID
  2
AUTOCAD_POSTSCRIPT_FIGURE
 70
     0
  0
APPID
  2
ACAD_EXEMPT_FROM_CAD_STANDARDS
 70
     0
  0
APPID
  2
ACAD_PSEXT
 70
     0
  0
APPID
  2
ACAUTHENVIRON
 70
     0
  0
APPID
  2
GENIUS_GENOENT_13
 70
     0
  0
APPID
  2
GENIUS_GENCFG_13
 70
     0
  0
APPID
  2
GENIUS_GENCFG0_13
 70
     0
  0
APPID
  2
GENIUS_GENCFG1_13
 70
     0
  0
APPID
  2
GENIUS_GENCFG2_13
 70
     0
  0
APPID
  2
GENIUS_GENCFG3_13
 70
     0
  0
APPID
  2
GENIUS_GENCFG4_13
 70
     0
  0
APPID
  2
GENIUS_GEVCFG0_13
 70
     0
  0
APPID
  2
CONTENTBLOCKICON
 70
     0
  0
APPID
  2
CONTENTBLOCKDESCRIPTION
 70
     0
  0
APPID
  2
ACAD_NAV_VCDISPLAY
 70
     0
  0
APPID
  2
ACAD_MLEADERVER
 70
     0
  0
APPID
  2
ACDBDYNAMICBLOCKTRUENAME
 70
     0
  0
APPID
  2
ACDBDYNAMICBLOCKGUID
 70
     0
  0
ENDTAB
  0
TABLE
  2
DIMSTYLE
 70
     1
  0
DIMSTYLE
  2
STANDARD
 70
     0
  3

  4

  5
_ORIGIN
  6

  7

 40
1.0
 41
12.0
 42
20.0
 43
200.0
 44
20.0
 45
0.0
 46
0.0
 47
0.0
 48
0.0
140
64.0
141
0.09
142
0.0
143
25.399999999999999
144
1.0
145
0.0
146
1.0
147
25.0
 71
     0
 72
     0
 73
     0
 74
     0
 75
     0
 76
     0
 77
     1
 78
     8
170
     0
171
     2
172
     1
173
     0
174
     1
175
     0
176
     7
177
     7
178
     7
  0
ENDTAB
  0
TABLE
  2
VIEW
 70
     1
  0
VIEW
  2
ALL
 70
     0
 40
4282.6198079999986
 10
0.0
 20
41.309904000000003
 41
5940.0
 11
0.0
 21
0.0
 31
1.0
 12
0.0
 22
0.0
 32
0.0
 42
50.0
 43
0.0
 44
0.0
 50
0.0
 71
     0
  0
ENDTAB
  0
TABLE
  2
UCS
 70
     0
  0
ENDTAB
  0
TABLE
  2
VPORT
 70
     1
  0
VPORT
  2
*ACTIVE
 70
     0
 10
0.0
 20
0.0
 11
1.0
 21
1.0
 12
363.6818074664107
 22
55.274973222141853
 13
0.0
 23
0.0
 14
1.0
 24
1.0
 15
0.0
 25
0.0
 16
0.0
 26
0.0
 36
1.0
 17
0.0
 27
0.0
 37
0.0
 40
1481.5134764676891
 41
1.747787610619469
 42
50.0
 43
0.0
 44
0.0
 50
0.0
 51
0.0
 71
     0
 72
  1000
 73
     1
 74
     3
 75
     0
 76
     0
 77
     0
 78
     0
  0
ENDTAB
  0
ENDSEC
  0
SECTION
  2
BLOCKS
  0
BLOCK
  8
0
  2
_ORIGIN
 70
     0
 10
0.0
 20
0.0
 30
0.0
  3
_ORIGIN
  1
_ORIGIN
  0
CIRCLE
  8
0
  6
CONTINUOUS
 62
     7
 10
0.0
 20
0.0
 30
0.0
 40
0.5
  0
LINE
  8
0
  6
CONTINUOUS
 62
     7
 10
0.0
 20
0.0
 30
0.0
 11
-1.0
 21
0.0
 31
0.0
  0
ENDBLK
  8
0
  0
ENDSEC
  0
SECTION
  2
ENTITIES
  0
POINT
  8
ARRANGE
  6
CONTINUOUS
 62
     1
 10
0.0
 20
0.0
 30
0.0
  0
LINE
  8
OUTLINE
  6
CONTINUOUS
 62
     3
 10
0.0
 20
0.0
 30
0.0
 11
165.0
 21
0.0
 31
0.0
  0
LINE
  8
OUTLINE
  6
CONTINUOUS
 62
     3
 10
0.0
 20
0.0
 30
0.0
 11
174.52739100000011
 21
0.0
 31
0.0
  0
LINE
  8
OUTLINE
  6
CONTINUOUS
 62
     3
 10
-153.5
 20
200.0
 30
0.0
 11
153.5
 21
200.0
 31
0.0
  0
CIRCLE
  8
ARRANGE
  6
CONTINUOUS
 62
     1
 10
0.0
 20
0.0
 30
0.0
 40
40.0
  0
LINE
  8
DETAIL
  6
CONTINUOUS
 62
     5
 10
0.0
 20
0.0
 30
0.0
 11
165.0
 21
0.0
 31
0.0
  0
LINE
  8
DETAIL
  6
CONTINUOUS
 62
     5
 10
0.0
 20
0.0
 30
0.0
 11
174.52739100000011
 21
0.0
 31
0.0
  0
TEXT
  8
SIZE
  6
CONTINUOUS
 62
    30
 10
-61.714285714285708
 20
645.39204526999538
 30
0.0
 40
64.0
  1
341
 41
0.9
 72
     1
 11
0.0
 21
645.39204526999538
 31
0.0
  0
LINE
  8
SIZE
  6
CONTINUOUS
 62
    30
 10
-158.5
 20
618.89823126999545
 30
0.0
 11
158.5
 21
618.89823126999545
 31
0.0
  0
LINE
  8
SIZE
  6
CONTINUOUS
 62
    30
 10
25.488842094833672
 20
243.0
 30
0.0
 11
671.46557800000028
 21
243.0
 31
0.0
  0
TEXT
  8
SIZE
  6
CONTINUOUS
 62
    30
 10
-74.05714285714285
 20
-508.35970790754641
 30
0.0
 40
64.0
  1
332
 41
0.9
 72
     1
 11
0.0
 21
-508.35970790754641
 31
0.0
  0
LINE
  8
SIZE
  6
CONTINUOUS
 62
    30
 10
-154.0
 20
-533.35970790754641
 30
0.0
 11
154.0
 21
-533.35970790754641
 31
0.0
  0
TEXT
  8
SIZE
  6
CONTINUOUS
 62
    30
 10
-110.5371428571429
 20
504.57597667891758
 30
0.0
 40
64.0
  1
□307
 41
0.9
 72
     1
 11
0.0
 21
504.57597667891758
 31
0.0
  0
LINE
  8
SIZE
  6
CONTINUOUS
 62
    30
 10
-141.5
 20
486.11024287581648
 30
0.0
 11
141.5
 21
486.11024287581648
 31
0.0
  0
TEXT
  8
SIZE
  6
CONTINUOUS
 62
    30
 10
-74.05714285714285
 20
-241.566506
 30
0.0
 40
64.0
  1
200
 41
0.9
 72
     1
 11
0.0
 21
-241.566506
 31
0.0
  0
LINE
  8
SIZE
  6
CONTINUOUS
 62
    30
 10
-88.0
 20
-266.566506
 30
0.0
 11
88.0
 21
-266.566506
 31
0.0
  0
LINE
  8
DETAIL
  6
CONTINUOUS
 62
     5
 10
-64.0
 20
213.0
 30
0.0
 11
18.0
 21
213.0
 31
0.0
  0
TEXT
  8
SIZE
  6
CONTINUOUS
 62
    30
 10
-109.9865624285715
 20
386.74753712714141
 30
0.0
 40
64.0
  1
φ82
 41
0.9
 72
     1
 11
-23.037991000000151
 21
386.74753712714141
 31
0.0
  0
LINE
  8
SIZE
  6
CONTINUOUS
 62
    30
 10
-52.037992000000031
 20
360.05638512714131
 30
0.0
 11
5.9620100000001912
 21
360.05638512714131
 31
0.0
  0
LINE
  8
DETAIL
  6
CONTINUOUS
 62
     5
 10
-153.5
 20
192.0
 30
0.0
 11
153.5
 21
192.0
 31
0.0
  0
LINE
  8
DETAIL
  6
CONTINUOUS
 62
     5
 10
-153.5
 20
200.0
 30
0.0
 11
153.5
 21
200.0
 31
0.0
  0
LINE
  8
DETAIL
  6
CONTINUOUS
 62
     5
 10
12.940000000000049
 20
240.9760839999999
 30
0.0
 11
-23.0
 21
240.9760839999999
 31
0.0
  0
LINE
  8
DETAIL
  6
CONTINUOUS
 62
     5
 10
-23.0
 20
243.0
 30
0.0
 11
6.4689530000000559
 21
243.0
 31
0.0
  0
LINE
  8
DETAIL
  6
CONTINUOUS
 62
     5
 10
-81.0
 20
208.0
 30
0.0
 11
35.0
 21
208.0
 31
0.0
  0
LINE
  8
OUTLINE
  6
CONTINUOUS
 62
     3
 10
-153.5
 20
0.0
 30
0.0
 11
-153.5
 21
200.0
 31
0.0
  0
LINE
  8
NOTE
  6
CONTINUOUS
 62
     4
 10
-166.0
 20
-20.0
 30
0.0
 11
-166.0
 21
20.0
 31
0.0
  0
CIRCLE
  8
FIX
  6
CONTINUOUS
 62
    11
 10
-166.0
 20
0.0
 30
0.0
 40
2.5
  0
LINE
  8
NOTE
  6
CONTINUOUS
 62
     4
 10
-100.0
 20
-20.0
 30
0.0
 11
-100.0
 21
20.0
 31
0.0
  0
CIRCLE
  8
FIX
  6
CONTINUOUS
 62
    11
 10
-100.0
 20
0.0
 30
0.0
 40
2.5
  0
LINE
  8
DETAIL
  6
CONTINUOUS
 62
     5
 10
-153.5
 20
0.0
 30
0.0
 11
-153.5
 21
207.0
 31
0.0
  0
LINE
  8
BASIS
  6
DASHDOT
 62
     6
 10
0.0
 20
-97.023928999999953
 30
0.0
 11
0.0
 21
291.47948300000007
 31
0.0
  0
LINE
  8
NOTE
  6
CONTINUOUS
 62
     4
 10
-329.9604332377246
 20
-151.1843884777534
 30
0.0
 11
-722.33296523772447
 21
-151.1843884777534
 31
0.0
  0
TEXT
  8
NOTE
  6
CONTINUOUS
 62
     4
 10
-709.09105023772463
 20
-118.2201184777533
 30
0.0
 40
64.0
  1
8-φ5×8
 41
0.9
  0
LINE
  8
SIZE
  6
CONTINUOUS
 62
    30
 10
-166.0
 20
-40.0
 30
0.0
 11
-166.0
 21
-553.35970790754641
 31
0.0
  0
LINE
  8
SIZE
  6
CONTINUOUS
 62
    30
 10
-153.5
 20
225.80674384111131
 30
0.0
 11
-153.5
 21
506.11024287581648
 31
0.0
  0
LINE
  8
SIZE
  6
CONTINUOUS
 62
    30
 10
-166.0
 20
-533.35970790754641
 30
0.0
 11
-154.0
 21
-533.35970790754641
 31
0.0
  0
CIRCLE
  8
SIZE
  6
CONTINUOUS
 62
    30
 10
-166.0
 20
-533.35970790754641
 30
0.0
 40
6.0
  0
CIRCLE
  8
SIZE
  6
CONTINUOUS
 62
    30
 10
-153.5
 20
486.11024287581648
 30
0.0
 40
6.0
  0
LINE
  8
SIZE
  6
CONTINUOUS
 62
    30
 10
-153.5
 20
486.11024287581648
 30
0.0
 11
-141.5
 21
486.11024287581648
 31
0.0
  0
LINE
  8
NOTE
  6
CONTINUOUS
 62
     4
 10
-166.00596700000011
 20
-0.0577739999999949
 30
0.0
 11
-331.86620540786907
 21
-151.1843884777534
 31
0.0
  0
LINE
  8
SIZE
  6
CONTINUOUS
 62
    30
 10
-100.0
 20
-40.0
 30
0.0
 11
-100.0
 21
-286.566506
 31
0.0
  0
LINE
  8
SIZE
  6
CONTINUOUS
 62
    30
 10
-100.0
 20
-266.566506
 30
0.0
 11
-88.0
 21
-266.566506
 31
0.0
  0
CIRCLE
  8
SIZE
  6
CONTINUOUS
 62
    30
 10
-100.0
 20
-266.566506
 30
0.0
 40
6.0
  0
LINE
  8
OUTLINE
  6
CONTINUOUS
 62
     3
 10
0.0
 20
0.0
 30
0.0
 11
-165.0
 21
0.0
 31
0.0
  0
LINE
  8
OUTLINE
  6
CONTINUOUS
 62
     3
 10
0.0
 20
0.0
 30
0.0
 11
-174.47260899999989
 21
0.0
 31
0.0
  0
LINE
  8
DETAIL
  6
CONTINUOUS
 62
     5
 10
0.0
 20
0.0
 30
0.0
 11
-165.0
 21
0.0
 31
0.0
  0
LINE
  8
DETAIL
  6
CONTINUOUS
 62
     5
 10
0.0
 20
0.0
 30
0.0
 11
-174.47260899999989
 21
0.0
 31
0.0
  0
LINE
  8
NOTE
  6
CONTINUOUS
 62
     4
 10
-80.0
 20
0.0
 30
0.0
 11
-120.0
 21
0.0
 31
0.0
  0
LINE
  8
NOTE
  6
CONTINUOUS
 62
     4
 10
-165.98195899999999
 20
-0.0089269999999715
 30
0.0
 11
-201.76307300000011
 21
-17.889415999999979
 31
0.0
  0
LINE
  8
NOTE
  6
CONTINUOUS
 62
     4
 10
-188.02906800000011
 20
-33.384442000000043
 30
0.0
 11
-165.98195899999999
 21
-0.0089269999999715
 31
0.0
  0
LINE
  8
NOTE
  6
CONTINUOUS
 62
     4
 10
-146.0
 20
0.0
 30
0.0
 11
-186.0
 21
0.0
 31
0.0
  0
LINE
  8
DETAIL
  6
CONTINUOUS
 62
     5
 10
-174.47260899999989
 20
0.0
 30
0.0
 11
-174.47260899999989
 21
-1.0
 31
0.0
  0
CIRCLE
  8
SIZE
  6
CONTINUOUS
 62
    30
 10
-170.5
 20
618.89823126999545
 30
0.0
 40
6.0
  0
LINE
  8
SIZE
  6
CONTINUOUS
 62
    30
 10
-170.5
 20
248.0
 30
0.0
 11
-170.5
 21
638.89823126999545
 31
0.0
  0
TEXT
  8
NOTE
  6
CONTINUOUS
 62
     4
 10
-342.03078404804
 20
278.88622064738479
 30
0.0
 40
64.0
  1
EL
 41
0.9
  0
LINE
  8
NOTE
  6
CONTINUOUS
 62
     4
 10
-234.4790440480399
 20
255.67462464738489
 30
0.0
 11
-356.2428170480398
 21
255.67462464738489
 31
0.0
  0
LINE
  8
SIZE
  6
CONTINUOUS
 62
    30
 10
-64.037992000000031
 20
253.33999999999989
 30
0.0
 11
-64.037992000000031
 21
380.05638512714131
 31
0.0
  0
LINE
  8
NOTE
  6
CONTINUOUS
 62
     4
 10
-130.0
 20
200.0
 30
0.0
 11
-234.4790440480399
 21
255.67462464738489
 31
0.0
  0
LINE
  8
DETAIL
  6
CONTINUOUS
 62
     5
 10
-158.75
 20
203.5
 30
0.0
 11
-158.75
 21
7.0
 31
0.0
  0
LINE
  8
DETAIL
  6
CONTINUOUS
 62
     5
 10
-155.25
 20
207.0
 30
0.0
 11
-155.25
 21
7.0
 31
0.0
  0
LINE
  8
DETAIL
  6
CONTINUOUS
 62
     5
 10
-158.75
 20
7.0
 30
0.0
 11
-153.5
 21
7.0
 31
0.0
  0
LINE
  8
NOTE
  6
CONTINUOUS
 62
     4
 10
-110.0
 20
200.0
 30
0.0
 11
-150.0
 21
200.0
 31
0.0
  0
CIRCLE
  8
FIX
  6
CONTINUOUS
 62
    11
 10
-170.5
 20
207.0
 30
0.0
 40
7.5
  0
LINE
  8
NOTE
  6
CONTINUOUS
 62
     4
 10
-150.5
 20
207.0
 30
0.0
 11
-190.5
 21
207.0
 31
0.0
  0
LINE
  8
DETAIL
  6
CONTINUOUS
 62
     5
 10
-185.75
 20
203.5
 30
0.0
 11
-158.75
 21
203.5
 31
0.0
  0
LINE
  8
DETAIL
  6
CONTINUOUS
 62
     5
 10
-185.75
 20
207.0
 30
0.0
 11
-153.5
 21
207.0
 31
0.0
  0
LINE
  8
DETAIL
  6
CONTINUOUS
 62
     5
 10
-185.75
 20
207.0
 30
0.0
 11
-185.75
 21
203.5
 31
0.0
  0
LINE
  8
DETAIL
  6
CONTINUOUS
 62
     5
 10
-153.5
 20
200.0
 30
0.0
 11
-153.5
 21
207.0
 31
0.0
  0
LINE
  8
NOTE
  6
CONTINUOUS
 62
     4
 10
-130.0
 20
200.0
 30
0.0
 11
-169.02556700000011
 21
207.77525700000001
 31
0.0
  0
LINE
  8
NOTE
  6
CONTINUOUS
 62
     4
 10
-159.40950299999989
 20
227.11237899999989
 30
0.0
 11
-130.0
 21
200.0
 31
0.0
  0
LINE
  8
NOTE
  6
CONTINUOUS
 62
     4
 10
-130.0
 20
180.0
 30
0.0
 11
-130.0
 21
220.0
 31
0.0
  0
LINE
  8
NOTE
  6
CONTINUOUS
 62
     4
 10
-170.5
 20
188.0
 30
0.0
 11
-170.5
 21
228.0
 31
0.0
  0
LINE
  8
BASIS
  6
DASHDOT
 62
     6
 10
-23.0
 20
173.87266099999999
 30
0.0
 11
-23.0
 21
265.8884149999999
 31
0.0
  0
LINE
  8
DETAIL
  6
CONTINUOUS
 62
     5
 10
-58.940000000000047
 20
240.9760839999999
 30
0.0
 11
-23.0
 21
240.9760839999999
 31
0.0
  0
LINE
  8
DETAIL
  6
CONTINUOUS
 62
     5
 10
-81.0
 20
208.0
 30
0.0
 11
-87.394960000000083
 21
200.0
 31
0.0
  0
LINE
  8
DETAIL
  6
CONTINUOUS
 62
     5
 10
-64.0
 20
208.0
 30
0.0
 11
-64.0
 21
235.91609799999989
 31
0.0
  0
ARC
  8
DETAIL
  6
CONTINUOUS
 62
     5
 10
-58.940000000000047
 20
235.91609799999989
 30
0.0
 40
5.0600019999999999
 50
90.0
 51
179.9999989999921
  0
LINE
  8
DETAIL
  6
CONTINUOUS
 62
     5
 10
-53.637470000000121
 20
240.9760839999999
 30
0.0
 11
-52.468961999999919
 21
242.99998600000001
 31
0.0
  0
LINE
  8
DETAIL
  6
CONTINUOUS
 62
     5
 10
-23.0
 20
243.0
 30
0.0
 11
-52.468953000000063
 21
243.0
 31
0.0
  0
LINE
  8
DETAIL
  6
CONTINUOUS
 62
     5
 10
-23.0
 20
243.0
 30
0.0
 11
-0.9200000000000728
 21
243.0
 31
0.0
  0
LINE
  8
DETAIL
  6
CONTINUOUS
 62
     5
 10
-0.9200000000000728
 20
240.9760839999999
 30
0.0
 11
-23.0
 21
240.9760839999999
 31
0.0
  0
LINE
  8
SIZE
  6
CONTINUOUS
 62
    30
 10
-64.037992000000031
 20
360.05638512714131
 30
0.0
 11
-52.037992000000031
 21
360.05638512714131
 31
0.0
  0
CIRCLE
  8
SIZE
  6
CONTINUOUS
 62
    30
 10
-64.037992000000031
 20
360.05638512714131
 30
0.0
 40
6.0
  0
LINE
  8
SIZE
  6
CONTINUOUS
 62
    30
 10
-170.5
 20
618.89823126999545
 30
0.0
 11
-158.5
 21
618.89823126999545
 31
0.0
  0
LINE
  8
OUTLINE
  6
CONTINUOUS
 62
     3
 10
153.5
 20
0.0
 30
0.0
 11
153.5
 21
200.0
 31
0.0
  0
LINE
  8
DETAIL
  6
CONTINUOUS
 62
     5
 10
153.5
 20
0.0
 30
0.0
 11
153.5
 21
207.0
 31
0.0
  0
LINE
  8
SIZE
  6
CONTINUOUS
 62
    30
 10
651.46557800000028
 20
0.0
 30
0.0
 11
651.46557800000028
 21
12.0
 31
0.0
  0
CIRCLE
  8
SIZE
  6
CONTINUOUS
 62
    30
 10
651.46557800000028
 20
0.0
 30
0.0
 40
6.0
  0
LINE
  8
SIZE
  6
CONTINUOUS
 62
    30
 10
651.46557800000028
 20
0.0
 30
0.0
 11
651.46557800000028
 21
12.0
 31
0.0
  0
CIRCLE
  8
SIZE
  6
CONTINUOUS
 62
    30
 10
651.46557800000028
 20
0.0
 30
0.0
 40
6.0
  0
CIRCLE
  8
FIX
  6
CONTINUOUS
 62
    11
 10
166.0
 20
0.0
 30
0.0
 40
2.5
  0
LINE
  8
NOTE
  6
CONTINUOUS
 62
     4
 10
166.0
 20
-20.0
 30
0.0
 11
166.0
 21
20.0
 31
0.0
  0
CIRCLE
  8
FIX
  6
CONTINUOUS
 62
    11
 10
100.0
 20
0.0
 30
0.0
 40
2.5
  0
LINE
  8
NOTE
  6
CONTINUOUS
 62
     4
 10
100.0
 20
-20.0
 30
0.0
 11
100.0
 21
20.0
 31
0.0
  0
LINE
  8
SIZE
  6
CONTINUOUS
 62
    30
 10
210.02739100000011
 20
0.0
 30
0.0
 11
671.46557800000028
 21
0.0
 31
0.0
  0
LINE
  8
SIZE
  6
CONTINUOUS
 62
    30
 10
166.0
 20
-40.0
 30
0.0
 11
166.0
 21
-553.35970790754641
 31
0.0
  0
LINE
  8
SIZE
  6
CONTINUOUS
 62
    30
 10
153.5
 20
219.08697226347749
 30
0.0
 11
153.5
 21
506.11024287581648
 31
0.0
  0
LINE
  8
SIZE
  6
CONTINUOUS
 62
    30
 10
166.0
 20
-533.35970790754641
 30
0.0
 11
154.0
 21
-533.35970790754641
 31
0.0
  0
CIRCLE
  8
SIZE
  6
CONTINUOUS
 62
    30
 10
166.0
 20
-533.35970790754641
 30
0.0
 40
6.0
  0
CIRCLE
  8
SIZE
  6
CONTINUOUS
 62
    30
 10
153.5
 20
486.11024287581648
 30
0.0
 40
6.0
  0
LINE
  8
SIZE
  6
CONTINUOUS
 62
    30
 10
153.5
 20
486.11024287581648
 30
0.0
 11
141.5
 21
486.11024287581648
 31
0.0
  0
LINE
  8
SIZE
  6
CONTINUOUS
 62
    30
 10
100.0
 20
-40.0
 30
0.0
 11
100.0
 21
-286.566506
 31
0.0
  0
LINE
  8
SIZE
  6
CONTINUOUS
 62
    30
 10
100.0
 20
-266.566506
 30
0.0
 11
88.0
 21
-266.566506
 31
0.0
  0
CIRCLE
  8
SIZE
  6
CONTINUOUS
 62
    30
 10
100.0
 20
-266.566506
 30
0.0
 40
6.0
  0
LINE
  8
NOTE
  6
CONTINUOUS
 62
     4
 10
80.0
 20
0.0
 30
0.0
 11
120.0
 21
0.0
 31
0.0
  0
LINE
  8
NOTE
  6
CONTINUOUS
 62
     4
 10
146.0
 20
0.0
 30
0.0
 11
186.0
 21
0.0
 31
0.0
  0
LINE
  8
DETAIL
  6
CONTINUOUS
 62
     5
 10
174.52739100000011
 20
0.0
 30
0.0
 11
174.52739100000011
 21
-1.0
 31
0.0
  0
LINE
  8
NOTE
  6
CONTINUOUS
 62
     4
 10
484.26958742639363
 20
290.6964002035952
 30
0.0
 11
247.54329217972369
 21
290.6964002035952
 31
0.0
  0
TEXT
  8
NOTE
  6
CONTINUOUS
 62
     4
 10
266.18136917972379
 20
332.00140720359542
 30
0.0
 40
64.0
  1
AH 4
 41
0.9
  0
CIRCLE
  8
SIZE
  6
CONTINUOUS
 62
    30
 10
170.5
 20
618.89823126999545
 30
0.0
 40
6.0
  0
LINE
  8
SIZE
  6
CONTINUOUS
 62
    30
 10
170.5
 20
248.0
 30
0.0
 11
170.5
 21
638.89823126999545
 31
0.0
  0
LINE
  8
NOTE
  6
CONTINUOUS
 62
     4
 10
170.52254300000001
 20
207.00085100000001
 30
0.0
 11
247.54329217972369
 21
290.6964002035952
 31
0.0
  0
LINE
  8
SIZE
  6
CONTINUOUS
 62
    30
 10
17.962010000000191
 20
253.33999999999989
 30
0.0
 11
17.962010000000191
 21
380.05638512714131
 31
0.0
  0
LINE
  8
DETAIL
  6
CONTINUOUS
 62
     5
 10
158.75
 20
203.5
 30
0.0
 11
158.75
 21
7.0
 31
0.0
  0
LINE
  8
DETAIL
  6
CONTINUOUS
 62
     5
 10
155.25
 20
207.0
 30
0.0
 11
155.25
 21
7.0
 31
0.0
  0
LINE
  8
DETAIL
  6
CONTINUOUS
 62
     5
 10
179.5
 20
71.997334000000023
 30
0.0
 11
179.5
 21
203.5
 31
0.0
  0
ARC
  8
DETAIL
  6
CONTINUOUS
 62
     5
 10
157.70935300000019
 20
71.716103999999973
 30
0.0
 40
21.792462
 50
274.71320499999518
 51
0.7394170000012316
  0
LINE
  8
DETAIL
  6
CONTINUOUS
 62
     5
 10
158.75
 20
7.0
 30
0.0
 11
153.5
 21
7.0
 31
0.0
  0
LINE
  8
DETAIL
  6
CONTINUOUS
 62
     5
 10
160.5
 20
49.997334000000023
 30
0.0
 11
158.75
 21
49.997334000000023
 31
0.0
  0
LINE
  8
DETAIL
  6
CONTINUOUS
 62
     5
 10
18.0
 20
229.0
 30
0.0
 11
160.5
 21
229.0
 31
0.0
  0
LINE
  8
DETAIL
  6
CONTINUOUS
 62
     5
 10
35.0
 20
208.0
 30
0.0
 11
41.394960000000083
 21
200.0
 31
0.0
  0
LINE
  8
DETAIL
  6
CONTINUOUS
 62
     5
 10
18.0
 20
208.0
 30
0.0
 11
18.0
 21
235.920312
 31
0.0
  0
ARC
  8
DETAIL
  6
CONTINUOUS
 62
     5
 10
12.940000000000049
 20
235.91609799999989
 30
0.0
 40
5.0600019999999999
 50
0.0000009999948896
 51
90.0
  0
LINE
  8
DETAIL
  6
CONTINUOUS
 62
     5
 10
7.6374700000001212
 20
240.9760839999999
 30
0.0
 11
6.4689619999999186
 21
242.99998600000001
 31
0.0
  0
LINE
  8
DETAIL
  6
CONTINUOUS
 62
     5
 10
185.75
 20
203.5
 30
0.0
 11
158.75
 21
203.5
 31
0.0
  0
LINE
  8
DETAIL
  6
CONTINUOUS
 62
     5
 10
185.75
 20
207.0
 30
0.0
 11
153.5
 21
207.0
 31
0.0
  0
LINE
  8
NOTE
  6
CONTINUOUS
 62
     4
 10
170.52254300000001
 20
207.00085100000001
 30
0.0
 11
190.3833359999999
 21
242.72186600000009
 31
0.0
  0
LINE
  8
NOTE
  6
CONTINUOUS
 62
     4
 10
205.08300199999991
 20
228.139735
 30
0.0
 11
170.52254300000001
 21
207.00085100000001
 31
0.0
  0
ARC
  8
DETAIL
  6
CONTINUOUS
 62
     5
 10
156.731765
 20
206.40290400000001
 30
0.0
 40
22.766024999999999
 50
1.502898000004822
 51
83.015835000001132
  0
CIRCLE
  8
FIX
  6
CONTINUOUS
 62
    11
 10
170.5
 20
207.0
 30
0.0
 40
7.5
  0
LINE
  8
NOTE
  6
CONTINUOUS
 62
     4
 10
150.5
 20
207.0
 30
0.0
 11
190.5
 21
207.0
 31
0.0
  0
LINE
  8
DETAIL
  6
CONTINUOUS
 62
     5
 10
153.5
 20
200.0
 30
0.0
 11
153.5
 21
207.0
 31
0.0
  0
LINE
  8
NOTE
  6
CONTINUOUS
 62
     4
 10
170.5
 20
188.0
 30
0.0
 11
170.5
 21
228.0
 31
0.0
  0
LINE
  8
DETAIL
  6
CONTINUOUS
 62
     5
 10
185.75
 20
207.0
 30
0.0
 11
185.75
 21
203.5
 31
0.0
  0
LINE
  8
SIZE
  6
CONTINUOUS
 62
    30
 10
17.962010000000191
 20
360.05638512714131
 30
0.0
 11
5.9620100000001912
 21
360.05638512714131
 31
0.0
  0
CIRCLE
  8
SIZE
  6
CONTINUOUS
 62
    30
 10
17.962010000000191
 20
360.05638512714131
 30
0.0
 40
6.0
  0
TEXT
  8
SIZE
  6
CONTINUOUS
 62
    30
 10
631.28304600000001
 20
47.44285714285715
 30
0.0
 40
64.0
  1
243
 50
90.0
 41
0.9
 72
     1
 11
631.28304600000001
 21
121.5
 31
0.0
  0
LINE
  8
SIZE
  6
CONTINUOUS
 62
    30
 10
651.46557800000028
 20
12.0
 30
0.0
 11
651.46557800000028
 21
231.0
 31
0.0
  0
LINE
  8
SIZE
  6
CONTINUOUS
 62
    30
 10
651.46557800000028
 20
12.0
 30
0.0
 11
651.46557800000028
 21
24.0
 31
0.0
  0
CIRCLE
  8
SIZE
  6
CONTINUOUS
 62
    30
 10
651.46557800000028
 20
243.0
 30
0.0
 40
6.0
  0
LINE
  8
SIZE
  6
CONTINUOUS
 62
    30
 10
651.46557800000028
 20
243.0
 30
0.0
 11
651.46557800000028
 21
231.0
 31
0.0
  0
LINE
  8
SIZE
  6
CONTINUOUS
 62
    30
 10
170.5
 20
618.89823126999545
 30
0.0
 11
158.5
 21
618.89823126999545
 31
0.0
  0
LINE
  8
SIZE
  6
CONTINUOUS
 62
    30
 10
153.5
 20
295.49733400000002
 30
0.0
 11
153.5
 21
506.11024287581648
 31
0.0
  0
LINE
  8
SIZE
  6
CONTINUOUS
 62
    30
 10
179.5
 20
223.5
 30
0.0
 11
179.5
 21
506.11024287581648
 31
0.0
  0
LINE
  8
SIZE
  6
CONTINUOUS
 62
    30
 10
141.5
 20
486.11024287581648
 30
0.0
 11
129.5
 21
486.11024287581648
 31
0.0
  0
LINE
  8
SIZE
  6
CONTINUOUS
 62
    30
 10
191.5
 20
486.11024287581648
 30
0.0
 11
344.01428600000008
 21
486.11024287581648
 31
0.0
  0
LINE
  8
SIZE
  6
CONTINUOUS
 62
    30
 10
153.5
 20
486.11024287581648
 30
0.0
 11
179.5
 21
486.11024287581648
 31
0.0
  0
CIRCLE
  8
SIZE
  6
CONTINUOUS
 62
    30
 10
153.5
 20
486.11024287581648
 30
0.0
 40
6.0
  0
LINE
  8
SIZE
  6
CONTINUOUS
 62
    30
 10
153.5
 20
486.11024287581648
 30
0.0
 11
141.5
 21
486.11024287581648
 31
0.0
  0
CIRCLE
  8
SIZE
  6
CONTINUOUS
 62
    30
 10
179.5
 20
486.11024287581648
 30
0.0
 40
6.0
  0
LINE
  8
SIZE
  6
CONTINUOUS
 62
    30
 10
179.5
 20
486.11024287581648
 30
0.0
 11
191.5
 21
486.11024287581648
 31
0.0
  0
TEXT
  8
SIZE
  6
CONTINUOUS
 62
    30
 10
228.50000014285689
 20
511.61972358809322
 30
0.0
 40
64.0
  1
26
 41
0.9
 72
     1
 11
273.75714299999981
 21
511.61972358809322
 31
0.0
  0
POINT
  8
DEFPOINTS
  6
CONTINUOUS
 62
    30
 10
153.5
 20
0.0
 30
0.0
  0
POINT
  8
DEFPOINTS
  6
CONTINUOUS
 62
    30
 10
179.5
 20
71.997334000000023
 30
0.0
  0
POINT
  8
DEFPOINTS
  6
CONTINUOUS
 62
    30
 10
179.5
 20
486.11024287581648
 30
0.0
  0
LINE
  8
SIZE
  6
CONTINUOUS
 62
    30
 10
-205.75
 20
207.0
 30
0.0
 11
-326.04675800000001
 21
207.0
 31
0.0
  0
LINE
  8
SIZE
  6
CONTINUOUS
 62
    30
 10
-193.7602710000001
 20
0.0
 30
0.0
 11
-326.04675800000001
 21
0.0
 31
0.0
  0
LINE
  8
SIZE
  6
CONTINUOUS
 62
    30
 10
-306.04675800000001
 20
195.0
 30
0.0
 11
-306.04675800000001
 21
12.0
 31
0.0
  0
CIRCLE
  8
SIZE
  6
CONTINUOUS
 62
    30
 10
-306.04675800000001
 20
207.0
 30
0.0
 40
6.0
  0
LINE
  8
SIZE
  6
CONTINUOUS
 62
    30
 10
-306.04675800000001
 20
207.0
 30
0.0
 11
-306.04675800000001
 21
195.0
 31
0.0
  0
CIRCLE
  8
SIZE
  6
CONTINUOUS
 62
    30
 10
-306.04675800000001
 20
0.0
 30
0.0
 40
6.0
  0
LINE
  8
SIZE
  6
CONTINUOUS
 62
    30
 10
-306.04675800000001
 20
0.0
 30
0.0
 11
-306.04675800000001
 21
12.0
 31
0.0
  0
TEXT
  8
SIZE
  6
CONTINUOUS
 62
    30
 10
-331.04675800000001
 20
29.44285714285715
 30
0.0
 40
64.0
  1
207
 50
90.0
 41
0.9
 72
     1
 11
-331.04675800000001
 21
103.5
 31
0.0
  0
POINT
  8
DEFPOINTS
  6
CONTINUOUS
 62
    30
 10
-185.75
 20
207.0
 30
0.0
  0
POINT
  8
DEFPOINTS
  6
CONTINUOUS
 62
    30
 10
-173.7602710000001
 20
0.0
 30
0.0
  0
POINT
  8
DEFPOINTS
  6
CONTINUOUS
 62
    30
 10
-306.04675800000001
 20
0.0
 30
0.0
  0
LINE
  8
SIZE
  6
CONTINUOUS
 62
    30
 10
194.52739100000011
 20
0.0
 30
0.0
 11
514.362302
 21
0.0
 31
0.0
  0
LINE
  8
SIZE
  6
CONTINUOUS
 62
    30
 10
178.75
 20
49.997334000000023
 30
0.0
 11
514.362302
 21
49.997334000000023
 31
0.0
  0
LINE
  8
SIZE
  6
CONTINUOUS
 62
    30
 10
494.362302
 20
-12.0
 30
0.0
 11
494.362302
 21
-24.0
 31
0.0
  0
LINE
  8
SIZE
  6
CONTINUOUS
 62
    30
 10
494.362302
 20
61.997334000000023
 30
0.0
 11
494.362302
 21
-183.09309060126131
 31
0.0
  0
LINE
  8
SIZE
  6
CONTINUOUS
 62
    30
 10
494.362302
 20
0.0
 30
0.0
 11
494.362302
 21
49.997334000000023
 31
0.0
  0
CIRCLE
  8
SIZE
  6
CONTINUOUS
 62
    30
 10
494.362302
 20
0.0
 30
0.0
 40
6.0
  0
LINE
  8
SIZE
  6
CONTINUOUS
 62
    30
 10
494.362302
 20
0.0
 30
0.0
 11
494.362302
 21
-12.0
 31
0.0
  0
CIRCLE
  8
SIZE
  6
CONTINUOUS
 62
    30
 10
494.362302
 20
49.997334000000023
 30
0.0
 40
6.0
  0
LINE
  8
SIZE
  6
CONTINUOUS
 62
    30
 10
494.362302
 20
49.997334000000023
 30
0.0
 11
494.362302
 21
61.997334000000023
 31
0.0
  0
TEXT
  8
SIZE
  6
CONTINUOUS
 62
    30
 10
469.362302
 20
-135.66926741096361
 30
0.0
 40
64.0
  1
50
 50
90.0
 41
0.9
 72
     1
 11
469.362302
 21
-89.040695982392208
 31
0.0
  0
POINT
  8
DEFPOINTS
  6
CONTINUOUS
 62
    30
 10
174.52739100000011
 20
0.0
 30
0.0
  0
POINT
  8
DEFPOINTS
  6
CONTINUOUS
 62
    30
 10
158.75
 20
49.997334000000023
 30
0.0
  0
POINT
  8
DEFPOINTS
  6
CONTINUOUS
 62
    30
 10
494.362302
 20
49.997334000000023
 30
0.0
  0
LINE
  8
DETAIL
  6
CONTINUOUS
 62
     5
 10
156.5
 20
28.0
 30
0.0
 11
156.5
 21
8.0
 31
0.0
  0
LINE
  8
DETAIL
  6
CONTINUOUS
 62
     5
 10
153.5
 20
8.0
 30
0.0
 11
156.5
 21
8.0
 31
0.0
  0
LINE
  8
DETAIL
  6
CONTINUOUS
 62
     5
 10
153.5
 20
28.0
 30
0.0
 11
156.5
 21
28.0
 31
0.0
  0
LINE
  8
DETAIL
  6
CONTINUOUS
 62
     5
 10
-156.5
 20
28.0
 30
0.0
 11
-156.5
 21
8.0
 31
0.0
  0
LINE
  8
DETAIL
  6
CONTINUOUS
 62
     5
 10
-153.5
 20
8.0
 30
0.0
 11
-156.5
 21
8.0
 31
0.0
  0
LINE
  8
DETAIL
  6
CONTINUOUS
 62
     5
 10
-153.5
 20
28.0
 30
0.0
 11
-156.5
 21
28.0
 31
0.0
  0
LINE
  8
SIZE
  6
CONTINUOUS
 62
    30
 10
-156.5
 20
-10.365232754374119
 30
0.0
 11
-156.5
 21
-427.70412943139718
 31
0.0
  0
LINE
  8
SIZE
  6
CONTINUOUS
 62
    30
 10
156.5
 20
-12.032472454975959
 30
0.0
 11
156.5
 21
-427.70412943139718
 31
0.0
  0
LINE
  8
SIZE
  6
CONTINUOUS
 62
    30
 10
-144.5
 20
-407.70412943139718
 30
0.0
 11
144.5
 21
-407.70412943139718
 31
0.0
  0
CIRCLE
  8
SIZE
  6
CONTINUOUS
 62
    30
 10
-156.5
 20
-407.70412943139718
 30
0.0
 40
6.0
  0
LINE
  8
SIZE
  6
CONTINUOUS
 62
    30
 10
-156.5
 20
-407.70412943139718
 30
0.0
 11
-144.5
 21
-407.70412943139718
 31
0.0
  0
CIRCLE
  8
SIZE
  6
CONTINUOUS
 62
    30
 10
156.5
 20
-407.70412943139718
 30
0.0
 40
6.0
  0
LINE
  8
SIZE
  6
CONTINUOUS
 62
    30
 10
156.5
 20
-407.70412943139718
 30
0.0
 11
144.5
 21
-407.70412943139718
 31
0.0
  0
TEXT
  8
SIZE
  6
CONTINUOUS
 62
    30
 10
-68.571428571428555
 20
-365.76144374171781
 30
0.0
 40
64.0
  1
313
 41
0.9
 72
     1
 11
0.0
 21
-365.76144374171781
 31
0.0
  0
POINT
  8
DEFPOINTS
  6
CONTINUOUS
 62
    30
 10
-156.5
 20
8.0
 30
0.0
  0
POINT
  8
DEFPOINTS
  6
CONTINUOUS
 62
    30
 10
156.5
 20
8.0
 30
0.0
  0
POINT
  8
DEFPOINTS
  6
CONTINUOUS
 62
    30
 10
156.5
 20
-407.70412943139718
 30
0.0
  0
LINE
  8
DETAIL
  6
CONTINUOUS
 62
     5
 10
0.0
 20
-1.0
 30
0.0
 11
174.52739100000011
 21
-1.0
 31
0.0
  0
LINE
  8
DETAIL
  6
CONTINUOUS
 62
     5
 10
0.0
 20
-1.0
 30
0.0
 11
-174.47260899999989
 21
-1.0
 31
0.0
  0
LINE
  8
SIZE
  6
CONTINUOUS
 62
    30
 10
-174.47260899999989
 20
-21.0
 30
0.0
 11
-174.47260899999989
 21
-680.30986590754674
 31
0.0
  0
LINE
  8
SIZE
  6
CONTINUOUS
 62
    30
 10
174.52739100000011
 20
-21.0
 30
0.0
 11
174.52739100000011
 21
-680.30986590754674
 31
0.0
  0
LINE
  8
SIZE
  6
CONTINUOUS
 62
    30
 10
-162.47260899999989
 20
-660.30986590754674
 30
0.0
 11
162.52739100000011
 21
-660.30986590754674
 31
0.0
  0
CIRCLE
  8
SIZE
  6
CONTINUOUS
 62
    30
 10
-174.47260899999989
 20
-660.30986590754674
 30
0.0
 40
6.0
  0
LINE
  8
SIZE
  6
CONTINUOUS
 62
    30
 10
-174.47260899999989
 20
-660.30986590754674
 30
0.0
 11
-162.47260899999989
 21
-660.30986590754674
 31
0.0
  0
CIRCLE
  8
SIZE
  6
CONTINUOUS
 62
    30
 10
174.52739100000011
 20
-660.30986590754674
 30
0.0
 40
6.0
  0
LINE
  8
SIZE
  6
CONTINUOUS
 62
    30
 10
174.52739100000011
 20
-660.30986590754674
 30
0.0
 11
162.52739100000011
 21
-660.30986590754674
 31
0.0
  0
TEXT
  8
SIZE
  6
CONTINUOUS
 62
    30
 10
-72.658323285714204
 20
-635.30986590754674
 30
0.0
 40
64.0
  1
349
 41
0.9
 72
     1
 11
0.0273910000000797
 21
-635.30986590754674
 31
0.0
  0
POINT
  8
DEFPOINTS
  6
CONTINUOUS
 62
    30
 10
-174.47260899999989
 20
-1.0
 30
0.0
  0
POINT
  8
DEFPOINTS
  6
CONTINUOUS
 62
    30
 10
174.52739100000011
 20
-1.0
 30
0.0
  0
POINT
  8
DEFPOINTS
  6
CONTINUOUS
 62
    30
 10
174.52739100000011
 20
-660.30986590754674
 30
0.0
  0
TEXT
  8
ETC
  6
CONTINUOUS
 62
    61
 10
596.33837616469918
 20
727.00981004383539
 30
0.0
 40
64.0
  1
VD-18ZLXP13-IN_3
 41
0.9
  0
TEXT
  8
ETC
  6
CONTINUOUS
 62
    61
 10
592.15238216469879
 20
609.05450002900443
 30
0.0
 40
64.0
  1
換気扇
 41
0.9
  0
TEXT
  8
ETC
  6
CONTINUOUS
 62
    61
 10
642.4867106730062
 20
503.43083038745772
 30
0.0
 40
40.0
  1
VD-18ZLXP13-IN
 41
0.9
  0
TEXT
  8
ETC
  6
CONTINUOUS
 62
    61
 10
642.4867106730062
 20
437.43083038745772
 30
0.0
 40
40.0
  1
VD-18ZB13-IN
 41
0.9
  0
TEXT
  8
ETC
  6
CONTINUOUS
 62
    61
 10
642.4867106730062
 20
371.43083038745772
 30
0.0
 40
40.0
  1
VD-20ZLX13-IN
 41
0.9
  0
TEXT
  8
ETC
  6
CONTINUOUS
 62
    61
 10
642.4867106730062
 20
305.43083038745772
 30
0.0
 40
40.0
  1
VD-20ZB13-IN
 41
0.9
  0
ENDSEC
  0
EOF
