  0
SECTION
  2
HEADER
  9
$ACADVER
  1
AC1009
  9
$INSBASE
 10
0.0
 20
0.0
 30
0.0
  9
$EXTMIN
 10
-1379.2239999999999
 20
-1198.726999999998
 30
0.0
  9
$EXTMAX
 10
1168.5475900611759
 20
862.6711241273307
 30
50.0
  9
$LIMMIN
 10
-2970.0
 20
-2100.0
  9
$LIMMAX
 10
2970.0
 20
2100.0
  9
$ORTHOMODE
 70
     1
  9
$REGENMODE
 70
     0
  9
$FILLMODE
 70
     1
  9
$QTEXTMODE
 70
     0
  9
$MIRRTEXT
 70
     0
  9
$DRAGMODE
 70
     2
  9
$LTSCALE
 40
20.0
  9
$OSMODE
 70
   173
  9
$ATTMODE
 70
     1
  9
$TEXTSIZE
 40
64.0
  9
$TRACEWID
 40
0.05
  9
$TEXTSTYLE
  7
STANDARD
  9
$CLAYER
  8
OUTLINE
  9
$CELTYPE
  6
DASHED
  9
$CECOLOR
 62
     3
  9
$DIMSCALE
 40
1.0
  9
$DIMASZ
 40
12.0
  9
$DIMEXO
 40
20.0
  9
$DIMDLI
 40
200.0
  9
$DIMRND
 40
0.0
  9
$DIMDLE
 40
0.0
  9
$DIMEXE
 40
20.0
  9
$DIMTP
 40
0.0
  9
$DIMTM
 40
0.0
  9
$DIMTXT
 40
64.0
  9
$DIMCEN
 40
0.09
  9
$DIMTSZ
 40
0.0
  9
$DIMTOL
 70
     0
  9
$DIMLIM
 70
     0
  9
$DIMTIH
 70
     0
  9
$DIMTOH
 70
     0
  9
$DIMSE1
 70
     0
  9
$DIMSE2
 70
     0
  9
$DIMTAD
 70
     1
  9
$DIMZIN
 70
     8
  9
$DIMBLK
  1
DOT1
  9
$DIMASO
 70
     1
  9
$DIMSHO
 70
     0
  9
$DIMPOST
  1

  9
$DIMAPOST
  1

  9
$DIMALT
 70
     0
  9
$DIMALTD
 70
     2
  9
$DIMALTF
 40
25.399999999999999
  9
$DIMLFAC
 40
1.0
  9
$DIMTOFL
 70
     1
  9
$DIMTVP
 40
0.0
  9
$DIMTIX
 70
     1
  9
$DIMSOXD
 70
     0
  9
$DIMSAH
 70
     1
  9
$DIMBLK1
  1
ORIGIN
  9
$DIMBLK2
  1
ORIGIN
  9
$DIMSTYLE
  2
STANDARD
  9
$DIMCLRD
 70
     0
  9
$DIMCLRE
 70
     0
  9
$DIMCLRT
 70
     0
  9
$DIMTFAC
 40
1.0
  9
$DIMGAP
 40
0.09
  9
$LUNITS
 70
     2
  9
$LUPREC
 70
     4
  9
$SKETCHINC
 40
0.1
  9
$FILLETRAD
 40
4.0
  9
$AUNITS
 70
     1
  9
$AUPREC
 70
     3
  9
$MENU
  1
ACAD
  9
$ELEVATION
 40
0.0
  9
$PELEVATION
 40
0.0
  9
$THICKNESS
 40
50.0
  9
$LIMCHECK
 70
     0
  9
$BLIPMODE
 70
     0
  9
$CHAMFERA
 40
0.0
  9
$CHAMFERB
 40
0.0
  9
$SKPOLY
 70
     0
  9
$TDCREATE
 40
2452321.3961996529
  9
$TDUPDATE
 40
2453780.4277884369
  9
$TDINDWG
 40
0.2403633681
  9
$TDUSRTIMER
 40
0.2403620949
  9
$USRTIMER
 70
     1
  9
$ANGBASE
 50
0.0
  9
$ANGDIR
 70
     0
  9
$PDMODE
 70
     3
  9
$PDSIZE
 40
-2.0
  9
$PLINEWID
 40
0.0
  9
$COORDS
 70
     2
  9
$SPLFRAME
 70
     0
  9
$SPLINETYPE
 70
     6
  9
$SPLINESEGS
 70
     8
  9
$ATTDIA
 70
     0
  9
$ATTREQ
 70
     1
  9
$HANDLING
 70
 22529
  9
$HANDSEED
  5
740
  9
$SURFTAB1
 70
     6
  9
$SURFTAB2
 70
     6
  9
$SURFTYPE
 70
     6
  9
$SURFU
 70
     6
  9
$SURFV
 70
     6
  9
$UCSNAME
  2

  9
$UCSORG
 10
0.0
 20
0.0
 30
0.0
  9
$UCSXDIR
 10
1.0
 20
0.0
 30
0.0
  9
$UCSYDIR
 10
0.0
 20
1.0
 30
0.0
  9
$PUCSNAME
  2

  9
$PUCSORG
 10
0.0
 20
0.0
 30
0.0
  9
$PUCSXDIR
 10
1.0
 20
0.0
 30
0.0
  9
$PUCSYDIR
 10
0.0
 20
1.0
 30
0.0
  9
$USERI1
 70
     0
  9
$USERI2
 70
     0
  9
$USERI3
 70
     0
  9
$USERI4
 70
     0
  9
$USERI5
 70
     0
  9
$USERR1
 40
20.0
  9
$USERR2
 40
0.0
  9
$USERR3
 40
0.0
  9
$USERR4
 40
0.0
  9
$USERR5
 40
0.0
  9
$WORLDVIEW
 70
     1
  9
$SHADEDGE
 70
     3
  9
$SHADEDIF
 70
    70
  9
$TILEMODE
 70
     1
  9
$MAXACTVP
 70
    48
  9
$PLIMCHECK
 70
     0
  9
$PEXTMIN
 10
1.0000000000000000E+020
 20
1.0000000000000000E+020
 30
1.0000000000000000E+020
  9
$PEXTMAX
 10
-1.0000000000000000E+020
 20
-1.0000000000000000E+020
 30
-1.0000000000000000E+020
  9
$PLIMMIN
 10
0.0
 20
0.0
  9
$PLIMMAX
 10
12.0
 20
9.0
  9
$UNITMODE
 70
     0
  9
$VISRETAIN
 70
     1
  9
$PLINEGEN
 70
     0
  9
$PSLTSCALE
 70
     1
  0
ENDSEC
  0
SECTION
  2
TABLES
  0
TABLE
  2
VPORT
 70
     7
  0
VPORT
  2
*ACTIVE
 70
     0
 10
0.0
 20
0.0
 11
1.0
 21
1.0
 12
-17.356187310622769
 22
-157.5163031529332
 13
0.0
 23
0.0
 14
1.0
 24
1.0
 15
0.0
 25
0.0
 16
0.0
 26
0.0
 36
1.0
 17
0.0
 27
0.0
 37
0.0
 40
2392.3480434046642
 41
1.447268106734434
 42
50.0
 43
0.0
 44
0.0
 50
0.0
 51
0.0
 71
     0
 72
   100
 73
     1
 74
     0
 75
     0
 76
     0
 77
     0
 78
     0
  0
ENDTAB
  0
TABLE
  2
LTYPE
 70
     4
  0
LTYPE
  2
CONTINUOUS
 70
     0
  3
実線
 72
    65
 73
     0
 40
0.0
  0
LTYPE
  2
DASHED2
 70
     0
  3
Dashed (.5x) _ _ _ _ _ _ _ _ _ _ _ _ _ _ _ _ _
 72
    65
 73
     2
 40
0.375
 49
0.25
 49
-0.125
  0
LTYPE
  2
DASHDOT
 70
     0
  3
____ _ ____ _ ____ _ ____ _ ____ _ ____ _ ____
 72
    65
 73
     4
 40
5.5
 49
4.0
 49
-0.6
 49
0.3
 49
-0.6
  0
LTYPE
  2
DASHED
 70
     0
  3
Dashed __ __ __ __ __ __ __ __ __ __ __ __ __ _
 72
    65
 73
     2
 40
0.75
 49
0.5
 49
-0.25
  0
ENDTAB
  0
TABLE
  2
LAYER
 70
    12
  0
LAYER
  2
0
 70
     0
 62
     7
  6
CONTINUOUS
  0
LAYER
  2
OUTLINE
 70
     0
 62
     3
  6
CONTINUOUS
  0
LAYER
  2
SIZE
 70
     0
 62
    30
  6
CONTINUOUS
  0
LAYER
  2
BASIS
 70
     0
 62
     6
  6
DASHDOT
  0
LAYER
  2
DETAIL
 70
     0
 62
     5
  6
CONTINUOUS
  0
LAYER
  2
ARRANGE
 70
     0
 62
     1
  6
CONTINUOUS
  0
LAYER
  2
DEFPOINTS
 70
     0
 62
     7
  6
CONTINUOUS
  0
LAYER
  2
ETC
 70
     0
 62
    61
  6
CONTINUOUS
  0
LAYER
  2
FIX
 70
     0
 62
    11
  6
CONTINUOUS
  0
LAYER
  2
NOTE
 70
     0
 62
     4
  6
CONTINUOUS
  0
LAYER
  2
SERVICESPACE
 70
     0
 62
     2
  6
DASHDOT
  0
LAYER
  2
SYMBOLLINE
 70
     0
 62
    15
  6
CONTINUOUS
  0
ENDTAB
  0
TABLE
  2
STYLE
 70
     2
  0
STYLE
  2
STANDARD
 70
     0
 40
64.0
 41
0.9
 50
0.0
 71
     0
 42
64.0
  3
SIMPLEX.shx
  4
BIGFONT.shx
  0
STYLE
  2

 70
     1
 40
0.0
 41
1.0
 50
0.0
 71
     0
 42
64.0
  3
ltypeshp.shx
  4

  0
ENDTAB
  0
TABLE
  2
VIEW
 70
     1
  0
VIEW
  2
ALL
 70
     0
 40
4282.6198079999967
 10
0.0
 20
41.309903999999989
 41
5940.0
 11
0.0
 21
0.0
 31
1.0
 12
0.0
 22
0.0
 32
0.0
 42
50.0
 43
0.0
 44
0.0
 50
0.0
 71
     0
  0
ENDTAB
  0
TABLE
  2
UCS
 70
     0
  0
ENDTAB
  0
TABLE
  2
APPID
 70
     1
  0
APPID
  2
ACAD
 70
     0
  0
ENDTAB
  0
TABLE
  2
DIMSTYLE
 70
     1
  0
DIMSTYLE
  2
STANDARD
 70
     0
  3

  4

  5

  6

  7

 40
1.0
 41
0.18
 42
0.0625
 43
0.38
 44
0.18
 45
0.0
 46
0.0
 47
0.0
 48
0.0
140
0.18
141
0.09
142
0.0
143
25.399999999999999
144
1.0
145
0.0
146
1.0
147
0.09
 71
     0
 72
     0
 73
     1
 74
     1
 75
     0
 76
     0
 77
     0
 78
     0
170
     0
171
     2
172
     0
173
     0
174
     0
175
     0
176
     0
177
     0
178
     0
  0
ENDTAB
  0
ENDSEC
  0
SECTION
  2
BLOCKS
  0
BLOCK
  8
0
  2
$MODEL_SPACE
 70
     0
 10
0.0
 20
0.0
 30
0.0
  3
$MODEL_SPACE
  1

  0
ENDBLK
  5
4D4
  8
0
  0
BLOCK
 67
     1
  8
0
  2
$PAPER_SPACE
 70
     0
 10
0.0
 20
0.0
 30
0.0
  3
$PAPER_SPACE
  1

  0
ENDBLK
  5
4D0
 67
     1
  8
0
  0
BLOCK
  8
0
  2
DOT1
 70
     0
 10
0.0
 20
0.0
 30
0.0
  3
DOT1
  1

  0
CIRCLE
  5
4F2
  8
SIZE
  6
CONTINUOUS
 62
     7
 10
0.0
 20
0.0
 30
0.0
 40
3.0
  0
ENDBLK
  5
4F3
  8
0
  0
BLOCK
  8
0
  2
_ORIGIN
 70
     0
 10
0.0
 20
0.0
 30
0.0
  3
_ORIGIN
  1

  0
CIRCLE
  5
4F6
  8
0
  6
CONTINUOUS
 62
     7
 10
0.0
 20
0.0
 30
0.0
 40
0.5
  0
LINE
  5
4F7
  8
0
  6
CONTINUOUS
 62
     7
 10
0.0
 20
0.0
 30
0.0
 11
-1.0
 21
0.0
 31
0.0
  0
ENDBLK
  5
4F8
  8
0
  0
ENDSEC
  0
SECTION
  2
ENTITIES
  0
TEXT
  5
4F9
  8
ETC
  6
CONTINUOUS
 62
    61
 10
639.17616148974741
 20
798.67112412733036
 30
0.0
 40
64.0
  1
VD-18ZP7_1
 41
0.9
  0
TEXT
  5
4FA
  8
ETC
  6
CONTINUOUS
 62
    61
 10
631.26045448974742
 20
699.22534212733035
 30
0.0
 40
64.0
  1
換気扇
 41
0.9
  0
LINE
  5
4FB
  8
NOTE
  6
CONTINUOUS
 62
     4
 10
-170.5
 20
100.0
 30
0.0
 11
-391.04410999999988
 21
303.83135800000002
 31
0.0
  0
LINE
  5
4FC
  8
DETAIL
  6
CONTINUOUS
 62
     5
 10
-5.5
 20
-238.5
 30
0.0
 11
-5.5
 21
-156.49999999999969
 31
0.0
  0
LINE
  5
4FD
  8
DETAIL
  6
CONTINUOUS
 62
     5
 10
-161.5
 20
-268.5
 30
0.0
 11
-9.5
 21
-268.5
 31
0.0
  0
LINE
  5
4FE
  8
DETAIL
  6
CONTINUOUS
 62
     5
 10
-165.5
 20
-238.5
 30
0.0
 11
-5.5
 21
-238.5
 31
0.0
  0
LINE
  5
4FF
  8
DETAIL
  6
CONTINUOUS
 62
     5
 10
-9.5
 20
-268.5
 30
0.0
 11
-9.5
 21
-238.5
 31
0.0
  0
LINE
  5
500
  8
DETAIL
  6
CONTINUOUS
 62
     5
 10
-161.5
 20
-268.5
 30
0.0
 11
-161.5
 21
-238.5
 31
0.0
  0
LINE
  5
501
  8
DETAIL
  6
CONTINUOUS
 62
     5
 10
-13.5
 20
-295.5
 30
0.0
 11
-13.5
 21
-268.5
 31
0.0
  0
LINE
  5
502
  8
DETAIL
  6
CONTINUOUS
 62
     5
 10
-157.5
 20
-295.5
 30
0.0
 11
-157.5
 21
-268.5
 31
0.0
  0
LINE
  5
503
  8
NOTE
  6
CONTINUOUS
 62
     4
 10
130.0
 20
-118.0
 30
0.0
 11
200.571203
 21
-401.81120699999991
 31
0.0
  0
LINE
  5
504
  8
NOTE
  6
CONTINUOUS
 62
     4
 10
200.571203
 20
-401.81120699999991
 30
0.0
 11
491.24245100000002
 21
-401.81120699999991
 31
0.0
  0
TEXT
  5
505
  8
NOTE
  6
CONTINUOUS
 62
     4
 10
211.936364
 20
-374.51113099999992
 30
0.0
 40
64.0
  1
EL φ19
 41
0.9
  0
LINE
  5
506
  8
NOTE
  6
CONTINUOUS
 62
     4
 10
-206.238606
 20
117.965301
 30
0.0
 11
-170.5
 21
100.0
 31
0.0
  0
LINE
  5
507
  8
NOTE
  6
CONTINUOUS
 62
     4
 10
-170.5
 20
100.0
 30
0.0
 11
-192.4678899999999
 21
133.42770999999991
 31
0.0
  0
LINE
  5
508
  8
NOTE
  6
CONTINUOUS
 62
     4
 10
133.6054849999999
 20
187.69496199999969
 30
0.0
 11
100.0
 21
166.0
 31
0.0
  0
LINE
  5
509
  8
NOTE
  6
CONTINUOUS
 62
     4
 10
100.0
 20
166.0
 30
0.0
 11
139.95068499999991
 21
167.98564500000001
 31
0.0
  0
LINE
  5
50A
  8
NOTE
  6
CONTINUOUS
 62
     4
 10
100.0
 20
166.0
 30
0.0
 11
397.00835499999999
 21
260.59441800000002
 31
0.0
  0
LINE
  5
50B
  8
NOTE
  6
CONTINUOUS
 62
     4
 10
151.05140599999999
 20
-152.012326
 30
0.0
 11
130.0
 21
-118.0
 31
0.0
  0
LINE
  5
50C
  8
NOTE
  6
CONTINUOUS
 62
     4
 10
130.0
 20
-118.0
 30
0.0
 11
131.22488899999999
 21
-157.9812409999999
 31
0.0
  0
LINE
  5
50D
  8
NOTE
  6
CONTINUOUS
 62
     4
 10
793.67251099999999
 20
260.59441800000002
 30
0.0
 11
397.00835499999999
 21
260.59441800000002
 31
0.0
  0
TEXT
  5
50E
  8
NOTE
  6
CONTINUOUS
 62
     4
 10
409.38214499999998
 20
287.12567300000001
 30
0.0
 40
64.0
  1
8-φ5×8
 41
0.9
  0
CIRCLE
  5
50F
  8
FIX
  6
CONTINUOUS
 62
    11
 10
-166.0
 20
-100.0
 30
0.0
 40
2.5
  0
CIRCLE
  5
510
  8
FIX
  6
CONTINUOUS
 62
    11
 10
-166.0
 20
100.0
 30
0.0
 40
2.5
  0
LINE
  5
511
  8
NOTE
  6
CONTINUOUS
 62
     4
 10
-166.0
 20
-80.0
 30
0.0
 11
-166.0
 21
-120.0
 31
0.0
  0
LINE
  5
512
  8
NOTE
  6
CONTINUOUS
 62
     4
 10
-146.0
 20
-100.0
 30
0.0
 11
-186.0
 21
-100.0
 31
0.0
  0
LINE
  5
513
  8
NOTE
  6
CONTINUOUS
 62
     4
 10
-166.0
 20
120.0
 30
0.0
 11
-166.0
 21
80.0
 31
0.0
  0
LINE
  5
514
  8
NOTE
  6
CONTINUOUS
 62
     4
 10
-146.0
 20
100.0
 30
0.0
 11
-186.0
 21
100.0
 31
0.0
  0
CIRCLE
  5
515
  8
FIX
  6
CONTINUOUS
 62
    11
 10
166.0
 20
100.0
 30
0.0
 40
2.5
  0
LINE
  5
516
  8
NOTE
  6
CONTINUOUS
 62
     4
 10
166.0
 20
120.0
 30
0.0
 11
166.0
 21
80.0
 31
0.0
  0
LINE
  5
517
  8
NOTE
  6
CONTINUOUS
 62
     4
 10
146.0
 20
100.0
 30
0.0
 11
186.0
 21
100.0
 31
0.0
  0
CIRCLE
  5
518
  8
FIX
  6
CONTINUOUS
 62
    11
 10
166.0
 20
-100.0
 30
0.0
 40
2.5
  0
TEXT
  5
519
  8
NOTE
  6
CONTINUOUS
 62
     4
 10
-135.69313299999979
 20
-379.00097499999993
 30
0.0
 40
64.0
  1
EA
 41
0.9
  0
LINE
  5
51A
  8
DETAIL
  6
CONTINUOUS
 62
     5
 10
-170.5
 20
-174.5
 30
0.0
 11
-170.5
 21
-156.49999999999969
 31
0.0
  0
LINE
  5
51B
  8
DETAIL
  6
CONTINUOUS
 62
     5
 10
-174.5
 20
-153.5
 30
0.0
 11
-174.5
 21
-130.0
 31
0.0
  0
LINE
  5
51C
  8
DETAIL
  6
CONTINUOUS
 62
     5
 10
-174.5
 20
174.5
 30
0.0
 11
174.5
 21
174.5
 31
0.0
  0
LINE
  5
51D
  8
DETAIL
  6
CONTINUOUS
 62
     5
 10
-155.25
 20
70.0
 30
0.0
 11
-153.5
 21
70.0
 31
0.0
  0
LINE
  5
51E
  8
DETAIL
  6
CONTINUOUS
 62
     5
 10
-155.25
 20
130.0
 30
0.0
 11
-153.5
 21
130.0
 31
0.0
  0
LINE
  5
51F
  8
DETAIL
  6
CONTINUOUS
 62
     5
 10
-155.25
 20
70.0
 30
0.0
 11
-185.7499999999998
 21
70.0
 31
0.0
  0
LINE
  5
520
  8
DETAIL
  6
CONTINUOUS
 62
     5
 10
-155.25
 20
130.0
 30
0.0
 11
-185.7499999999998
 21
130.0
 31
0.0
  0
LINE
  5
521
  8
DETAIL
  6
CONTINUOUS
 62
     5
 10
-177.5
 20
-156.49999999999969
 30
0.0
 11
6.5
 21
-156.49999999999969
 31
0.0
  0
LINE
  5
522
  8
DETAIL
  6
CONTINUOUS
 62
     5
 10
-165.5
 20
-238.5
 30
0.0
 11
-165.5
 21
-156.49999999999969
 31
0.0
  0
LINE
  5
523
  8
BASIS
  6
DASHDOT
 62
     6
 10
-85.5
 20
-321.49999999999972
 30
0.0
 11
-85.5
 21
-127.598681
 31
0.0
  0
LINE
  5
524
  8
DETAIL
  6
CONTINUOUS
 62
     5
 10
-153.5
 20
-153.5
 30
0.0
 11
153.5
 21
-153.5
 31
0.0
  0
LINE
  5
525
  8
DETAIL
  6
CONTINUOUS
 62
     5
 10
153.5
 20
153.5
 30
0.0
 11
-153.5
 21
153.5
 31
0.0
  0
LINE
  5
526
  8
DETAIL
  6
CONTINUOUS
 62
     5
 10
153.5
 20
153.5
 30
0.0
 11
153.5
 21
-153.5
 31
0.0
  0
LINE
  5
527
  8
DETAIL
  6
CONTINUOUS
 62
     5
 10
-153.5
 20
153.5
 30
0.0
 11
-153.5
 21
-153.5
 31
0.0
  0
ARC
  5
528
  8
DETAIL
  6
CONTINUOUS
 62
     5
 10
-170.5
 20
103.4999999999999
 30
0.0
 40
7.5
 50
0.0
 51
180.0
  0
ARC
  5
529
  8
DETAIL
  6
CONTINUOUS
 62
     5
 10
-170.5
 20
96.5
 30
0.0
 40
7.5
 50
180.0
 51
0.0
  0
LINE
  5
52A
  8
DETAIL
  6
CONTINUOUS
 62
     5
 10
-163.0
 20
103.4999999999999
 30
0.0
 11
-163.0
 21
96.5
 31
0.0
  0
LINE
  5
52B
  8
DETAIL
  6
CONTINUOUS
 62
     5
 10
-178.0
 20
103.4999999999999
 30
0.0
 11
-178.0
 21
96.5
 31
0.0
  0
LINE
  5
52C
  8
DETAIL
  6
CONTINUOUS
 62
     5
 10
-155.25
 20
130.0
 30
0.0
 11
-155.25
 21
70.0
 31
0.0
  0
LINE
  5
52D
  8
DETAIL
  6
CONTINUOUS
 62
     5
 10
-185.7499999999998
 20
130.0
 30
0.0
 11
-185.7499999999998
 21
70.0
 31
0.0
  0
TEXT
  5
52E
  8
NOTE
  6
CONTINUOUS
 62
     4
 10
1136.912
 20
-201.77045899999999
 30
0.0
 40
64.0
  1
天井開口寸法
 50
90.0
 41
0.9
  0
LINE
  5
52F
  8
BASIS
  6
DASHDOT
 62
     6
 10
-205.53087599999989
 20
0.0
 30
0.0
 11
206.952673
 21
0.0
 31
0.0
  0
LINE
  5
530
  8
BASIS
  6
DASHDOT
 62
     6
 10
0.0
 20
-234.13516899999991
 30
0.0
 11
0.0
 21
199.0700709999999
 31
0.0
  0
LINE
  5
531
  8
DETAIL
  6
CONTINUOUS
 62
     5
 10
-177.5
 20
-156.49999999999969
 30
0.0
 11
-177.5
 21
-153.5
 31
0.0
  0
LINE
  5
532
  8
DETAIL
  6
CONTINUOUS
 62
     5
 10
-170.5
 20
-174.5
 30
0.0
 11
-165.5
 21
-174.5
 31
0.0
  0
LINE
  5
533
  8
DETAIL
  6
CONTINUOUS
 62
     5
 10
174.5
 20
-174.5
 30
0.0
 11
174.5
 21
-130.0
 31
0.0
  0
LINE
  5
534
  8
DETAIL
  6
CONTINUOUS
 62
     5
 10
174.5
 20
130.0
 30
0.0
 11
174.5
 21
174.5
 31
0.0
  0
LINE
  5
535
  8
DETAIL
  6
CONTINUOUS
 62
     5
 10
-5.5
 20
-174.5
 30
0.0
 11
174.5
 21
-174.5
 31
0.0
  0
CIRCLE
  5
536
  8
FIX
  6
CONTINUOUS
 62
    11
 10
-100.0
 20
-166.0
 30
0.0
 40
2.5
  0
CIRCLE
  5
537
  8
FIX
  6
CONTINUOUS
 62
    11
 10
-100.0
 20
-166.0
 30
0.0
 40
2.5
  0
LINE
  5
538
  8
NOTE
  6
CONTINUOUS
 62
     4
 10
-100.0
 20
-186.0
 30
0.0
 11
-100.0
 21
-146.0
 31
0.0
  0
LINE
  5
539
  8
NOTE
  6
CONTINUOUS
 62
     4
 10
-80.0
 20
-166.0
 30
0.0
 11
-120.0
 21
-166.0
 31
0.0
  0
LINE
  5
53A
  8
DETAIL
  6
CONTINUOUS
 62
     5
 10
97.5
 20
-164.5
 30
0.0
 11
97.5
 21
-167.5
 31
0.0
  0
LINE
  5
53B
  8
DETAIL
  6
CONTINUOUS
 62
     5
 10
102.4999999999999
 20
-164.5
 30
0.0
 11
102.4999999999999
 21
-167.5
 31
0.0
  0
ARC
  5
53C
  8
DETAIL
  6
CONTINUOUS
 62
     5
 10
100.0
 20
-167.5
 30
0.0
 40
2.5
 50
180.0
 51
0.0
  0
ARC
  5
53D
  8
DETAIL
  6
CONTINUOUS
 62
     5
 10
100.0
 20
-164.5
 30
0.0
 40
2.5
 50
0.0
 51
180.0
  0
CIRCLE
  5
53E
  8
FIX
  6
CONTINUOUS
 62
    11
 10
100.0
 20
-166.0
 30
0.0
 40
2.5
  0
LINE
  5
53F
  8
NOTE
  6
CONTINUOUS
 62
     4
 10
100.0
 20
-186.0
 30
0.0
 11
100.0
 21
-146.0
 31
0.0
  0
LINE
  5
540
  8
NOTE
  6
CONTINUOUS
 62
     4
 10
80.0
 20
-166.0
 30
0.0
 11
120.0
 21
-166.0
 31
0.0
  0
LINE
  5
541
  8
NOTE
  6
CONTINUOUS
 62
     4
 10
166.0
 20
-120.0
 30
0.0
 11
166.0
 21
-80.0
 31
0.0
  0
LINE
  5
542
  8
NOTE
  6
CONTINUOUS
 62
     4
 10
146.0
 20
-100.0
 30
0.0
 11
186.0
 21
-100.0
 31
0.0
  0
LINE
  5
543
  8
SIZE
  6
CONTINUOUS
 62
    30
 10
-13.5
 20
-315.5
 30
0.0
 11
-13.5
 21
-640.68595500000004
 31
0.0
  0
LINE
  5
544
  8
SIZE
  6
CONTINUOUS
 62
    30
 10
-157.5
 20
-315.5
 30
0.0
 11
-157.5
 21
-640.68595500000004
 31
0.0
  0
LINE
  5
545
  8
SIZE
  6
CONTINUOUS
 62
    30
 10
-25.5
 20
-620.68595500000004
 30
0.0
 11
-145.5
 21
-620.68595500000004
 31
0.0
  0
LINE
  5
546
  8
SIZE
  6
CONTINUOUS
 62
    30
 10
-429.32846799999999
 20
-620.68595500000004
 30
0.0
 11
-157.5
 21
-620.68595500000004
 31
0.0
  0
TEXT
  5
547
  8
SIZE
  6
CONTINUOUS
 62
    30
 10
-415.84846814285697
 20
-595.68595500000004
 30
0.0
 40
64.0
  1
φ144
 41
0.9
 72
     1
 11
-305.58561099999991
 21
-595.68595500000004
 31
0.0
  0
CIRCLE
  5
548
  8
SIZE
  6
CONTINUOUS
 62
    30
 10
-13.5
 20
-620.68595500000004
 30
0.0
 40
6.0
  0
LINE
  5
549
  8
SIZE
  6
CONTINUOUS
 62
    30
 10
-13.5
 20
-620.68595500000004
 30
0.0
 11
-25.5
 21
-620.68595500000004
 31
0.0
  0
CIRCLE
  5
54A
  8
SIZE
  6
CONTINUOUS
 62
    30
 10
-157.5
 20
-620.68595500000004
 30
0.0
 40
6.0
  0
LINE
  5
54B
  8
SIZE
  6
CONTINUOUS
 62
    30
 10
-157.5
 20
-620.68595500000004
 30
0.0
 11
-145.5
 21
-620.68595500000004
 31
0.0
  0
LINE
  5
54C
  8
SIZE
  6
CONTINUOUS
 62
    30
 10
-9.7112300000000005
 20
-288.10827399999999
 30
0.0
 11
-9.7112300000000005
 21
-782.36764699999969
 31
0.0
  0
LINE
  5
54D
  8
SIZE
  6
CONTINUOUS
 62
    30
 10
-161.5
 20
-288.5
 30
0.0
 11
-161.5
 21
-782.36764699999969
 31
0.0
  0
LINE
  5
54E
  8
SIZE
  6
CONTINUOUS
 62
    30
 10
-21.71123
 20
-762.36764699999981
 30
0.0
 11
-149.5
 21
-762.36764699999981
 31
0.0
  0
LINE
  5
54F
  8
SIZE
  6
CONTINUOUS
 62
    30
 10
-427.32630499999988
 20
-762.36764699999981
 30
0.0
 11
-161.5
 21
-762.36764699999981
 31
0.0
  0
TEXT
  5
550
  8
SIZE
  6
CONTINUOUS
 62
    30
 10
-413.8463055714285
 20
-737.36764699999981
 30
0.0
 40
64.0
  1
φ152
 41
0.9
 72
     1
 11
-304.95487700000001
 21
-737.36764699999981
 31
0.0
  0
CIRCLE
  5
551
  8
SIZE
  6
CONTINUOUS
 62
    30
 10
-9.7112300000000005
 20
-762.36764699999981
 30
0.0
 40
6.0
  0
LINE
  5
552
  8
SIZE
  6
CONTINUOUS
 62
    30
 10
-9.7112300000000005
 20
-762.36764699999981
 30
0.0
 11
-21.71123
 21
-762.36764699999981
 31
0.0
  0
CIRCLE
  5
553
  8
SIZE
  6
CONTINUOUS
 62
    30
 10
-161.5
 20
-762.36764699999981
 30
0.0
 40
6.0
  0
LINE
  5
554
  8
SIZE
  6
CONTINUOUS
 62
    30
 10
-161.5
 20
-762.36764699999981
 30
0.0
 11
-149.5
 21
-762.36764699999981
 31
0.0
  0
LINE
  5
555
  8
SIZE
  6
CONTINUOUS
 62
    30
 10
-5.7112299999999987
 20
-258.10827399999982
 30
0.0
 11
-5.7112299999999987
 21
-923.129907
 31
0.0
  0
LINE
  5
556
  8
SIZE
  6
CONTINUOUS
 62
    30
 10
-165.71123
 20
-258.10827399999982
 30
0.0
 11
-165.71123
 21
-923.129907
 31
0.0
  0
LINE
  5
557
  8
SIZE
  6
CONTINUOUS
 62
    30
 10
-17.71123
 20
-903.12990700000012
 30
0.0
 11
-153.71122999999969
 21
-903.12990700000012
 31
0.0
  0
TEXT
  5
558
  8
SIZE
  6
CONTINUOUS
 62
    30
 10
-405.03514457142848
 20
-877.83628899999985
 30
0.0
 40
64.0
  1
□160
 41
0.9
 72
     1
 11
-299.98371600000002
 21
-877.83628899999985
 31
0.0
  0
CIRCLE
  5
559
  8
SIZE
  6
CONTINUOUS
 62
    30
 10
-5.7112299999999987
 20
-903.12990700000012
 30
0.0
 40
6.0
  0
LINE
  5
55A
  8
SIZE
  6
CONTINUOUS
 62
    30
 10
-5.7112299999999987
 20
-903.12990700000012
 30
0.0
 11
-17.71123
 21
-903.12990700000012
 31
0.0
  0
CIRCLE
  5
55B
  8
SIZE
  6
CONTINUOUS
 62
    30
 10
-165.71123
 20
-903.12990700000012
 30
0.0
 40
6.0
  0
LINE
  5
55C
  8
SIZE
  6
CONTINUOUS
 62
    30
 10
-165.71123
 20
-903.12990700000012
 30
0.0
 11
-153.71122999999969
 21
-903.12990700000012
 31
0.0
  0
LINE
  5
55D
  8
SIZE
  6
CONTINUOUS
 62
    30
 10
-165.71123
 20
-903.12990700000012
 30
0.0
 11
-420.86528299999998
 21
-903.12990700000012
 31
0.0
  0
LINE
  5
55E
  8
SIZE
  6
CONTINUOUS
 62
    30
 10
-165.71123
 20
-762.36764699999981
 30
0.0
 11
-421.44879500000002
 21
-762.36764699999981
 31
0.0
  0
LINE
  5
55F
  8
SIZE
  6
CONTINUOUS
 62
    30
 10
-157.71123
 20
-620.68595500000004
 30
0.0
 11
-420.86528299999998
 21
-620.68595500000004
 31
0.0
  0
CIRCLE
  5
560
  8
DETAIL
  6
CONTINUOUS
 62
     5
 10
23.0
 20
2.0
 30
0.0
 40
41.0
  0
LINE
  5
561
  8
SERVICESPACE
  6
DASHDOT
 62
     2
 10
-157.5
 20
157.5
 30
0.0
 11
157.5
 21
157.5
 31
0.0
  0
LINE
  5
562
  8
SERVICESPACE
  6
DASHDOT
 62
     2
 10
-157.5
 20
-157.5
 30
0.0
 11
157.5
 21
-157.5
 31
0.0
  0
LINE
  5
563
  8
SERVICESPACE
  6
DASHDOT
 62
     2
 10
-157.5
 20
-157.5
 30
0.0
 11
-157.5
 21
157.5
 31
0.0
  0
LINE
  5
564
  8
SERVICESPACE
  6
DASHDOT
 62
     2
 10
157.5
 20
-157.5
 30
0.0
 11
157.5
 21
157.5
 31
0.0
  0
LINE
  5
565
  8
SERVICESPACE
  6
DASHDOT
 62
     2
 10
157.5
 20
-157.5
 30
0.0
 11
-157.5
 21
157.5
 31
0.0
  0
LINE
  5
566
  8
SERVICESPACE
  6
DASHDOT
 62
     2
 10
157.5
 20
157.5
 30
0.0
 11
-157.5
 21
-157.5
 31
0.0
  0
LINE
  5
567
  8
SIZE
  6
CONTINUOUS
 62
    30
 10
-210.68088199999991
 20
100.0
 30
0.0
 11
-505.30179899999979
 21
100.0
 31
0.0
  0
LINE
  5
568
  8
SIZE
  6
CONTINUOUS
 62
    30
 10
-210.68088199999991
 20
-100.0
 30
0.0
 11
-505.30179899999979
 21
-100.0
 31
0.0
  0
LINE
  5
569
  8
SIZE
  6
CONTINUOUS
 62
    30
 10
-485.30179900000002
 20
88.0
 30
0.0
 11
-485.30179900000002
 21
-88.0
 31
0.0
  0
TEXT
  5
56A
  8
SIZE
  6
CONTINUOUS
 62
    30
 10
-574.30179900000019
 20
-74.05714285714285
 30
0.0
 40
64.0
  1
200
 50
90.0
 41
0.9
 72
     1
 11
-574.30179900000019
 21
0.0
 31
0.0
  0
CIRCLE
  5
56B
  8
SIZE
  6
CONTINUOUS
 62
    30
 10
-485.30179900000002
 20
100.0
 30
0.0
 40
6.0
  0
LINE
  5
56C
  8
SIZE
  6
CONTINUOUS
 62
    30
 10
-485.30179900000002
 20
100.0
 30
0.0
 11
-485.30179900000002
 21
88.0
 31
0.0
  0
CIRCLE
  5
56D
  8
SIZE
  6
CONTINUOUS
 62
    30
 10
-485.30179900000002
 20
-100.0
 30
0.0
 40
6.0
  0
LINE
  5
56E
  8
SIZE
  6
CONTINUOUS
 62
    30
 10
-485.30179900000002
 20
-100.0
 30
0.0
 11
-485.30179900000002
 21
-88.0
 31
0.0
  0
LINE
  5
56F
  8
SIZE
  6
CONTINUOUS
 62
    30
 10
111.4999999999999
 20
-540.60253299999999
 30
0.0
 11
332.71738699999992
 21
-540.60253299999999
 31
0.0
  0
LINE
  5
570
  8
SIZE
  6
CONTINUOUS
 62
    30
 10
-488.46463899999992
 20
-284.0
 30
0.0
 11
-488.46463899999992
 21
-426.63275299999981
 31
0.0
  0
LINE
  5
571
  8
SIZE
  6
CONTINUOUS
 62
    30
 10
-617.14293799999984
 20
-280.0
 30
0.0
 11
-617.14293799999984
 21
-429.19194499999992
 31
0.0
  0
LINE
  5
572
  8
SIZE
  6
CONTINUOUS
 62
    30
 10
-732.50849000000005
 20
-278.0
 30
0.0
 11
-732.50849000000005
 21
-467.57983499999989
 31
0.0
  0
LINE
  5
573
  8
SIZE
  6
CONTINUOUS
 62
    30
 10
612.71533599999998
 20
-101.5
 30
0.0
 11
612.71533599999998
 21
-359.20447499999972
 31
0.0
  0
LINE
  5
574
  8
SIZE
  6
CONTINUOUS
 62
    30
 10
-190.680882
 20
111.0
 30
0.0
 11
-427.67487099999988
 21
111.0
 31
0.0
  0
LINE
  5
575
  8
SIZE
  6
CONTINUOUS
 62
    30
 10
-190.680882
 20
89.0
 30
0.0
 11
-427.67487099999988
 21
89.0
 31
0.0
  0
LINE
  5
576
  8
SIZE
  6
CONTINUOUS
 62
    30
 10
-407.674871
 20
123.0
 30
0.0
 11
-407.674871
 21
135.0
 31
0.0
  0
LINE
  5
577
  8
SIZE
  6
CONTINUOUS
 62
    30
 10
-407.674871
 20
77.0
 30
0.0
 11
-407.674871
 21
65.0
 31
0.0
  0
LINE
  5
578
  8
SIZE
  6
CONTINUOUS
 62
    30
 10
-407.674871
 20
289.15637099999992
 30
0.0
 11
-407.674871
 21
111.0
 31
0.0
  0
TEXT
  5
579
  8
SIZE
  6
CONTINUOUS
 62
    30
 10
-432.674871
 20
170.8992275714285
 30
0.0
 40
64.0
  1
22
 50
90.0
 41
0.9
 72
     1
 11
-432.674871
 21
217.52779899999999
 31
0.0
  0
LINE
  5
57A
  8
SIZE
  6
CONTINUOUS
 62
    30
 10
-407.674871
 20
111.0
 30
0.0
 11
-407.674871
 21
89.0
 31
0.0
  0
LINE
  5
57B
  8
SIZE
  6
CONTINUOUS
 62
    30
 10
-407.674871
 20
111.0
 30
0.0
 11
-407.674871
 21
89.0
 31
0.0
  0
CIRCLE
  5
57C
  8
SIZE
  6
CONTINUOUS
 62
    30
 10
-407.674871
 20
111.0
 30
0.0
 40
6.0
  0
LINE
  5
57D
  8
SIZE
  6
CONTINUOUS
 62
    30
 10
-407.674871
 20
111.0
 30
0.0
 11
-407.674871
 21
123.0
 31
0.0
  0
CIRCLE
  5
57E
  8
SIZE
  6
CONTINUOUS
 62
    30
 10
-407.674871
 20
89.0
 30
0.0
 40
6.0
  0
LINE
  5
57F
  8
SIZE
  6
CONTINUOUS
 62
    30
 10
-407.674871
 20
89.0
 30
0.0
 11
-407.674871
 21
77.0
 31
0.0
  0
LINE
  5
580
  8
SIZE
  6
CONTINUOUS
 62
    30
 10
-407.674871
 20
111.0
 30
0.0
 11
-407.674871
 21
272.20869900000002
 31
0.0
  0
LINE
  5
581
  8
SIZE
  6
CONTINUOUS
 62
    30
 10
-159.49999999999969
 20
261.35019599999993
 30
0.0
 11
-305.73660599999999
 21
261.35019599999993
 31
0.0
  0
LINE
  5
582
  8
SIZE
  6
CONTINUOUS
 62
    30
 10
21.0
 20
260.72503099999989
 30
0.0
 11
321.56224800000001
 21
260.72503099999989
 31
0.0
  0
LINE
  5
583
  8
DETAIL
  6
CONTINUOUS
 62
     5
 10
6.5
 20
-156.49999999999969
 30
0.0
 11
6.5
 21
-153.5
 31
0.0
  0
LINE
  5
584
  8
NOTE
  6
CONTINUOUS
 62
     4
 10
-170.5
 20
120.0
 30
0.0
 11
-170.5
 21
80.0
 31
0.0
  0
LINE
  5
585
  8
NOTE
  6
CONTINUOUS
 62
     4
 10
-150.5
 20
100.0
 30
0.0
 11
-190.5
 21
100.0
 31
0.0
  0
CIRCLE
  5
586
  8
FIX
  6
CONTINUOUS
 62
    11
 10
-170.5
 20
100.0
 30
0.0
 40
7.5
  0
CIRCLE
  5
587
  8
FIX
  6
CONTINUOUS
 62
    11
 10
170.5
 20
100.0
 30
0.0
 40
7.5
  0
LINE
  5
588
  8
DETAIL
  6
CONTINUOUS
 62
     5
 10
185.7499999999998
 20
130.0
 30
0.0
 11
185.7499999999998
 21
70.0
 31
0.0
  0
LINE
  5
589
  8
DETAIL
  6
CONTINUOUS
 62
     5
 10
155.25
 20
130.0
 30
0.0
 11
155.25
 21
70.0
 31
0.0
  0
LINE
  5
58A
  8
DETAIL
  6
CONTINUOUS
 62
     5
 10
178.0
 20
103.4999999999999
 30
0.0
 11
178.0
 21
96.5
 31
0.0
  0
LINE
  5
58B
  8
DETAIL
  6
CONTINUOUS
 62
     5
 10
163.0
 20
103.4999999999999
 30
0.0
 11
163.0
 21
96.5
 31
0.0
  0
ARC
  5
58C
  8
DETAIL
  6
CONTINUOUS
 62
     5
 10
170.5
 20
96.5
 30
0.0
 40
7.5
 50
180.0
 51
0.0
  0
ARC
  5
58D
  8
DETAIL
  6
CONTINUOUS
 62
     5
 10
170.5
 20
103.4999999999999
 30
0.0
 40
7.5
 50
0.0
 51
180.0
  0
LINE
  5
58E
  8
DETAIL
  6
CONTINUOUS
 62
     5
 10
155.25
 20
130.0
 30
0.0
 11
185.7499999999998
 21
130.0
 31
0.0
  0
LINE
  5
58F
  8
DETAIL
  6
CONTINUOUS
 62
     5
 10
155.25
 20
70.0
 30
0.0
 11
185.7499999999998
 21
70.0
 31
0.0
  0
LINE
  5
590
  8
DETAIL
  6
CONTINUOUS
 62
     5
 10
155.25
 20
130.0
 30
0.0
 11
153.5
 21
130.0
 31
0.0
  0
LINE
  5
591
  8
DETAIL
  6
CONTINUOUS
 62
     5
 10
155.25
 20
70.0
 30
0.0
 11
153.5
 21
70.0
 31
0.0
  0
LINE
  5
592
  8
NOTE
  6
CONTINUOUS
 62
     4
 10
170.5
 20
120.0
 30
0.0
 11
170.5
 21
80.0
 31
0.0
  0
LINE
  5
593
  8
NOTE
  6
CONTINUOUS
 62
     4
 10
150.5
 20
100.0
 30
0.0
 11
190.5
 21
100.0
 31
0.0
  0
CIRCLE
  5
594
  8
FIX
  6
CONTINUOUS
 62
    11
 10
-170.5
 20
-100.0
 30
0.0
 40
7.5
  0
LINE
  5
595
  8
DETAIL
  6
CONTINUOUS
 62
     5
 10
-185.7499999999998
 20
-130.0
 30
0.0
 11
-185.7499999999998
 21
-70.0
 31
0.0
  0
LINE
  5
596
  8
DETAIL
  6
CONTINUOUS
 62
     5
 10
-155.25
 20
-130.0
 30
0.0
 11
-155.25
 21
-70.0
 31
0.0
  0
LINE
  5
597
  8
DETAIL
  6
CONTINUOUS
 62
     5
 10
-178.0
 20
-103.4999999999999
 30
0.0
 11
-178.0
 21
-96.5
 31
0.0
  0
LINE
  5
598
  8
DETAIL
  6
CONTINUOUS
 62
     5
 10
-163.0
 20
-103.4999999999999
 30
0.0
 11
-163.0
 21
-96.5
 31
0.0
  0
ARC
  5
599
  8
DETAIL
  6
CONTINUOUS
 62
     5
 10
-170.5
 20
-96.5
 30
0.0
 40
7.5
 50
0.0
 51
180.0
  0
ARC
  5
59A
  8
DETAIL
  6
CONTINUOUS
 62
     5
 10
-170.5
 20
-103.4999999999999
 30
0.0
 40
7.5
 50
180.0
 51
0.0
  0
LINE
  5
59B
  8
DETAIL
  6
CONTINUOUS
 62
     5
 10
-155.25
 20
-130.0
 30
0.0
 11
-185.7499999999998
 21
-130.0
 31
0.0
  0
LINE
  5
59C
  8
DETAIL
  6
CONTINUOUS
 62
     5
 10
-155.25
 20
-70.0
 30
0.0
 11
-185.7499999999998
 21
-70.0
 31
0.0
  0
LINE
  5
59D
  8
DETAIL
  6
CONTINUOUS
 62
     5
 10
-155.25
 20
-70.0
 30
0.0
 11
-153.5
 21
-70.0
 31
0.0
  0
LINE
  5
59E
  8
NOTE
  6
CONTINUOUS
 62
     4
 10
-170.5
 20
-120.0
 30
0.0
 11
-170.5
 21
-80.0
 31
0.0
  0
LINE
  5
59F
  8
NOTE
  6
CONTINUOUS
 62
     4
 10
-150.5
 20
-100.0
 30
0.0
 11
-190.5
 21
-100.0
 31
0.0
  0
LINE
  5
5A0
  8
DETAIL
  6
CONTINUOUS
 62
     5
 10
155.25
 20
-70.0
 30
0.0
 11
153.5
 21
-70.0
 31
0.0
  0
LINE
  5
5A1
  8
DETAIL
  6
CONTINUOUS
 62
     5
 10
155.25
 20
-130.0
 30
0.0
 11
153.5
 21
-130.0
 31
0.0
  0
LINE
  5
5A2
  8
DETAIL
  6
CONTINUOUS
 62
     5
 10
155.25
 20
-70.0
 30
0.0
 11
185.7499999999998
 21
-70.0
 31
0.0
  0
LINE
  5
5A3
  8
DETAIL
  6
CONTINUOUS
 62
     5
 10
155.25
 20
-130.0
 30
0.0
 11
185.7499999999998
 21
-130.0
 31
0.0
  0
ARC
  5
5A4
  8
DETAIL
  6
CONTINUOUS
 62
     5
 10
170.5
 20
-103.4999999999999
 30
0.0
 40
7.5
 50
180.0
 51
0.0
  0
ARC
  5
5A5
  8
DETAIL
  6
CONTINUOUS
 62
     5
 10
170.5
 20
-96.5
 30
0.0
 40
7.5
 50
0.0
 51
180.0
  0
LINE
  5
5A6
  8
DETAIL
  6
CONTINUOUS
 62
     5
 10
163.0
 20
-103.4999999999999
 30
0.0
 11
163.0
 21
-96.5
 31
0.0
  0
LINE
  5
5A7
  8
DETAIL
  6
CONTINUOUS
 62
     5
 10
178.0
 20
-103.4999999999999
 30
0.0
 11
178.0
 21
-96.5
 31
0.0
  0
LINE
  5
5A8
  8
DETAIL
  6
CONTINUOUS
 62
     5
 10
155.25
 20
-130.0
 30
0.0
 11
155.25
 21
-70.0
 31
0.0
  0
LINE
  5
5A9
  8
DETAIL
  6
CONTINUOUS
 62
     5
 10
185.7499999999998
 20
-130.0
 30
0.0
 11
185.7499999999998
 21
-70.0
 31
0.0
  0
CIRCLE
  5
5AA
  8
FIX
  6
CONTINUOUS
 62
    11
 10
170.5
 20
-100.0
 30
0.0
 40
7.5
  0
LINE
  5
5AB
  8
NOTE
  6
CONTINUOUS
 62
     4
 10
170.5
 20
-120.0
 30
0.0
 11
170.5
 21
-80.0
 31
0.0
  0
LINE
  5
5AC
  8
NOTE
  6
CONTINUOUS
 62
     4
 10
150.5
 20
-100.0
 30
0.0
 11
190.5
 21
-100.0
 31
0.0
  0
LINE
  5
5AD
  8
DETAIL
  6
CONTINUOUS
 62
     5
 10
-149.5
 20
-153.5
 30
0.0
 11
-177.5
 21
-153.5
 31
0.0
  0
LINE
  5
5AE
  8
DETAIL
  6
CONTINUOUS
 62
     5
 10
174.5
 20
-70.0
 30
0.0
 11
174.5
 21
70.0
 31
0.0
  0
LINE
  5
5AF
  8
DETAIL
  6
CONTINUOUS
 62
     5
 10
-174.5
 20
130.0
 30
0.0
 11
-174.5
 21
174.5
 31
0.0
  0
LINE
  5
5B0
  8
DETAIL
  6
CONTINUOUS
 62
     5
 10
-174.5
 20
-70.0
 30
0.0
 11
-174.5
 21
70.0
 31
0.0
  0
LINE
  5
5B1
  8
NOTE
  6
CONTINUOUS
 62
     4
 10
-100.0
 20
146.0
 30
0.0
 11
-100.0
 21
186.0
 31
0.0
  0
LINE
  5
5B2
  8
NOTE
  6
CONTINUOUS
 62
     4
 10
-120.0
 20
166.0
 30
0.0
 11
-80.0
 21
166.0
 31
0.0
  0
CIRCLE
  5
5B3
  8
FIX
  6
CONTINUOUS
 62
    11
 10
-100.0
 20
166.0
 30
0.0
 40
2.5
  0
ARC
  5
5B4
  8
DETAIL
  6
CONTINUOUS
 62
     5
 10
-100.0
 20
167.5
 30
0.0
 40
2.5
 50
0.0
 51
180.0
  0
ARC
  5
5B5
  8
DETAIL
  6
CONTINUOUS
 62
     5
 10
-100.0
 20
164.5
 30
0.0
 40
2.5
 50
180.0
 51
0.0
  0
LINE
  5
5B6
  8
DETAIL
  6
CONTINUOUS
 62
     5
 10
-97.5
 20
167.5
 30
0.0
 11
-97.5
 21
164.5
 31
0.0
  0
LINE
  5
5B7
  8
DETAIL
  6
CONTINUOUS
 62
     5
 10
-102.4999999999999
 20
167.5
 30
0.0
 11
-102.4999999999999
 21
164.5
 31
0.0
  0
LINE
  5
5B8
  8
DETAIL
  6
CONTINUOUS
 62
     5
 10
102.4999999999999
 20
167.5
 30
0.0
 11
102.4999999999999
 21
164.5
 31
0.0
  0
LINE
  5
5B9
  8
DETAIL
  6
CONTINUOUS
 62
     5
 10
97.5
 20
167.5
 30
0.0
 11
97.5
 21
164.5
 31
0.0
  0
ARC
  5
5BA
  8
DETAIL
  6
CONTINUOUS
 62
     5
 10
100.0
 20
164.5
 30
0.0
 40
2.5
 50
180.0
 51
0.0
  0
ARC
  5
5BB
  8
DETAIL
  6
CONTINUOUS
 62
     5
 10
100.0
 20
167.5
 30
0.0
 40
2.5
 50
0.0
 51
180.0
  0
CIRCLE
  5
5BC
  8
FIX
  6
CONTINUOUS
 62
    11
 10
100.0
 20
166.0
 30
0.0
 40
2.5
  0
LINE
  5
5BD
  8
NOTE
  6
CONTINUOUS
 62
     4
 10
100.0
 20
146.0
 30
0.0
 11
100.0
 21
186.0
 31
0.0
  0
LINE
  5
5BE
  8
NOTE
  6
CONTINUOUS
 62
     4
 10
120.0
 20
166.0
 30
0.0
 11
80.0
 21
166.0
 31
0.0
  0
LINE
  5
5BF
  8
NOTE
  6
CONTINUOUS
 62
     4
 10
130.0
 20
-138.0
 30
0.0
 11
130.0
 21
-98.0
 31
0.0
  0
LINE
  5
5C0
  8
NOTE
  6
CONTINUOUS
 62
     4
 10
110.0
 20
-118.0
 30
0.0
 11
150.0
 21
-118.0
 31
0.0
  0
CIRCLE
  5
5C1
  8
DETAIL
  6
CONTINUOUS
 62
     5
 10
130.0
 20
-118.0
 30
0.0
 40
9.5
  0
LINE
  5
5C2
  8
SIZE
  6
CONTINUOUS
 62
    30
 10
0.0
 20
-248.0984489999999
 30
0.0
 11
0.0
 21
-560.60253299999999
 31
0.0
  0
LINE
  5
5C3
  8
SIZE
  6
CONTINUOUS
 62
    30
 10
130.0
 20
-158.0
 30
0.0
 11
130.0
 21
-560.60253299999999
 31
0.0
  0
LINE
  5
5C4
  8
SIZE
  6
CONTINUOUS
 62
    30
 10
12.0
 20
-540.60253299999999
 30
0.0
 11
118.0
 21
-540.60253299999999
 31
0.0
  0
LINE
  5
5C5
  8
SIZE
  6
CONTINUOUS
 62
    30
 10
348.11906399999992
 20
-540.60253299999999
 30
0.0
 11
130.0
 21
-540.60253299999999
 31
0.0
  0
TEXT
  5
5C6
  8
SIZE
  6
CONTINUOUS
 62
    30
 10
185.97620742857131
 20
-515.60253299999999
 30
0.0
 40
64.0
  1
130
 41
0.9
 72
     1
 11
254.5476359999999
 21
-515.60253299999999
 31
0.0
  0
CIRCLE
  5
5C7
  8
SIZE
  6
CONTINUOUS
 62
    30
 10
0.0
 20
-540.60253299999999
 30
0.0
 40
6.0
  0
LINE
  5
5C8
  8
SIZE
  6
CONTINUOUS
 62
    30
 10
0.0
 20
-540.60253299999999
 30
0.0
 11
12.0
 21
-540.60253299999999
 31
0.0
  0
CIRCLE
  5
5C9
  8
SIZE
  6
CONTINUOUS
 62
    30
 10
130.0
 20
-540.60253299999999
 30
0.0
 40
6.0
  0
LINE
  5
5CA
  8
SIZE
  6
CONTINUOUS
 62
    30
 10
130.0
 20
-540.60253299999999
 30
0.0
 11
118.0
 21
-540.60253299999999
 31
0.0
  0
LINE
  5
5CB
  8
SIZE
  6
CONTINUOUS
 62
    30
 10
-173.5
 20
153.5
 30
0.0
 11
-752.50849000000005
 21
153.5
 31
0.0
  0
LINE
  5
5CC
  8
SIZE
  6
CONTINUOUS
 62
    30
 10
-173.5
 20
-153.5
 30
0.0
 11
-752.50849000000005
 21
-153.5
 31
0.0
  0
LINE
  5
5CD
  8
SIZE
  6
CONTINUOUS
 62
    30
 10
-732.50849000000005
 20
141.5
 30
0.0
 11
-732.50849000000005
 21
-141.5
 31
0.0
  0
TEXT
  5
5CE
  8
SIZE
  6
CONTINUOUS
 62
    30
 10
-757.85163899999975
 20
-110.5371428571428
 30
0.0
 40
64.0
  1
□307
 50
90.0
 41
0.9
 72
     1
 11
-757.85163899999975
 21
0.0
 31
0.0
  0
CIRCLE
  5
5CF
  8
SIZE
  6
CONTINUOUS
 62
    30
 10
-732.50849000000005
 20
153.5
 30
0.0
 40
6.0
  0
LINE
  5
5D0
  8
SIZE
  6
CONTINUOUS
 62
    30
 10
-732.50849000000005
 20
153.5
 30
0.0
 11
-732.50849000000005
 21
141.5
 31
0.0
  0
CIRCLE
  5
5D1
  8
SIZE
  6
CONTINUOUS
 62
    30
 10
-732.50849000000005
 20
-153.5
 30
0.0
 40
6.0
  0
LINE
  5
5D2
  8
SIZE
  6
CONTINUOUS
 62
    30
 10
-732.50849000000005
 20
-153.5
 30
0.0
 11
-732.50849000000005
 21
-141.5
 31
0.0
  0
LINE
  5
5D3
  8
SIZE
  6
CONTINUOUS
 62
    30
 10
-173.5
 20
-153.5
 30
0.0
 11
-752.50849000000005
 21
-153.5
 31
0.0
  0
LINE
  5
5D4
  8
SIZE
  6
CONTINUOUS
 62
    30
 10
-177.5
 20
-295.5
 30
0.0
 11
-752.50849000000005
 21
-295.5
 31
0.0
  0
LINE
  5
5D5
  8
SIZE
  6
CONTINUOUS
 62
    30
 10
-732.50849000000005
 20
-165.5
 30
0.0
 11
-732.50849000000005
 21
-283.49999999999989
 31
0.0
  0
TEXT
  5
5D6
  8
SIZE
  6
CONTINUOUS
 62
    30
 10
-757.85163899999975
 20
-451.6749925714285
 30
0.0
 40
64.0
  1
142
 50
90.0
 41
0.9
 72
     1
 11
-757.85163899999975
 21
-383.10356399999989
 31
0.0
  0
CIRCLE
  5
5D7
  8
SIZE
  6
CONTINUOUS
 62
    30
 10
-732.50849000000005
 20
-153.5
 30
0.0
 40
6.0
  0
LINE
  5
5D8
  8
SIZE
  6
CONTINUOUS
 62
    30
 10
-732.50849000000005
 20
-153.5
 30
0.0
 11
-732.50849000000005
 21
-165.5
 31
0.0
  0
CIRCLE
  5
5D9
  8
SIZE
  6
CONTINUOUS
 62
    30
 10
-732.50849000000005
 20
-295.5
 30
0.0
 40
6.0
  0
LINE
  5
5DA
  8
SIZE
  6
CONTINUOUS
 62
    30
 10
-732.50849000000005
 20
-295.5
 30
0.0
 11
-732.50849000000005
 21
-283.49999999999989
 31
0.0
  0
LINE
  5
5DB
  8
SIZE
  6
CONTINUOUS
 62
    30
 10
-177.5
 20
-295.5
 30
0.0
 11
-508.46463899999992
 21
-295.5
 31
0.0
  0
LINE
  5
5DC
  8
SIZE
  6
CONTINUOUS
 62
    30
 10
-181.49999999999969
 20
-268.5
 30
0.0
 11
-508.46463899999992
 21
-268.5
 31
0.0
  0
LINE
  5
5DD
  8
SIZE
  6
CONTINUOUS
 62
    30
 10
-488.46463899999992
 20
-307.5
 30
0.0
 11
-488.46463899999992
 21
-319.5
 31
0.0
  0
LINE
  5
5DE
  8
SIZE
  6
CONTINUOUS
 62
    30
 10
-488.46463899999992
 20
-256.49999999999989
 30
0.0
 11
-488.46463899999992
 21
-244.4999999999998
 31
0.0
  0
TEXT
  5
5DF
  8
SIZE
  6
CONTINUOUS
 62
    30
 10
-514.24262800000008
 20
-414.99669242857129
 30
0.0
 40
64.0
  1
27
 50
90.0
 41
0.9
 72
     1
 11
-514.24262800000008
 21
-368.36812099999992
 31
0.0
  0
LINE
  5
5E0
  8
SIZE
  6
CONTINUOUS
 62
    30
 10
-488.46463899999992
 20
-295.5
 30
0.0
 11
-488.46463899999992
 21
-268.5
 31
0.0
  0
LINE
  5
5E1
  8
SIZE
  6
CONTINUOUS
 62
    30
 10
-488.46463899999992
 20
-295.5
 30
0.0
 11
-488.46463899999992
 21
-268.5
 31
0.0
  0
CIRCLE
  5
5E2
  8
SIZE
  6
CONTINUOUS
 62
    30
 10
-488.46463899999992
 20
-295.5
 30
0.0
 40
6.0
  0
LINE
  5
5E3
  8
SIZE
  6
CONTINUOUS
 62
    30
 10
-488.46463899999992
 20
-295.5
 30
0.0
 11
-488.46463899999992
 21
-307.5
 31
0.0
  0
CIRCLE
  5
5E4
  8
SIZE
  6
CONTINUOUS
 62
    30
 10
-488.46463899999992
 20
-268.5
 30
0.0
 40
6.0
  0
LINE
  5
5E5
  8
SIZE
  6
CONTINUOUS
 62
    30
 10
-488.46463899999992
 20
-268.5
 30
0.0
 11
-488.46463899999992
 21
-256.49999999999989
 31
0.0
  0
LINE
  5
5E6
  8
SIZE
  6
CONTINUOUS
 62
    30
 10
-177.5
 20
-295.5
 30
0.0
 11
-637.14293799999984
 21
-295.5
 31
0.0
  0
LINE
  5
5E7
  8
SIZE
  6
CONTINUOUS
 62
    30
 10
-185.5
 20
-238.5
 30
0.0
 11
-637.14293799999984
 21
-238.5
 31
0.0
  0
LINE
  5
5E8
  8
SIZE
  6
CONTINUOUS
 62
    30
 10
-617.14293799999984
 20
-307.5
 30
0.0
 11
-617.14293799999984
 21
-319.5
 31
0.0
  0
TEXT
  5
5E9
  8
SIZE
  6
CONTINUOUS
 62
    30
 10
-641.75672300000019
 20
-415.78610942857131
 30
0.0
 40
64.0
  1
57
 50
90.0
 41
0.9
 72
     1
 11
-641.75672300000019
 21
-369.15753799999987
 31
0.0
  0
LINE
  5
5EA
  8
SIZE
  6
CONTINUOUS
 62
    30
 10
-617.14293799999984
 20
-295.5
 30
0.0
 11
-617.14293799999984
 21
-238.5
 31
0.0
  0
LINE
  5
5EB
  8
SIZE
  6
CONTINUOUS
 62
    30
 10
-617.14293799999984
 20
-295.5
 30
0.0
 11
-617.14293799999984
 21
-238.5
 31
0.0
  0
CIRCLE
  5
5EC
  8
SIZE
  6
CONTINUOUS
 62
    30
 10
-617.14293799999984
 20
-295.5
 30
0.0
 40
6.0
  0
LINE
  5
5ED
  8
SIZE
  6
CONTINUOUS
 62
    30
 10
-617.14293799999984
 20
-295.5
 30
0.0
 11
-617.14293799999984
 21
-307.5
 31
0.0
  0
CIRCLE
  5
5EE
  8
SIZE
  6
CONTINUOUS
 62
    30
 10
-617.14293799999984
 20
-238.5
 30
0.0
 40
6.0
  0
LINE
  5
5EF
  8
SIZE
  6
CONTINUOUS
 62
    30
 10
-178.0
 20
120.0
 30
0.0
 11
-178.0
 21
281.35019599999993
 31
0.0
  0
LINE
  5
5F0
  8
SIZE
  6
CONTINUOUS
 62
    30
 10
-163.0
 20
120.0
 30
0.0
 11
-163.0
 21
281.35019599999993
 31
0.0
  0
LINE
  5
5F1
  8
SIZE
  6
CONTINUOUS
 62
    30
 10
-190.0
 20
261.35019599999993
 30
0.0
 11
-202.0
 21
261.35019599999993
 31
0.0
  0
LINE
  5
5F2
  8
SIZE
  6
CONTINUOUS
 62
    30
 10
-151.0
 20
261.35019599999993
 30
0.0
 11
-139.0
 21
261.35019599999993
 31
0.0
  0
TEXT
  5
5F3
  8
SIZE
  6
CONTINUOUS
 62
    30
 10
-297.02190714285712
 20
287.47736099999992
 30
0.0
 40
64.0
  1
15
 41
0.9
 72
     1
 11
-255.87905000000001
 21
287.47736099999992
 31
0.0
  0
LINE
  5
5F4
  8
SIZE
  6
CONTINUOUS
 62
    30
 10
-178.0
 20
261.35019599999993
 30
0.0
 11
-163.0
 21
261.35019599999993
 31
0.0
  0
LINE
  5
5F5
  8
SIZE
  6
CONTINUOUS
 62
    30
 10
-178.0
 20
261.35019599999993
 30
0.0
 11
-163.0
 21
261.35019599999993
 31
0.0
  0
CIRCLE
  5
5F6
  8
SIZE
  6
CONTINUOUS
 62
    30
 10
-178.0
 20
261.35019599999993
 30
0.0
 40
6.0
  0
LINE
  5
5F7
  8
SIZE
  6
CONTINUOUS
 62
    30
 10
-178.0
 20
261.35019599999993
 30
0.0
 11
-190.0
 21
261.35019599999993
 31
0.0
  0
CIRCLE
  5
5F8
  8
SIZE
  6
CONTINUOUS
 62
    30
 10
-163.0
 20
261.35019599999993
 30
0.0
 40
6.0
  0
LINE
  5
5F9
  8
SIZE
  6
CONTINUOUS
 62
    30
 10
-163.0
 20
261.35019599999993
 30
0.0
 11
-151.0
 21
261.35019599999993
 31
0.0
  0
LINE
  5
5FA
  8
SIZE
  6
CONTINUOUS
 62
    30
 10
100.0
 20
-206.0
 30
0.0
 11
100.0
 21
-1062.644
 31
0.0
  0
LINE
  5
5FB
  8
SIZE
  6
CONTINUOUS
 62
    30
 10
-100.0
 20
-206.0
 30
0.0
 11
-100.0
 21
-1062.644
 31
0.0
  0
LINE
  5
5FC
  8
SIZE
  6
CONTINUOUS
 62
    30
 10
88.0
 20
-1042.6439999999991
 30
0.0
 11
-88.0
 21
-1042.6439999999991
 31
0.0
  0
CIRCLE
  5
5FD
  8
SIZE
  6
CONTINUOUS
 62
    30
 10
100.0
 20
-1042.6439999999991
 30
0.0
 40
6.0
  0
LINE
  5
5FE
  8
SIZE
  6
CONTINUOUS
 62
    30
 10
100.0
 20
-1042.6439999999991
 30
0.0
 11
88.0
 21
-1042.6439999999991
 31
0.0
  0
CIRCLE
  5
5FF
  8
SIZE
  6
CONTINUOUS
 62
    30
 10
-100.0
 20
-1042.6439999999991
 30
0.0
 40
6.0
  0
LINE
  5
600
  8
SIZE
  6
CONTINUOUS
 62
    30
 10
-100.0
 20
-1042.6439999999991
 30
0.0
 11
-88.0
 21
-1042.6439999999991
 31
0.0
  0
TEXT
  5
601
  8
SIZE
  6
CONTINUOUS
 62
    30
 10
-74.05714285714285
 20
-1017.643999999999
 30
0.0
 40
64.0
  1
200
 41
0.9
 72
     1
 11
0.0
 21
-1017.643999999999
 31
0.0
  0
LINE
  5
602
  8
SIZE
  6
CONTINUOUS
 62
    30
 10
166.0
 20
-140.0
 30
0.0
 11
166.0
 21
-1198.726999999998
 31
0.0
  0
LINE
  5
603
  8
SIZE
  6
CONTINUOUS
 62
    30
 10
-166.0
 20
-140.0
 30
0.0
 11
-166.0
 21
-1198.726999999998
 31
0.0
  0
LINE
  5
604
  8
SIZE
  6
CONTINUOUS
 62
    30
 10
154.0
 20
-1178.7270000000001
 30
0.0
 11
-154.0
 21
-1178.7270000000001
 31
0.0
  0
CIRCLE
  5
605
  8
SIZE
  6
CONTINUOUS
 62
    30
 10
166.0
 20
-1178.7270000000001
 30
0.0
 40
6.0
  0
LINE
  5
606
  8
SIZE
  6
CONTINUOUS
 62
    30
 10
166.0
 20
-1178.7270000000001
 30
0.0
 11
154.0
 21
-1178.7270000000001
 31
0.0
  0
CIRCLE
  5
607
  8
SIZE
  6
CONTINUOUS
 62
    30
 10
-166.0
 20
-1178.7270000000001
 30
0.0
 40
6.0
  0
LINE
  5
608
  8
SIZE
  6
CONTINUOUS
 62
    30
 10
-166.0
 20
-1178.7270000000001
 30
0.0
 11
-154.0
 21
-1178.7270000000001
 31
0.0
  0
TEXT
  5
609
  8
SIZE
  6
CONTINUOUS
 62
    30
 10
-74.05714285714285
 20
-1153.726999999999
 30
0.0
 40
64.0
  1
332
 41
0.9
 72
     1
 11
0.0
 21
-1153.726999999999
 31
0.0
  0
LINE
  5
60A
  8
SIZE
  6
CONTINUOUS
 62
    30
 10
226.95267299999989
 20
0.0
 30
0.0
 11
528.51700300000005
 21
0.0
 31
0.0
  0
LINE
  5
60B
  8
SIZE
  6
CONTINUOUS
 62
    30
 10
104.4999999999999
 20
2.0
 30
0.0
 11
528.51700300000005
 21
2.0
 31
0.0
  0
LINE
  5
60C
  8
SIZE
  6
CONTINUOUS
 62
    30
 10
508.51700299999987
 20
-12.0
 30
0.0
 11
508.51700299999987
 21
-24.0
 31
0.0
  0
LINE
  5
60D
  8
SIZE
  6
CONTINUOUS
 62
    30
 10
508.51700299999987
 20
14.0
 30
0.0
 11
508.51700299999987
 21
26.0
 31
0.0
  0
TEXT
  5
60E
  8
SIZE
  6
CONTINUOUS
 62
    30
 10
483.33086500000002
 20
39.648560000000003
 30
0.0
 40
64.0
  1
2
 50
90.0
 41
0.9
 72
     1
 11
483.33086500000002
 21
58.848559999999999
 31
0.0
  0
LINE
  5
60F
  8
SIZE
  6
CONTINUOUS
 62
    30
 10
508.51700299999987
 20
0.0
 30
0.0
 11
508.51700299999987
 21
2.0
 31
0.0
  0
LINE
  5
610
  8
SIZE
  6
CONTINUOUS
 62
    30
 10
508.51700299999987
 20
0.0
 30
0.0
 11
508.51700299999987
 21
2.0
 31
0.0
  0
CIRCLE
  5
611
  8
SIZE
  6
CONTINUOUS
 62
    30
 10
508.51700299999987
 20
0.0
 30
0.0
 40
6.0
  0
LINE
  5
612
  8
SIZE
  6
CONTINUOUS
 62
    30
 10
508.51700299999987
 20
0.0
 30
0.0
 11
508.51700299999987
 21
-12.0
 31
0.0
  0
CIRCLE
  5
613
  8
SIZE
  6
CONTINUOUS
 62
    30
 10
508.51700299999987
 20
2.0
 30
0.0
 40
6.0
  0
LINE
  5
614
  8
SIZE
  6
CONTINUOUS
 62
    30
 10
508.51700299999987
 20
2.0
 30
0.0
 11
508.51700299999987
 21
14.0
 31
0.0
  0
LINE
  5
615
  8
SIZE
  6
CONTINUOUS
 62
    30
 10
226.95267299999989
 20
0.0
 30
0.0
 11
632.71533599999975
 21
0.0
 31
0.0
  0
LINE
  5
616
  8
SIZE
  6
CONTINUOUS
 62
    30
 10
170.0
 20
-118.0
 30
0.0
 11
632.71533599999975
 21
-118.0
 31
0.0
  0
LINE
  5
617
  8
SIZE
  6
CONTINUOUS
 62
    30
 10
612.71533599999998
 20
-12.0
 30
0.0
 11
612.71533599999998
 21
-106.0
 31
0.0
  0
LINE
  5
618
  8
SIZE
  6
CONTINUOUS
 62
    30
 10
612.71533599999998
 20
-368.32145099999991
 30
0.0
 11
612.71533599999998
 21
-118.0
 31
0.0
  0
TEXT
  5
619
  8
SIZE
  6
CONTINUOUS
 62
    30
 10
587.71533599999998
 20
-343.3214512857142
 30
0.0
 40
64.0
  1
118
 50
90.0
 41
0.9
 72
     1
 11
587.71533599999998
 21
-280.23573699999992
 31
0.0
  0
CIRCLE
  5
61A
  8
SIZE
  6
CONTINUOUS
 62
    30
 10
612.71533599999998
 20
0.0
 30
0.0
 40
6.0
  0
LINE
  5
61B
  8
SIZE
  6
CONTINUOUS
 62
    30
 10
612.71533599999998
 20
0.0
 30
0.0
 11
612.71533599999998
 21
-12.0
 31
0.0
  0
CIRCLE
  5
61C
  8
SIZE
  6
CONTINUOUS
 62
    30
 10
612.71533599999998
 20
-118.0
 30
0.0
 40
6.0
  0
LINE
  5
61D
  8
SIZE
  6
CONTINUOUS
 62
    30
 10
612.71533599999998
 20
-118.0
 30
0.0
 11
612.71533599999998
 21
-106.0
 31
0.0
  0
LINE
  5
61E
  8
SIZE
  6
CONTINUOUS
 62
    30
 10
140.0
 20
166.0
 30
0.0
 11
786.834339
 21
166.0
 31
0.0
  0
LINE
  5
61F
  8
SIZE
  6
CONTINUOUS
 62
    30
 10
140.0
 20
-166.0
 30
0.0
 11
786.834339
 21
-166.0
 31
0.0
  0
LINE
  5
620
  8
SIZE
  6
CONTINUOUS
 62
    30
 10
766.834339
 20
154.0
 30
0.0
 11
766.834339
 21
-154.0
 31
0.0
  0
TEXT
  5
621
  8
SIZE
  6
CONTINUOUS
 62
    30
 10
742.92671799999982
 20
-74.05714285714285
 30
0.0
 40
64.0
  1
332
 50
90.0
 41
0.9
 72
     1
 11
742.92671799999982
 21
0.0
 31
0.0
  0
CIRCLE
  5
622
  8
SIZE
  6
CONTINUOUS
 62
    30
 10
766.834339
 20
166.0
 30
0.0
 40
6.0
  0
LINE
  5
623
  8
SIZE
  6
CONTINUOUS
 62
    30
 10
766.834339
 20
166.0
 30
0.0
 11
766.834339
 21
154.0
 31
0.0
  0
CIRCLE
  5
624
  8
SIZE
  6
CONTINUOUS
 62
    30
 10
766.834339
 20
-166.0
 30
0.0
 40
6.0
  0
LINE
  5
625
  8
SIZE
  6
CONTINUOUS
 62
    30
 10
766.834339
 20
-166.0
 30
0.0
 11
766.834339
 21
-154.0
 31
0.0
  0
LINE
  5
626
  8
SIZE
  6
CONTINUOUS
 62
    30
 10
194.5
 20
174.5
 30
0.0
 11
916.21124999999995
 21
174.5
 31
0.0
  0
LINE
  5
627
  8
SIZE
  6
CONTINUOUS
 62
    30
 10
194.5
 20
-174.5
 30
0.0
 11
916.21124999999995
 21
-174.5
 31
0.0
  0
LINE
  5
628
  8
SIZE
  6
CONTINUOUS
 62
    30
 10
896.21124999999984
 20
162.5
 30
0.0
 11
896.21124999999984
 21
-162.5
 31
0.0
  0
TEXT
  5
629
  8
SIZE
  6
CONTINUOUS
 62
    30
 10
868.53762200000006
 20
-72.685714285714283
 30
0.0
 40
64.0
  1
349
 50
90.0
 41
0.9
 72
     1
 11
868.53762200000006
 21
0.0
 31
0.0
  0
CIRCLE
  5
62A
  8
SIZE
  6
CONTINUOUS
 62
    30
 10
896.21124999999984
 20
174.5
 30
0.0
 40
6.0
  0
LINE
  5
62B
  8
SIZE
  6
CONTINUOUS
 62
    30
 10
896.21124999999984
 20
174.5
 30
0.0
 11
896.21124999999984
 21
162.5
 31
0.0
  0
CIRCLE
  5
62C
  8
SIZE
  6
CONTINUOUS
 62
    30
 10
896.21124999999984
 20
-174.5
 30
0.0
 40
6.0
  0
LINE
  5
62D
  8
SIZE
  6
CONTINUOUS
 62
    30
 10
896.21124999999984
 20
-174.5
 30
0.0
 11
896.21124999999984
 21
-162.5
 31
0.0
  0
LINE
  5
62E
  8
SIZE
  6
CONTINUOUS
 62
    30
 10
177.5
 20
157.5
 30
0.0
 11
1056.3699999999999
 21
157.5
 31
0.0
  0
LINE
  5
62F
  8
SIZE
  6
CONTINUOUS
 62
    30
 10
177.5
 20
-157.5
 30
0.0
 11
1056.3699999999999
 21
-157.5
 31
0.0
  0
LINE
  5
630
  8
SIZE
  6
CONTINUOUS
 62
    30
 10
1036.3699999999999
 20
145.5
 30
0.0
 11
1036.3699999999999
 21
-145.5
 31
0.0
  0
CIRCLE
  5
631
  8
SIZE
  6
CONTINUOUS
 62
    30
 10
1036.3699999999999
 20
157.5
 30
0.0
 40
6.0
  0
LINE
  5
632
  8
SIZE
  6
CONTINUOUS
 62
    30
 10
1036.3699999999999
 20
157.5
 30
0.0
 11
1036.3699999999999
 21
145.5
 31
0.0
  0
CIRCLE
  5
633
  8
SIZE
  6
CONTINUOUS
 62
    30
 10
1036.3699999999999
 20
-157.5
 30
0.0
 40
6.0
  0
LINE
  5
634
  8
SIZE
  6
CONTINUOUS
 62
    30
 10
1036.3699999999999
 20
-157.5
 30
0.0
 11
1036.3699999999999
 21
-145.5
 31
0.0
  0
TEXT
  5
635
  8
SIZE
  6
CONTINUOUS
 62
    30
 10
1011.37
 20
-105.0514285714285
 30
0.0
 40
64.0
  1
□315
 50
90.0
 41
0.9
 72
     1
 11
1011.37
 21
0.0
 31
0.0
  0
LINE
  5
636
  8
SIZE
  6
CONTINUOUS
 62
    30
 10
508.51700299999987
 20
4.0
 30
0.0
 11
508.51700299999987
 21
97.831368999999995
 31
0.0
  0
LINE
  5
637
  8
SIZE
  6
CONTINUOUS
 62
    30
 10
0.0
 20
225.1067909999999
 30
0.0
 11
0.0
 21
280.725031
 31
0.0
  0
LINE
  5
638
  8
SIZE
  6
CONTINUOUS
 62
    30
 10
23.0
 20
83.499999999999986
 30
0.0
 11
23.0
 21
280.725031
 31
0.0
  0
LINE
  5
639
  8
SIZE
  6
CONTINUOUS
 62
    30
 10
-12.0
 20
260.72503099999989
 30
0.0
 11
-24.0
 21
260.72503099999989
 31
0.0
  0
LINE
  5
63A
  8
SIZE
  6
CONTINUOUS
 62
    30
 10
35.0
 20
260.72503099999989
 30
0.0
 11
47.0
 21
260.72503099999989
 31
0.0
  0
LINE
  5
63B
  8
SIZE
  6
CONTINUOUS
 62
    30
 10
330.96498100000002
 20
260.72503099999989
 30
0.0
 11
23.0
 21
260.72503099999989
 31
0.0
  0
TEXT
  5
63C
  8
SIZE
  6
CONTINUOUS
 62
    30
 10
212.70783757142851
 20
285.72503099999989
 30
0.0
 40
64.0
  1
23
 41
0.9
 72
     1
 11
259.336409
 21
285.72503099999989
 31
0.0
  0
LINE
  5
63D
  8
SIZE
  6
CONTINUOUS
 62
    30
 10
0.0
 20
260.72503099999989
 30
0.0
 11
23.0
 21
260.72503099999989
 31
0.0
  0
LINE
  5
63E
  8
SIZE
  6
CONTINUOUS
 62
    30
 10
0.0
 20
260.72503099999989
 30
0.0
 11
23.0
 21
260.72503099999989
 31
0.0
  0
CIRCLE
  5
63F
  8
SIZE
  6
CONTINUOUS
 62
    30
 10
0.0
 20
260.72503099999989
 30
0.0
 40
6.0
  0
LINE
  5
640
  8
SIZE
  6
CONTINUOUS
 62
    30
 10
0.0
 20
260.72503099999989
 30
0.0
 11
-12.0
 21
260.72503099999989
 31
0.0
  0
CIRCLE
  5
641
  8
SIZE
  6
CONTINUOUS
 62
    30
 10
23.0
 20
260.72503099999989
 30
0.0
 40
6.0
  0
LINE
  5
642
  8
SIZE
  6
CONTINUOUS
 62
    30
 10
23.0
 20
260.72503099999989
 30
0.0
 11
35.0
 21
260.72503099999989
 31
0.0
  0
LINE
  5
643
  8
SIZE
  6
CONTINUOUS
 62
    30
 10
64.0
 20
22.0
 30
0.0
 11
64.0
 21
367.09181499999988
 31
0.0
  0
LINE
  5
644
  8
SIZE
  6
CONTINUOUS
 62
    30
 10
-18.0
 20
22.0
 30
0.0
 11
-18.0
 21
367.09181499999988
 31
0.0
  0
LINE
  5
645
  8
SIZE
  6
CONTINUOUS
 62
    30
 10
64.0
 20
347.091815
 30
0.0
 11
-18.0
 21
347.091815
 31
0.0
  0
CIRCLE
  5
646
  8
SIZE
  6
CONTINUOUS
 62
    30
 10
64.0
 20
347.091815
 30
0.0
 40
6.0
  0
CIRCLE
  5
647
  8
SIZE
  6
CONTINUOUS
 62
    30
 10
-18.0
 20
347.091815
 30
0.0
 40
6.0
  0
TEXT
  5
648
  8
SIZE
  6
CONTINUOUS
 62
    30
 10
-63.948571428571398
 20
372.091815
 30
0.0
 40
64.0
  1
φ82
 41
0.9
 72
     1
 11
23.0
 21
372.091815
 31
0.0
  0
LINE
  5
649
  8
SIZE
  6
CONTINUOUS
 62
    30
 10
170.5
 20
140.0
 30
0.0
 11
170.5
 21
488.00766099999993
 31
0.0
  0
LINE
  5
64A
  8
SIZE
  6
CONTINUOUS
 62
    30
 10
-170.5
 20
140.0
 30
0.0
 11
-170.5
 21
488.00766099999993
 31
0.0
  0
LINE
  5
64B
  8
SIZE
  6
CONTINUOUS
 62
    30
 10
158.4999999999998
 20
468.00766099999993
 30
0.0
 11
-158.4999999999998
 21
468.00766099999993
 31
0.0
  0
CIRCLE
  5
64C
  8
SIZE
  6
CONTINUOUS
 62
    30
 10
170.5
 20
468.00766099999993
 30
0.0
 40
6.0
  0
LINE
  5
64D
  8
SIZE
  6
CONTINUOUS
 62
    30
 10
170.5
 20
468.00766099999993
 30
0.0
 11
158.4999999999998
 21
468.00766099999993
 31
0.0
  0
CIRCLE
  5
64E
  8
SIZE
  6
CONTINUOUS
 62
    30
 10
-170.5
 20
468.00766099999993
 30
0.0
 40
6.0
  0
LINE
  5
64F
  8
SIZE
  6
CONTINUOUS
 62
    30
 10
-170.5
 20
468.00766099999993
 30
0.0
 11
-158.4999999999998
 21
468.00766099999993
 31
0.0
  0
TEXT
  5
650
  8
SIZE
  6
CONTINUOUS
 62
    30
 10
-61.714285714285701
 20
493.00766099999993
 30
0.0
 40
64.0
  1
341
 41
0.9
 72
     1
 11
0.0
 21
493.00766099999993
 31
0.0
  0
LINE
  5
651
  8
SIZE
  6
CONTINUOUS
 62
    30
 10
174.5
 20
194.5
 30
0.0
 11
174.5
 21
616.20759299999997
 31
0.0
  0
LINE
  5
652
  8
SIZE
  6
CONTINUOUS
 62
    30
 10
-174.5
 20
194.5
 30
0.0
 11
-174.5
 21
616.20759299999997
 31
0.0
  0
LINE
  5
653
  8
SIZE
  6
CONTINUOUS
 62
    30
 10
162.5
 20
596.20759299999997
 30
0.0
 11
-162.5
 21
596.20759299999997
 31
0.0
  0
CIRCLE
  5
654
  8
SIZE
  6
CONTINUOUS
 62
    30
 10
174.5
 20
596.20759299999997
 30
0.0
 40
6.0
  0
LINE
  5
655
  8
SIZE
  6
CONTINUOUS
 62
    30
 10
174.5
 20
596.20759299999997
 30
0.0
 11
162.5
 21
596.20759299999997
 31
0.0
  0
CIRCLE
  5
656
  8
SIZE
  6
CONTINUOUS
 62
    30
 10
-174.5
 20
596.20759299999997
 30
0.0
 40
6.0
  0
LINE
  5
657
  8
SIZE
  6
CONTINUOUS
 62
    30
 10
-174.5
 20
596.20759299999997
 30
0.0
 11
-162.5
 21
596.20759299999997
 31
0.0
  0
TEXT
  5
658
  8
SIZE
  6
CONTINUOUS
 62
    30
 10
-72.685714285714283
 20
621.20759299999997
 30
0.0
 40
64.0
  1
349
 41
0.9
 72
     1
 11
0.0
 21
621.20759299999997
 31
0.0
  0
LINE
  5
659
  8
SIZE
  6
CONTINUOUS
 62
    30
 10
190.0
 20
210.0
 30
0.0
 11
190.0
 21
735.31112800000005
 31
0.0
  0
LINE
  5
65A
  8
SIZE
  6
CONTINUOUS
 62
    30
 10
-190.0
 20
210.0
 30
0.0
 11
-190.0
 21
735.31112800000005
 31
0.0
  0
LINE
  5
65B
  8
SIZE
  6
CONTINUOUS
 62
    30
 10
178.0
 20
715.31112800000005
 30
0.0
 11
-178.0
 21
715.31112800000005
 31
0.0
  0
CIRCLE
  5
65C
  8
SIZE
  6
CONTINUOUS
 62
    30
 10
190.0
 20
715.31112800000005
 30
0.0
 40
6.0
  0
LINE
  5
65D
  8
SIZE
  6
CONTINUOUS
 62
    30
 10
190.0
 20
715.31112800000005
 30
0.0
 11
178.0
 21
715.31112800000005
 31
0.0
  0
CIRCLE
  5
65E
  8
SIZE
  6
CONTINUOUS
 62
    30
 10
-190.0
 20
715.31112800000005
 30
0.0
 40
6.0
  0
LINE
  5
65F
  8
SIZE
  6
CONTINUOUS
 62
    30
 10
-190.0
 20
715.31112800000005
 30
0.0
 11
-178.0
 21
715.31112800000005
 31
0.0
  0
TEXT
  5
660
  8
SIZE
  6
CONTINUOUS
 62
    30
 10
-110.5371428571428
 20
740.31112800000005
 30
0.0
 40
64.0
  1
□380
 41
0.9
 72
     1
 11
0.0
 21
740.31112800000005
 31
0.0
  0
LINE
  5
661
  8
NOTE
  6
CONTINUOUS
 62
     4
 10
-391.04410999999988
 20
303.83135800000002
 30
0.0
 11
-1379.2239999999999
 21
303.83135800000002
 31
0.0
  0
TEXT
  5
662
  8
NOTE
  6
CONTINUOUS
 62
     4
 10
-1353.104
 20
339.02322500000002
 30
0.0
 40
64.0
  1
AH 4-φ15×22(4点吊り)
 41
0.9
  0
LINE
  5
663
  8
DETAIL
  6
CONTINUOUS
 62
     5
 10
-157.5
 20
-295.5
 30
0.0
 11
-13.5
 21
-295.5
 31
0.0
  0
LINE
  5
664
  8
DETAIL
  6
CONTINUOUS
 62
     5
 10
-5.5
 20
-190.0
 30
0.0
 11
172.0
 21
-190.0
 31
0.0
  0
LINE
  5
665
  8
DETAIL
  6
CONTINUOUS
 62
     5
 10
-172.0
 20
190.0
 30
0.0
 11
172.0
 21
190.0
 31
0.0
  0
LINE
  5
666
  8
DETAIL
  6
CONTINUOUS
 62
     5
 10
-190.0
 20
-172.0
 30
0.0
 11
-190.0
 21
172.0
 31
0.0
  0
ARC
  5
667
  8
DETAIL
  6
CONTINUOUS
 62
     5
 10
-172.0
 20
-172.0
 30
0.0
 40
18.0
 50
180.0
 51
270.0
  0
LINE
  5
668
  8
DETAIL
  6
CONTINUOUS
 62
     5
 10
-171.99999800000001
 20
-190.0
 30
0.0
 11
-165.5
 21
-190.0
 31
0.0
  0
ARC
  5
669
  8
DETAIL
  6
CONTINUOUS
 62
     5
 10
-172.0
 20
172.0
 30
0.0
 40
18.0
 50
90.0
 51
180.0
  0
LINE
  5
66A
  8
DETAIL
  6
CONTINUOUS
 62
     5
 10
190.0
 20
-172.0
 30
0.0
 11
190.0
 21
172.0
 31
0.0
  0
ARC
  5
66B
  8
DETAIL
  6
CONTINUOUS
 62
     5
 10
172.0
 20
-172.0
 30
0.0
 40
18.0
 50
270.0
 51
0.0
  0
ARC
  5
66C
  8
DETAIL
  6
CONTINUOUS
 62
     5
 10
172.0
 20
172.0
 30
0.0
 40
18.0
 50
0.0
 51
90.0
  0
TEXT
  5
66D
  8
ETC
  6
CONTINUOUS
 62
    61
 10
773.218079125945
 20
606.05461993980032
 30
0.0
 40
50.0
  1
VD-18ZP7
 41
0.9
  0
TEXT
  5
66E
  8
ETC
  6
CONTINUOUS
 62
    61
 10
776.25524883233993
 20
527.09598344599362
 30
0.0
 40
50.0
  1
VD-20Z7
 41
0.9
  0
TEXT
  5
66F
  8
ETC
  6
CONTINUOUS
 62
    61
 10
779.29241047727874
 20
448.16064676145101
 30
0.0
 40
50.0
  1
VD-20ZL7
 41
0.9
  0
LINE
  5
670
  8
BASIS
  6
DASHDOT
 62
     6
 10
84.500000000000014
 20
2.0
 30
0.0
 11
-38.5
 21
2.0
 31
0.0
  0
CIRCLE
  5
671
  8
ARRANGE
  6
CONTINUOUS
 62
     1
 10
0.0
 20
0.0
 30
0.0
 40
40.0
  0
POINT
  5
672
  8
ARRANGE
  6
CONTINUOUS
 62
     1
 10
0.0
 20
0.0
 30
0.0
  0
LINE
  5
673
  8
OUTLINE
  6
CONTINUOUS
 62
     3
 10
-4.068590004972064
 20
-190.0
 30
0.0
 11
172.0
 21
-190.0
 31
0.0
  0
LINE
  5
674
  8
OUTLINE
  6
CONTINUOUS
 62
     3
 10
-172.0
 20
190.0
 30
0.0
 11
172.0
 21
190.0
 31
0.0
  0
LINE
  5
675
  8
OUTLINE
  6
CONTINUOUS
 62
     3
 10
-190.0
 20
-172.0
 30
0.0
 11
-190.0
 21
172.0
 31
0.0
  0
ARC
  5
676
  8
OUTLINE
  6
CONTINUOUS
 62
     3
 10
-172.0
 20
-172.0
 30
0.0
 40
18.0
 50
180.0
 51
270.0
  0
ARC
  5
677
  8
OUTLINE
  6
CONTINUOUS
 62
     3
 10
-172.0
 20
172.0
 30
0.0
 40
18.0
 50
90.0
 51
180.0
  0
LINE
  5
678
  8
BASIS
  6
DASHDOT
 62
     6
 10
23.0
 20
-59.5
 30
0.0
 11
23.0
 21
63.5
 31
0.0
  0
LINE
  5
679
  8
OUTLINE
  6
CONTINUOUS
 62
     3
 10
190.0
 20
-172.0
 30
0.0
 11
190.0
 21
172.0
 31
0.0
  0
ARC
  5
67A
  8
OUTLINE
  6
CONTINUOUS
 62
     3
 10
172.0
 20
-172.0
 30
0.0
 40
18.0
 50
270.0
 51
0.0
  0
ARC
  5
67B
  8
OUTLINE
  6
CONTINUOUS
 62
     3
 10
172.0
 20
172.0
 30
0.0
 40
18.0
 50
0.0
 51
90.0
  0
LINE
  5
67C
  8
OUTLINE
  6
CONTINUOUS
 62
     3
 39
50.0
 10
-171.99999800000001
 20
-190.0
 30
0.0
 11
-165.5
 21
-190.0
 31
0.0
  0
LINE
  5
67D
  8
OUTLINE
  6
DASHED2
 62
     3
 39
50.0
 10
-5.5
 20
-190.0
 30
0.0
 11
-5.5
 21
-190.0
 31
0.0
  0
LINE
  5
680
  8
OUTLINE
  6
DASHED
 62
     3
 39
50.0
 10
-165.5
 20
-190.0
 30
0.0
 11
-5.5
 21
-190.0
 31
0.0
  0
ENDSEC
  0
EOF
