  0
SECTION
  2
HEADER
  9
$ACADVER
  1
AC1009
  9
$INSBASE
 10
0.0
 20
0.0
 30
0.0
  9
$EXTMIN
 10
-452.79744499999998
 20
-444.01541500000002
 30
0.0
  9
$EXTMAX
 10
1201.5716977142861
 20
771.05774400000075
 30
200.0
  9
$LIMMIN
 10
-2970.0
 20
-2100.0
  9
$LIMMAX
 10
2970.0
 20
2100.0
  9
$ORTHOMODE
 70
     1
  9
$REGENMODE
 70
     1
  9
$FILLMODE
 70
     1
  9
$QTEXTMODE
 70
     0
  9
$MIRRTEXT
 70
     0
  9
$DRAGMODE
 70
     2
  9
$LTSCALE
 40
20.0
  9
$OSMODE
 70
    37
  9
$ATTMODE
 70
     1
  9
$TEXTSIZE
 40
64.0
  9
$TRACEWID
 40
0.05
  9
$TEXTSTYLE
  7
STANDARD
  9
$CLAYER
  8
NOTE
  9
$CELTYPE
  6
CONTINUOUS
  9
$CECOLOR
 62
     7
  9
$DIMSCALE
 40
1.0
  9
$DIMASZ
 40
12.0
  9
$DIMEXO
 40
20.0
  9
$DIMDLI
 40
200.0
  9
$DIMRND
 40
0.0
  9
$DIMDLE
 40
0.0
  9
$DIMEXE
 40
20.0
  9
$DIMTP
 40
0.0
  9
$DIMTM
 40
0.0
  9
$DIMTXT
 40
64.0
  9
$DIMCEN
 40
0.09
  9
$DIMTSZ
 40
0.0
  9
$DIMTOL
 70
     0
  9
$DIMLIM
 70
     0
  9
$DIMTIH
 70
     0
  9
$DIMTOH
 70
     0
  9
$DIMSE1
 70
     0
  9
$DIMSE2
 70
     0
  9
$DIMTAD
 70
     1
  9
$DIMZIN
 70
     8
  9
$DIMBLK
  1
DOT1
  9
$DIMASO
 70
     1
  9
$DIMSHO
 70
     0
  9
$DIMPOST
  1

  9
$DIMAPOST
  1

  9
$DIMALT
 70
     0
  9
$DIMALTD
 70
     2
  9
$DIMALTF
 40
25.399999999999999
  9
$DIMLFAC
 40
1.0
  9
$DIMTOFL
 70
     1
  9
$DIMTVP
 40
0.0
  9
$DIMTIX
 70
     1
  9
$DIMSOXD
 70
     0
  9
$DIMSAH
 70
     1
  9
$DIMBLK1
  1
ORIGIN
  9
$DIMBLK2
  1
ORIGIN
  9
$DIMSTYLE
  2
STANDARD
  9
$DIMCLRD
 70
     7
  9
$DIMCLRE
 70
     7
  9
$DIMCLRT
 70
     7
  9
$DIMTFAC
 40
1.0
  9
$DIMGAP
 40
25.0
  9
$LUNITS
 70
     2
  9
$LUPREC
 70
     4
  9
$SKETCHINC
 40
0.1
  9
$FILLETRAD
 40
1.0
  9
$AUNITS
 70
     1
  9
$AUPREC
 70
     3
  9
$MENU
  1
ACAD
  9
$ELEVATION
 40
0.0
  9
$PELEVATION
 40
0.0
  9
$THICKNESS
 40
50.0
  9
$LIMCHECK
 70
     0
  9
$BLIPMODE
 70
     0
  9
$CHAMFERA
 40
0.0
  9
$CHAMFERB
 40
0.0
  9
$SKPOLY
 70
     0
  9
$TDCREATE
 40
2453019.6230103699
  9
$TDUPDATE
 40
2455618.4736742242
  9
$TDINDWG
 40
1.9405186920999999
  9
$TDUSRTIMER
 40
1.9405186920999999
  9
$USRTIMER
 70
     1
  9
$ANGBASE
 50
0.0
  9
$ANGDIR
 70
     0
  9
$PDMODE
 70
     3
  9
$PDSIZE
 40
-2.0
  9
$PLINEWID
 40
0.0
  9
$COORDS
 70
     1
  9
$SPLFRAME
 70
     0
  9
$SPLINETYPE
 70
     6
  9
$SPLINESEGS
 70
     8
  9
$ATTDIA
 70
     0
  9
$ATTREQ
 70
     1
  9
$HANDLING
 70
 22529
  9
$HANDSEED
  5
1AE
  9
$SURFTAB1
 70
     6
  9
$SURFTAB2
 70
     6
  9
$SURFTYPE
 70
     6
  9
$SURFU
 70
     6
  9
$SURFV
 70
     6
  9
$UCSNAME
  2

  9
$UCSORG
 10
0.0
 20
0.0
 30
0.0
  9
$UCSXDIR
 10
1.0
 20
0.0
 30
0.0
  9
$UCSYDIR
 10
0.0
 20
1.0
 30
0.0
  9
$PUCSNAME
  2

  9
$PUCSORG
 10
0.0
 20
0.0
 30
0.0
  9
$PUCSXDIR
 10
1.0
 20
0.0
 30
0.0
  9
$PUCSYDIR
 10
0.0
 20
1.0
 30
0.0
  9
$USERI1
 70
     0
  9
$USERI2
 70
     0
  9
$USERI3
 70
     0
  9
$USERI4
 70
     0
  9
$USERI5
 70
     0
  9
$USERR1
 40
20.0
  9
$USERR2
 40
0.0
  9
$USERR3
 40
0.0
  9
$USERR4
 40
0.0
  9
$USERR5
 40
0.0
  9
$WORLDVIEW
 70
     1
  9
$SHADEDGE
 70
     3
  9
$SHADEDIF
 70
    70
  9
$TILEMODE
 70
     1
  9
$MAXACTVP
 70
    48
  9
$PLIMCHECK
 70
     0
  9
$PEXTMIN
 10
-1.0000000000000000E+020
 20
-1.0000000000000000E+020
 30
-1.0000000000000000E+020
  9
$PEXTMAX
 10
1.0000000000000000E+020
 20
1.0000000000000000E+020
 30
1.0000000000000000E+020
  9
$PLIMMIN
 10
0.0
 20
0.0
  9
$PLIMMAX
 10
12.0
 20
9.0
  9
$UNITMODE
 70
     0
  9
$VISRETAIN
 70
     0
  9
$PLINEGEN
 70
     0
  9
$PSLTSCALE
 70
     0
  0
ENDSEC
  0
SECTION
  2
TABLES
  0
TABLE
  2
VPORT
 70
     4
  0
VPORT
  2
*ACTIVE
 70
     0
 10
0.0
 20
0.0
 11
1.0
 21
1.0
 12
599.26698826556594
 22
213.27792109859499
 13
0.0
 23
0.0
 14
1.0
 24
1.0
 15
0.0
 25
0.0
 16
0.0
 26
0.0
 36
1.0
 17
0.0
 27
0.0
 37
0.0
 40
1660.682927660408
 41
1.513819095477386
 42
50.0
 43
0.0
 44
0.0
 50
0.0
 51
0.0
 71
     0
 72
  1000
 73
     1
 74
     0
 75
     0
 76
     0
 77
     0
 78
     0
  0
ENDTAB
  0
TABLE
  2
LTYPE
 70
     2
  0
LTYPE
  2
CONTINUOUS
 70
     0
  3
Ä└É³
 72
    65
 73
     0
 40
0.0
  0
LTYPE
  2
DASHDOT
 70
     0
  3
____ _ ____ _ ____ _ ____ _ ____ _ ____ _ ____
 72
    65
 73
     4
 40
5.5
 49
4.0
 49
-0.6
 49
0.3
 49
-0.6
  0
ENDTAB
  0
TABLE
  2
LAYER
 70
    12
  0
LAYER
  2
0
 70
     0
 62
     7
  6
CONTINUOUS
  0
LAYER
  2
NOTE
 70
     0
 62
     4
  6
CONTINUOUS
  0
LAYER
  2
BASIS
 70
     0
 62
     6
  6
DASHDOT
  0
LAYER
  2
OUTLINE
 70
     0
 62
     3
  6
CONTINUOUS
  0
LAYER
  2
DETAIL
 70
     0
 62
     5
  6
CONTINUOUS
  0
LAYER
  2
SIZE
 70
     0
 62
    30
  6
CONTINUOUS
  0
LAYER
  2
ARRANGE
 70
     0
 62
     1
  6
CONTINUOUS
  0
LAYER
  2
DEFPOINTS
 70
     0
 62
     7
  6
CONTINUOUS
  0
LAYER
  2
ETC
 70
     0
 62
    61
  6
CONTINUOUS
  0
LAYER
  2
FIX
 70
     0
 62
    11
  6
CONTINUOUS
  0
LAYER
  2
SERVICESPACE
 70
     0
 62
     2
  6
DASHDOT
  0
LAYER
  2
SYMBOLLINE
 70
     0
 62
    15
  6
CONTINUOUS
  0
ENDTAB
  0
TABLE
  2
STYLE
 70
     1
  0
STYLE
  2
STANDARD
 70
     0
 40
64.0
 41
0.9
 50
0.0
 71
     0
 42
64.0
  3
SIMPLEX.shx
  4
BIGFONT.shx
  0
ENDTAB
  0
TABLE
  2
VIEW
 70
     1
  0
VIEW
  2
ALL
 70
     0
 40
4282.6198080000004
 10
0.0
 20
41.309904000000003
 41
5940.0
 11
0.0
 21
0.0
 31
1.0
 12
0.0
 22
0.0
 32
0.0
 42
50.0
 43
0.0
 44
0.0
 50
0.0
 71
     0
  0
ENDTAB
  0
TABLE
  2
UCS
 70
     0
  0
ENDTAB
  0
TABLE
  2
APPID
 70
    15
  0
APPID
  2
ACAD
 70
     0
  0
APPID
  2
AUTOCAD_POSTSCRIPT_FIGURE
 70
     0
  0
APPID
  2
ACAD_EXEMPT_FROM_CAD_STANDARDS
 70
     0
  0
APPID
  2
ACAD_PSEXT
 70
     0
  0
APPID
  2
ACAUTHENVIRON
 70
     0
  0
APPID
  2
GENIUS_GENOENT_13
 70
     0
  0
APPID
  2
GENIUS_GENCFG_13
 70
     0
  0
APPID
  2
GENIUS_GENCFG0_13
 70
     0
  0
APPID
  2
GENIUS_GENCFG1_13
 70
     0
  0
APPID
  2
GENIUS_GENCFG2_13
 70
     0
  0
APPID
  2
GENIUS_GENCFG3_13
 70
     0
  0
APPID
  2
GENIUS_GENCFG4_13
 70
     0
  0
APPID
  2
GENIUS_GEVCFG0_13
 70
     0
  0
APPID
  2
CONTENTBLOCKICON
 70
     0
  0
APPID
  2
CONTENTBLOCKDESCRIPTION
 70
     0
  0
ENDTAB
  0
TABLE
  2
DIMSTYLE
 70
     1
  0
DIMSTYLE
  2
STANDARD
 70
     0
  3

  4

  5

  6

  7

 40
1.0
 41
0.18
 42
0.0625
 43
0.38
 44
0.18
 45
0.0
 46
0.0
 47
0.0
 48
0.0
140
0.18
141
0.09
142
0.0
143
25.399999999999999
144
1.0
145
0.0
146
1.0
147
0.09
 71
     0
 72
     0
 73
     1
 74
     1
 75
     0
 76
     0
 77
     0
 78
     0
170
     0
171
     2
172
     0
173
     0
174
     0
175
     0
176
     7
177
     7
178
     7
  0
ENDTAB
  0
ENDSEC
  0
SECTION
  2
BLOCKS
  0
BLOCK
  8
0
  2
$MODEL_SPACE
 70
     0
 10
0.0
 20
0.0
 30
0.0
  3
$MODEL_SPACE
  1

  0
ENDBLK
  5
20
  8
0
  0
BLOCK
 67
     1
  8
0
  2
$PAPER_SPACE
 70
     0
 10
0.0
 20
0.0
 30
0.0
  3
$PAPER_SPACE
  1

  0
ENDBLK
  5
1C
 67
     1
  8
0
  0
BLOCK
  8
0
  2
DOT1
 70
     0
 10
0.0
 20
0.0
 30
0.0
  3
DOT1
  1

  0
CIRCLE
  5
43
  8
SIZE
  6
CONTINUOUS
 62
     7
 10
0.0
 20
0.0
 30
0.0
 40
3.0
  0
ENDBLK
  5
44
  8
0
  0
BLOCK
  8
0
  2
_ORIGIN
 70
     0
 10
0.0
 20
0.0
 30
0.0
  3
_ORIGIN
  1

  0
CIRCLE
  5
47
  8
0
  6
CONTINUOUS
 62
     7
 10
0.0
 20
0.0
 30
0.0
 40
0.5
  0
LINE
  5
48
  8
0
  6
CONTINUOUS
 62
     7
 10
0.0
 20
0.0
 30
0.0
 11
-1.0
 21
0.0
 31
0.0
  0
ENDBLK
  5
49
  8
0
  0
ENDSEC
  0
SECTION
  2
ENTITIES
  0
TEXT
  5
4A
  8
ETC
  6
CONTINUOUS
 62
    61
 10
419.8574119999999
 20
707.05774399999996
 30
0.0
 40
64.0
  1
VD-18ZSVC2_2
 41
0.9
  0
TEXT
  5
4B
  8
ETC
  6
CONTINUOUS
 62
    61
 10
523.46131300000002
 20
572.48754399999984
 30
0.0
 40
64.0
  1
èÀïCÉ¯
 41
0.9
  0
TEXT
  5
4C
  8
ETC
  6
CONTINUOUS
 62
    61
 10
649.11280189330216
 20
496.82161760970791
 30
0.0
 40
40.0
  1
VD-18ZLSC9-S
 41
0.9
  0
CIRCLE
  5
4D
  8
ARRANGE
  6
CONTINUOUS
 62
     1
 10
0.0
 20
0.0
 30
0.0
 40
40.0
  0
POINT
  5
4E
  8
ARRANGE
  6
CONTINUOUS
 62
     1
 10
0.0
 20
0.0
 30
0.0
 39
50.0
  0
TEXT
  5
4F
  8
NOTE
  6
CONTINUOUS
 62
     4
 10
-46.375095999999999
 20
123.495187
 30
0.0
 40
64.0
  1
EA
 41
0.9
  0
LINE
  5
50
  8
NOTE
  6
CONTINUOUS
 62
     4
 39
200.0
 10
97.129261
 20
-8.1817510000000002
 30
0.0
 11
97.129261
 21
9.8182489999999998
 31
0.0
  0
LINE
  5
51
  8
NOTE
  6
CONTINUOUS
 62
     4
 39
200.0
 10
165.0
 20
10.0
 30
0.0
 11
165.0
 21
-8.0
 31
0.0
  0
LINE
  5
52
  8
NOTE
  6
CONTINUOUS
 62
     4
 39
200.0
 10
-102.870739
 20
-8.1817510000000002
 30
0.0
 11
-102.870739
 21
9.8182489999999998
 31
0.0
  0
LINE
  5
53
  8
NOTE
  6
CONTINUOUS
 62
     4
 39
200.0
 10
-165.0
 20
10.0
 30
0.0
 11
-165.0
 21
-8.0
 31
0.0
  0
CIRCLE
  5
54
  8
FIX
  6
CONTINUOUS
 62
    11
 39
50.0
 10
97.129261
 20
0.0
 30
0.0
 40
2.5
  0
CIRCLE
  5
55
  8
FIX
  6
CONTINUOUS
 62
    11
 39
50.0
 10
165.0
 20
0.0
 30
0.0
 40
2.5
  0
CIRCLE
  5
56
  8
FIX
  6
CONTINUOUS
 62
    11
 39
50.0
 10
-165.0
 20
0.0
 30
0.0
 40
2.5
  0
CIRCLE
  5
57
  8
FIX
  6
CONTINUOUS
 62
    11
 39
50.0
 10
-102.870739
 20
0.0
 30
0.0
 40
2.5
  0
TEXT
  5
58
  8
NOTE
  6
CONTINUOUS
 62
     4
 10
256.58495299999993
 20
305.67643700000002
 30
0.0
 40
64.0
  1
AH 4-âË15ü~22
 41
0.9
  0
LINE
  5
59
  8
NOTE
  6
CONTINUOUS
 62
     4
 39
50.0
 10
248.15489699999989
 20
294.54098199999999
 30
0.0
 11
886.20742700000005
 21
294.54098199999999
 31
0.0
  0
LINE
  5
5A
  8
NOTE
  6
CONTINUOUS
 62
     4
 39
50.0
 10
248.15489699999989
 20
294.54098199999999
 30
0.0
 11
188.1806
 21
176.1641909999999
 31
0.0
  0
LINE
  5
5B
  8
NOTE
  6
CONTINUOUS
 62
     4
 39
50.0
 10
188.1806
 20
176.1641909999999
 30
0.0
 11
197.867332
 21
185.99228500000001
 31
0.0
  0
LINE
  5
5C
  8
NOTE
  6
CONTINUOUS
 62
     4
 39
50.0
 10
188.1806
 20
176.1641909999999
 30
0.0
 11
191.9088659999999
 21
189.450433
 31
0.0
  0
ARC
  5
5D
  8
OUTLINE
  6
CONTINUOUS
 62
     3
 10
150.118111
 20
183.515466
 30
0.0
 40
1.220472
 50
0.0
 51
90.0
  0
ARC
  5
5E
  8
OUTLINE
  6
CONTINUOUS
 62
     3
 10
150.118111
 20
183.515466
 30
0.0
 40
1.220472
 50
0.0
 51
90.0
  0
LINE
  5
5F
  8
OUTLINE
  6
CONTINUOUS
 62
     3
 10
193.758521
 20
0.0
 30
0.0
 11
151.33858399999991
 21
0.0
 31
0.0
  0
LINE
  5
60
  8
BASIS
  6
DASHDOT
 62
     6
 10
0.0
 20
215.01898600000001
 30
0.0
 11
0.0
 21
-50.112684999999992
 31
0.0
  0
LINE
  5
61
  8
OUTLINE
  6
CONTINUOUS
 62
     3
 10
149.50789
 20
-20.409465999999991
 30
0.0
 11
-149.5078509999999
 21
-20.409465999999991
 31
0.0
  0
LINE
  5
62
  8
OUTLINE
  6
CONTINUOUS
 62
     3
 10
-193.758521
 20
0.0
 30
0.0
 11
-151.33858399999991
 21
0.0
 31
0.0
  0
ARC
  5
63
  8
OUTLINE
  6
CONTINUOUS
 62
     3
 10
-154.94534999999999
 20
49.240042000000003
 30
0.0
 40
69.680452999999986
 50
238.33815100000001
 51
271.96256799999998
  0
ARC
  5
64
  8
OUTLINE
  6
CONTINUOUS
 62
     3
 10
-187.45274199999989
 20
-3.9801999999999991
 30
0.0
 40
7.3228350000000004
 50
179.99998199999999
 51
236.25090700000001
  0
ARC
  5
65
  8
OUTLINE
  6
CONTINUOUS
 62
     3
 10
-193.758521
 20
-1.0170600000000001
 30
0.0
 40
1.0170600000000001
 50
90.0
 51
180.0
  0
LINE
  5
66
  8
OUTLINE
  6
CONTINUOUS
 62
     3
 10
-194.77558200000001
 20
-1.0170600000000001
 30
0.0
 11
-194.77558200000001
 21
-3.9801999999999991
 31
0.0
  0
LINE
  5
67
  8
OUTLINE
  6
CONTINUOUS
 62
     3
 10
-149.5078509999999
 20
-20.409465999999991
 30
0.0
 11
-149.5078509999999
 21
-19.188992999999989
 31
0.0
  0
LINE
  5
68
  8
OUTLINE
  6
CONTINUOUS
 62
     3
 10
-152.55903299999991
 20
-19.188992999999989
 30
0.0
 11
-149.5078509999999
 21
-19.188992999999989
 31
0.0
  0
LINE
  5
69
  8
OUTLINE
  6
CONTINUOUS
 62
     3
 10
-152.55903299999991
 20
-20.399536999999992
 30
0.0
 11
-152.55903299999991
 21
-19.188992999999989
 31
0.0
  0
LINE
  5
6A
  8
OUTLINE
  6
CONTINUOUS
 62
     3
 10
149.5078509999999
 20
-20.409465999999991
 30
0.0
 11
149.5078509999999
 21
-19.188992999999989
 31
0.0
  0
LINE
  5
6B
  8
OUTLINE
  6
CONTINUOUS
 62
     3
 10
-17.740065000000001
 20
184.73593799999989
 30
0.0
 11
-150.118111
 21
184.73593799999989
 31
0.0
  0
LINE
  5
6C
  8
BASIS
  6
DASHDOT
 62
     6
 10
107.98432
 20
109.0
 30
0.0
 11
-107.98432
 21
109.0
 31
0.0
  0
LINE
  5
6D
  8
OUTLINE
  6
CONTINUOUS
 62
     3
 10
-154.99745100000001
 20
0.078397
 30
0.0
 11
-151.33858399999991
 21
183.515466
 31
0.0
  0
LINE
  5
6E
  8
NOTE
  6
CONTINUOUS
 62
     4
 10
-170.52028300000001
 20
193.282186
 30
0.0
 11
-171.24513999999991
 21
151.75515300000001
 31
0.0
  0
ARC
  5
6F
  8
OUTLINE
  6
CONTINUOUS
 62
     3
 10
-150.118111
 20
183.515466
 30
0.0
 40
1.220472
 50
90.0
 51
180.0
  0
ARC
  5
70
  8
OUTLINE
  6
CONTINUOUS
 62
     3
 10
-150.118111
 20
183.515466
 30
0.0
 40
1.220472
 50
90.0
 51
180.0
  0
LINE
  5
71
  8
OUTLINE
  6
CONTINUOUS
 62
     3
 10
-116.55509600000001
 20
197.5508989999999
 30
0.0
 11
-122.04722199999991
 21
197.5508989999999
 31
0.0
  0
LINE
  5
72
  8
OUTLINE
  6
CONTINUOUS
 62
     3
 10
-126.71148599999989
 20
184.73593799999989
 30
0.0
 11
-122.04722199999991
 21
197.5508989999999
 31
0.0
  0
LINE
  5
73
  8
OUTLINE
  6
CONTINUOUS
 62
     3
 10
-122.04722199999991
 20
197.5508989999999
 30
0.0
 11
-122.131531
 21
184.73593799999989
 31
0.0
  0
LINE
  5
74
  8
OUTLINE
  6
CONTINUOUS
 62
     3
 10
-116.55509600000001
 20
197.5508989999999
 30
0.0
 11
-116.470787
 21
184.73593799999989
 31
0.0
  0
LINE
  5
75
  8
OUTLINE
  6
CONTINUOUS
 62
     3
 10
-92.973507999999995
 20
184.73593799999989
 30
0.0
 11
-97.637772999999996
 21
197.5508989999999
 31
0.0
  0
LINE
  5
76
  8
OUTLINE
  6
CONTINUOUS
 62
     3
 10
-97.637772999999996
 20
197.5508989999999
 30
0.0
 11
-103.12989899999999
 21
197.5508989999999
 31
0.0
  0
LINE
  5
77
  8
OUTLINE
  6
CONTINUOUS
 62
     3
 10
-103.12989899999999
 20
197.5508989999999
 30
0.0
 11
-103.214208
 21
184.73593799999989
 31
0.0
  0
LINE
  5
78
  8
OUTLINE
  6
CONTINUOUS
 62
     3
 10
-97.637772999999996
 20
197.5508989999999
 30
0.0
 11
-97.553464000000005
 21
184.73593799999989
 31
0.0
  0
LINE
  5
79
  8
OUTLINE
  6
CONTINUOUS
 62
     3
 10
64.118018000000006
 20
184.73593799999989
 30
0.0
 11
150.118111
 21
184.73593799999989
 31
0.0
  0
LINE
  5
7A
  8
OUTLINE
  6
CONTINUOUS
 62
     3
 10
57.405419000000002
 20
199.940665
 30
0.0
 11
23.188977000000001
 21
199.940665
 31
0.0
  0
LINE
  5
7B
  8
OUTLINE
  6
CONTINUOUS
 62
     3
 10
-11.027466
 20
199.940665
 30
0.0
 11
23.188977000000001
 21
199.940665
 31
0.0
  0
ARC
  5
7C
  8
OUTLINE
  6
CONTINUOUS
 62
     3
 10
-11.027466
 20
193.22808499999991
 30
0.0
 40
6.7126010000000003
 50
90.0
 51
179.999999
  0
LINE
  5
7D
  8
OUTLINE
  6
CONTINUOUS
 62
     3
 10
-17.740065000000001
 20
184.73593799999989
 30
0.0
 11
-17.740065000000001
 21
193.22808499999991
 31
0.0
  0
LINE
  5
7E
  8
OUTLINE
  6
CONTINUOUS
 62
     3
 10
97.637772999999996
 20
197.5508989999999
 30
0.0
 11
103.12989899999999
 21
197.5508989999999
 31
0.0
  0
ARC
  5
7F
  8
OUTLINE
  6
CONTINUOUS
 62
     3
 10
57.405419000000002
 20
193.22808499999991
 30
0.0
 40
6.7126010000000003
 50
0.000001
 51
90.0
  0
LINE
  5
80
  8
OUTLINE
  6
CONTINUOUS
 62
     3
 10
64.118018000000006
 20
184.73593799999989
 30
0.0
 11
64.118018000000006
 21
193.22808499999991
 31
0.0
  0
LINE
  5
81
  8
OUTLINE
  6
CONTINUOUS
 62
     3
 10
92.973507999999995
 20
184.73593799999989
 30
0.0
 11
97.637772999999996
 21
197.5508989999999
 31
0.0
  0
LINE
  5
82
  8
OUTLINE
  6
CONTINUOUS
 62
     3
 10
97.637772999999996
 20
197.5508989999999
 30
0.0
 11
97.553464000000005
 21
184.73593799999989
 31
0.0
  0
LINE
  5
83
  8
OUTLINE
  6
CONTINUOUS
 62
     3
 10
116.55509600000001
 20
197.5508989999999
 30
0.0
 11
122.04722199999991
 21
197.5508989999999
 31
0.0
  0
LINE
  5
84
  8
OUTLINE
  6
CONTINUOUS
 62
     3
 10
126.71148599999989
 20
184.73593799999989
 30
0.0
 11
122.04722199999991
 21
197.5508989999999
 31
0.0
  0
LINE
  5
85
  8
OUTLINE
  6
CONTINUOUS
 62
     3
 10
122.04722199999991
 20
197.5508989999999
 30
0.0
 11
122.131531
 21
184.73593799999989
 31
0.0
  0
LINE
  5
86
  8
OUTLINE
  6
CONTINUOUS
 62
     3
 10
116.55509600000001
 20
197.5508989999999
 30
0.0
 11
116.470787
 21
184.73593799999989
 31
0.0
  0
LINE
  5
87
  8
OUTLINE
  6
CONTINUOUS
 62
     3
 10
103.12989899999999
 20
197.5508989999999
 30
0.0
 11
103.214208
 21
184.73593799999989
 31
0.0
  0
ARC
  5
88
  8
OUTLINE
  6
CONTINUOUS
 62
     3
 10
187.45274199999989
 20
-3.9801999999999991
 30
0.0
 40
7.3228350000000004
 50
303.74909300000002
 51
0.000018
  0
ARC
  5
89
  8
OUTLINE
  6
CONTINUOUS
 62
     3
 10
154.94534999999999
 20
49.240042000000003
 30
0.0
 40
69.680452999999986
 50
268.03743200000002
 51
301.66184900000002
  0
LINE
  5
8A
  8
OUTLINE
  6
CONTINUOUS
 62
     3
 10
152.55903299999991
 20
-20.399536999999992
 30
0.0
 11
152.55903299999991
 21
-19.188992999999989
 31
0.0
  0
LINE
  5
8B
  8
OUTLINE
  6
CONTINUOUS
 62
     3
 10
194.77558200000001
 20
-1.0170600000000001
 30
0.0
 11
194.77558200000001
 21
-3.9801999999999991
 31
0.0
  0
ARC
  5
8C
  8
OUTLINE
  6
CONTINUOUS
 62
     3
 10
193.758521
 20
-1.0170600000000001
 30
0.0
 40
1.0170600000000001
 50
0.0
 51
90.0
  0
LINE
  5
8D
  8
OUTLINE
  6
CONTINUOUS
 62
     3
 10
154.99745100000001
 20
0.078397
 30
0.0
 11
151.33858399999991
 21
183.515466
 31
0.0
  0
LINE
  5
8E
  8
NOTE
  6
CONTINUOUS
 62
     4
 10
170.52028300000001
 20
193.282186
 30
0.0
 11
171.24513999999991
 21
151.75515300000001
 31
0.0
  0
LINE
  5
8F
  8
SIZE
  6
CONTINUOUS
 62
    30
 10
-102.870739
 20
-28.181750999999991
 30
0.0
 11
-102.870739
 21
-188.382138
 31
0.0
  0
LINE
  5
90
  8
SIZE
  6
CONTINUOUS
 62
    30
 10
97.129261
 20
-28.181750999999991
 30
0.0
 11
97.129261
 21
-188.382138
 31
0.0
  0
LINE
  5
91
  8
SIZE
  6
CONTINUOUS
 62
    30
 10
-90.870739
 20
-168.38213799999991
 30
0.0
 11
85.129260999999985
 21
-168.38213799999991
 31
0.0
  0
CIRCLE
  5
92
  8
SIZE
  6
CONTINUOUS
 62
    30
 10
-102.870739
 20
-168.38213799999991
 30
0.0
 40
6.0
  0
LINE
  5
93
  8
SIZE
  6
CONTINUOUS
 62
    30
 10
-102.870739
 20
-168.38213799999991
 30
0.0
 11
-90.870739
 21
-168.38213799999991
 31
0.0
  0
CIRCLE
  5
94
  8
SIZE
  6
CONTINUOUS
 62
    30
 10
97.129261
 20
-168.38213799999991
 30
0.0
 40
6.0
  0
LINE
  5
95
  8
SIZE
  6
CONTINUOUS
 62
    30
 10
97.129261
 20
-168.38213799999991
 30
0.0
 11
85.129260999999985
 21
-168.38213799999991
 31
0.0
  0
TEXT
  5
96
  8
SIZE
  6
CONTINUOUS
 62
    30
 10
-76.92788185714285
 20
-143.38213799999991
 30
0.0
 40
64.0
  1
200
 41
0.9
 72
     1
 11
-2.8707389999999999
 21
-143.38213799999991
 31
0.0
  0
POINT
  5
97
  8
DEFPOINTS
  6
CONTINUOUS
 62
    30
 10
-102.870739
 20
-8.1817510000000002
 30
0.0
  0
POINT
  5
98
  8
DEFPOINTS
  6
CONTINUOUS
 62
    30
 10
97.129261
 20
-8.1817510000000002
 30
0.0
  0
POINT
  5
99
  8
DEFPOINTS
  6
CONTINUOUS
 62
    30
 10
97.129261
 20
-168.38213799999991
 30
0.0
  0
LINE
  5
9A
  8
SIZE
  6
CONTINUOUS
 62
    30
 10
-154.99940099999989
 20
20.0
 30
0.0
 11
-154.99940099999989
 21
406.75680199999999
 31
0.0
  0
LINE
  5
9B
  8
SIZE
  6
CONTINUOUS
 62
    30
 10
155.0005909999999
 20
19.931839
 30
0.0
 11
155.0005909999999
 21
406.75680199999999
 31
0.0
  0
LINE
  5
9C
  8
SIZE
  6
CONTINUOUS
 62
    30
 10
-142.99940100000001
 20
386.75680199999999
 30
0.0
 11
143.00059099999999
 21
386.75680199999999
 31
0.0
  0
CIRCLE
  5
9D
  8
SIZE
  6
CONTINUOUS
 62
    30
 10
-154.99940099999989
 20
386.75680199999999
 30
0.0
 40
6.0
  0
LINE
  5
9E
  8
SIZE
  6
CONTINUOUS
 62
    30
 10
-154.99940099999989
 20
386.75680199999999
 30
0.0
 11
-142.99940100000001
 21
386.75680199999999
 31
0.0
  0
CIRCLE
  5
9F
  8
SIZE
  6
CONTINUOUS
 62
    30
 10
155.0005909999999
 20
386.75680199999999
 30
0.0
 40
6.0
  0
LINE
  5
A0
  8
SIZE
  6
CONTINUOUS
 62
    30
 10
155.0005909999999
 20
386.75680199999999
 30
0.0
 11
143.00059099999999
 21
386.75680199999999
 31
0.0
  0
TEXT
  5
A1
  8
SIZE
  6
CONTINUOUS
 62
    30
 10
-105.0508335714285
 20
411.75680199999999
 30
0.0
 40
64.0
  1
üá310
 41
0.9
 72
     1
 11
0.0005950000000041
 21
411.75680199999999
 31
0.0
  0
POINT
  5
A2
  8
DEFPOINTS
  6
CONTINUOUS
 62
    30
 10
-154.99940099999989
 20
0.0
 30
0.0
  0
POINT
  5
A3
  8
DEFPOINTS
  6
CONTINUOUS
 62
    30
 10
155.0005909999999
 20
-0.068161
 30
0.0
  0
POINT
  5
A4
  8
DEFPOINTS
  6
CONTINUOUS
 62
    30
 10
155.0005909999999
 20
386.75680199999999
 30
0.0
  0
LINE
  5
A5
  8
SIZE
  6
CONTINUOUS
 62
    30
 10
-165.0
 20
-28.0
 30
0.0
 11
-165.0
 21
-316.68388299999992
 31
0.0
  0
LINE
  5
A6
  8
SIZE
  6
CONTINUOUS
 62
    30
 10
165.0
 20
-28.0
 30
0.0
 11
165.0
 21
-316.68388299999992
 31
0.0
  0
LINE
  5
A7
  8
SIZE
  6
CONTINUOUS
 62
    30
 10
-153.0
 20
-296.68388299999998
 30
0.0
 11
153.0
 21
-296.68388299999998
 31
0.0
  0
CIRCLE
  5
A8
  8
SIZE
  6
CONTINUOUS
 62
    30
 10
-165.0
 20
-296.68388299999998
 30
0.0
 40
6.0
  0
LINE
  5
A9
  8
SIZE
  6
CONTINUOUS
 62
    30
 10
-165.0
 20
-296.68388299999998
 30
0.0
 11
-153.0
 21
-296.68388299999998
 31
0.0
  0
CIRCLE
  5
AA
  8
SIZE
  6
CONTINUOUS
 62
    30
 10
165.0
 20
-296.68388299999998
 30
0.0
 40
6.0
  0
LINE
  5
AB
  8
SIZE
  6
CONTINUOUS
 62
    30
 10
165.0
 20
-296.68388299999998
 30
0.0
 11
153.0
 21
-296.68388299999998
 31
0.0
  0
TEXT
  5
AC
  8
SIZE
  6
CONTINUOUS
 62
    30
 10
-74.057142857142864
 20
-271.68388299999998
 30
0.0
 40
64.0
  1
330
 41
0.9
 72
     1
 11
0.0
 21
-271.68388299999998
 31
0.0
  0
POINT
  5
AD
  8
DEFPOINTS
  6
CONTINUOUS
 62
    30
 10
-165.0
 20
-8.0
 30
0.0
  0
POINT
  5
AE
  8
DEFPOINTS
  6
CONTINUOUS
 62
    30
 10
165.0
 20
-8.0
 30
0.0
  0
POINT
  5
AF
  8
DEFPOINTS
  6
CONTINUOUS
 62
    30
 10
165.0
 20
-296.68388299999998
 30
0.0
  0
LINE
  5
B0
  8
SIZE
  6
CONTINUOUS
 62
    30
 10
-194.77558200000001
 20
-23.498629999999999
 30
0.0
 11
-194.77558200000001
 21
-444.01541500000002
 31
0.0
  0
LINE
  5
B1
  8
SIZE
  6
CONTINUOUS
 62
    30
 10
194.77558200000001
 20
-23.498629999999999
 30
0.0
 11
194.77558200000001
 21
-444.01541500000002
 31
0.0
  0
LINE
  5
B2
  8
SIZE
  6
CONTINUOUS
 62
    30
 10
-182.77558200000001
 20
-424.01541500000002
 30
0.0
 11
182.77558200000001
 21
-424.01541500000002
 31
0.0
  0
CIRCLE
  5
B3
  8
SIZE
  6
CONTINUOUS
 62
    30
 10
-194.77558200000001
 20
-424.01541500000002
 30
0.0
 40
6.0
  0
LINE
  5
B4
  8
SIZE
  6
CONTINUOUS
 62
    30
 10
-194.77558200000001
 20
-424.01541500000002
 30
0.0
 11
-182.77558200000001
 21
-424.01541500000002
 31
0.0
  0
CIRCLE
  5
B5
  8
SIZE
  6
CONTINUOUS
 62
    30
 10
194.77558200000001
 20
-424.01541500000002
 30
0.0
 40
6.0
  0
LINE
  5
B6
  8
SIZE
  6
CONTINUOUS
 62
    30
 10
194.77558200000001
 20
-424.01541500000002
 30
0.0
 11
182.77558200000001
 21
-424.01541500000002
 31
0.0
  0
TEXT
  5
B7
  8
SIZE
  6
CONTINUOUS
 62
    30
 10
-110.5371428571428
 20
-399.01541500000002
 30
0.0
 40
64.0
  1
üá390
 41
0.9
 72
     1
 11
0.0
 21
-399.01541500000002
 31
0.0
  0
POINT
  5
B8
  8
DEFPOINTS
  6
CONTINUOUS
 62
    30
 10
-194.77558200000001
 20
-3.498629999999999
 30
0.0
  0
POINT
  5
B9
  8
DEFPOINTS
  6
CONTINUOUS
 62
    30
 10
194.77558200000001
 20
-3.498629999999999
 30
0.0
  0
POINT
  5
BA
  8
DEFPOINTS
  6
CONTINUOUS
 62
    30
 10
194.77558200000001
 20
-424.01541500000002
 30
0.0
  0
LINE
  5
BB
  8
SIZE
  6
CONTINUOUS
 62
    30
 10
-17.740067
 20
213.22808499999991
 30
0.0
 11
-17.740067
 21
283.82254599999987
 31
0.0
  0
LINE
  5
BC
  8
SIZE
  6
CONTINUOUS
 62
    30
 10
64.118018000000006
 20
213.22808499999991
 30
0.0
 11
64.118018000000006
 21
283.82254599999987
 31
0.0
  0
LINE
  5
BD
  8
SIZE
  6
CONTINUOUS
 62
    30
 10
-29.740067
 20
263.82254599999999
 30
0.0
 11
-41.740067000000003
 21
263.82254599999999
 31
0.0
  0
LINE
  5
BE
  8
SIZE
  6
CONTINUOUS
 62
    30
 10
76.118018000000006
 20
263.82254599999999
 30
0.0
 11
88.118018000000006
 21
263.82254599999999
 31
0.0
  0
LINE
  5
BF
  8
SIZE
  6
CONTINUOUS
 62
    30
 10
-17.740067
 20
263.82254599999999
 30
0.0
 11
64.118018000000006
 21
263.82254599999999
 31
0.0
  0
CIRCLE
  5
C0
  8
SIZE
  6
CONTINUOUS
 62
    30
 10
-17.740067
 20
263.82254599999999
 30
0.0
 40
6.0
  0
LINE
  5
C1
  8
SIZE
  6
CONTINUOUS
 62
    30
 10
-17.740067
 20
263.82254599999999
 30
0.0
 11
-29.740067
 21
263.82254599999999
 31
0.0
  0
CIRCLE
  5
C2
  8
SIZE
  6
CONTINUOUS
 62
    30
 10
64.118018000000006
 20
263.82254599999999
 30
0.0
 40
6.0
  0
LINE
  5
C3
  8
SIZE
  6
CONTINUOUS
 62
    30
 10
64.118018000000006
 20
263.82254599999999
 30
0.0
 11
76.118018000000006
 21
263.82254599999999
 31
0.0
  0
TEXT
  5
C4
  8
SIZE
  6
CONTINUOUS
 62
    30
 10
-63.759596428571392
 20
288.82254599999999
 30
0.0
 40
64.0
  1
âË82
 41
0.9
 72
     1
 11
23.188974999999989
 21
288.82254599999999
 31
0.0
  0
POINT
  5
C5
  8
DEFPOINTS
  6
CONTINUOUS
 62
    30
 10
-17.740067
 20
193.22808499999991
 30
0.0
  0
POINT
  5
C6
  8
DEFPOINTS
  6
CONTINUOUS
 62
    30
 10
64.118018000000006
 20
193.22808499999991
 30
0.0
  0
POINT
  5
C7
  8
DEFPOINTS
  6
CONTINUOUS
 62
    30
 10
64.118018000000006
 20
263.82254599999999
 30
0.0
  0
LINE
  5
C8
  8
SIZE
  6
CONTINUOUS
 62
    30
 10
-170.52028300000001
 20
213.28218599999991
 30
0.0
 11
-170.52028300000001
 21
525.45568999999989
 31
0.0
  0
LINE
  5
C9
  8
SIZE
  6
CONTINUOUS
 62
    30
 10
170.41640599999999
 20
219.23325799999989
 30
0.0
 11
170.41640599999999
 21
525.45568999999989
 31
0.0
  0
LINE
  5
CA
  8
SIZE
  6
CONTINUOUS
 62
    30
 10
-158.52028300000001
 20
505.45569
 30
0.0
 11
158.41640599999991
 21
505.45569
 31
0.0
  0
CIRCLE
  5
CB
  8
SIZE
  6
CONTINUOUS
 62
    30
 10
-170.52028300000001
 20
505.45569
 30
0.0
 40
6.0
  0
LINE
  5
CC
  8
SIZE
  6
CONTINUOUS
 62
    30
 10
-170.52028300000001
 20
505.45569
 30
0.0
 11
-158.52028300000001
 21
505.45569
 31
0.0
  0
CIRCLE
  5
CD
  8
SIZE
  6
CONTINUOUS
 62
    30
 10
170.41640599999999
 20
505.45569
 30
0.0
 40
6.0
  0
LINE
  5
CE
  8
SIZE
  6
CONTINUOUS
 62
    30
 10
170.41640599999999
 20
505.45569
 30
0.0
 11
158.41640599999991
 21
505.45569
 31
0.0
  0
TEXT
  5
CF
  8
SIZE
  6
CONTINUOUS
 62
    30
 10
-61.766223714285708
 20
530.45569
 30
0.0
 40
64.0
  1
341
 41
0.9
 72
     1
 11
-0.0519380000000069
 21
530.45569
 31
0.0
  0
POINT
  5
D0
  8
DEFPOINTS
  6
CONTINUOUS
 62
    30
 10
-170.52028300000001
 20
193.282186
 30
0.0
  0
POINT
  5
D1
  8
DEFPOINTS
  6
CONTINUOUS
 62
    30
 10
170.41640599999999
 20
199.23325800000001
 30
0.0
  0
POINT
  5
D2
  8
DEFPOINTS
  6
CONTINUOUS
 62
    30
 10
170.41640599999999
 20
505.45569
 30
0.0
  0
LINE
  5
D3
  8
SIZE
  6
CONTINUOUS
 62
    30
 10
-188.1806
 20
196.1641909999999
 30
0.0
 11
-188.1806
 21
650.62906799999985
 31
0.0
  0
LINE
  5
D4
  8
SIZE
  6
CONTINUOUS
 62
    30
 10
188.1806
 20
196.1641909999999
 30
0.0
 11
188.1806
 21
650.62906799999985
 31
0.0
  0
LINE
  5
D5
  8
SIZE
  6
CONTINUOUS
 62
    30
 10
-176.18059999999991
 20
630.62906799999996
 30
0.0
 11
176.18059999999991
 21
630.62906799999996
 31
0.0
  0
CIRCLE
  5
D6
  8
SIZE
  6
CONTINUOUS
 62
    30
 10
-188.1806
 20
630.62906799999996
 30
0.0
 40
6.0
  0
LINE
  5
D7
  8
SIZE
  6
CONTINUOUS
 62
    30
 10
-188.1806
 20
630.62906799999996
 30
0.0
 11
-176.18059999999991
 21
630.62906799999996
 31
0.0
  0
CIRCLE
  5
D8
  8
SIZE
  6
CONTINUOUS
 62
    30
 10
188.1806
 20
630.62906799999996
 30
0.0
 40
6.0
  0
LINE
  5
D9
  8
SIZE
  6
CONTINUOUS
 62
    30
 10
188.1806
 20
630.62906799999996
 30
0.0
 11
176.18059999999991
 21
630.62906799999996
 31
0.0
  0
TEXT
  5
DA
  8
SIZE
  6
CONTINUOUS
 62
    30
 10
-72.685714285714283
 20
655.62906799999996
 30
0.0
 40
64.0
  1
376
 41
0.9
 72
     1
 11
0.0
 21
655.62906799999996
 31
0.0
  0
POINT
  5
DB
  8
DEFPOINTS
  6
CONTINUOUS
 62
    30
 10
-188.1806
 20
176.1641909999999
 30
0.0
  0
POINT
  5
DC
  8
DEFPOINTS
  6
CONTINUOUS
 62
    30
 10
188.1806
 20
176.1641909999999
 30
0.0
  0
POINT
  5
DD
  8
DEFPOINTS
  6
CONTINUOUS
 62
    30
 10
188.1806
 20
630.62906799999996
 30
0.0
  0
LINE
  5
DE
  8
SIZE
  6
CONTINUOUS
 62
    30
 10
210.70267000000001
 20
0.0
 30
0.0
 11
761.10412499999984
 21
0.0
 31
0.0
  0
LINE
  5
DF
  8
SIZE
  6
CONTINUOUS
 62
    30
 10
172.55903299999991
 20
-20.399536999999992
 30
0.0
 11
761.10412499999984
 21
-20.399536999999992
 31
0.0
  0
LINE
  5
E0
  8
SIZE
  6
CONTINUOUS
 62
    30
 10
741.10412499999984
 20
12.0
 30
0.0
 11
741.10412499999984
 21
24.0
 31
0.0
  0
LINE
  5
E1
  8
SIZE
  6
CONTINUOUS
 62
    30
 10
741.10412499999984
 20
-32.399537000000002
 30
0.0
 11
741.10412499999984
 21
-193.028109
 31
0.0
  0
LINE
  5
E2
  8
SIZE
  6
CONTINUOUS
 62
    30
 10
741.10412499999984
 20
0.0
 30
0.0
 11
741.10412499999984
 21
-20.399536999999992
 31
0.0
  0
CIRCLE
  5
E3
  8
SIZE
  6
CONTINUOUS
 62
    30
 10
741.10412499999984
 20
0.0
 30
0.0
 40
6.0
  0
LINE
  5
E4
  8
SIZE
  6
CONTINUOUS
 62
    30
 10
741.10412499999984
 20
0.0
 30
0.0
 11
741.10412499999984
 21
12.0
 31
0.0
  0
CIRCLE
  5
E5
  8
SIZE
  6
CONTINUOUS
 62
    30
 10
741.10412499999984
 20
-20.399536999999992
 30
0.0
 40
6.0
  0
LINE
  5
E6
  8
SIZE
  6
CONTINUOUS
 62
    30
 10
741.10412499999984
 20
-20.399536999999992
 30
0.0
 11
741.10412499999984
 21
-32.399536999999988
 31
0.0
  0
TEXT
  5
E7
  8
SIZE
  6
CONTINUOUS
 62
    30
 10
716.10412499999995
 20
-168.02810842857139
 30
0.0
 40
64.0
  1
20
 50
90.0
 41
0.9
 72
     1
 11
716.10412499999995
 21
-121.399537
 31
0.0
  0
POINT
  5
E8
  8
DEFPOINTS
  6
CONTINUOUS
 62
    30
 10
190.70267000000001
 20
0.0
 30
0.0
  0
POINT
  5
E9
  8
DEFPOINTS
  6
CONTINUOUS
 62
    30
 10
152.55903299999991
 20
-20.399536999999992
 30
0.0
  0
POINT
  5
EA
  8
DEFPOINTS
  6
CONTINUOUS
 62
    30
 10
741.10412499999984
 20
-20.399536999999992
 30
0.0
  0
LINE
  5
EB
  8
SIZE
  6
CONTINUOUS
 62
    30
 10
210.70267000000001
 20
0.0
 30
0.0
 11
481.50912199999999
 21
0.0
 31
0.0
  0
LINE
  5
EC
  8
SIZE
  6
CONTINUOUS
 62
    30
 10
127.9843199999999
 20
109.0
 30
0.0
 11
481.50912199999999
 21
109.0
 31
0.0
  0
LINE
  5
ED
  8
SIZE
  6
CONTINUOUS
 62
    30
 10
461.50912199999999
 20
97.0
 30
0.0
 11
461.50912199999999
 21
12.0
 31
0.0
  0
LINE
  5
EE
  8
SIZE
  6
CONTINUOUS
 62
    30
 10
461.50912199999999
 20
0.0
 30
0.0
 11
461.50912199999999
 21
-196.40000000000001
 31
0.0
  0
CIRCLE
  5
EF
  8
SIZE
  6
CONTINUOUS
 62
    30
 10
461.50912199999999
 20
109.0
 30
0.0
 40
6.0
  0
LINE
  5
F0
  8
SIZE
  6
CONTINUOUS
 62
    30
 10
461.50912199999999
 20
109.0
 30
0.0
 11
461.50912199999999
 21
97.0
 31
0.0
  0
CIRCLE
  5
F1
  8
SIZE
  6
CONTINUOUS
 62
    30
 10
461.50912199999999
 20
0.0
 30
0.0
 40
6.0
  0
LINE
  5
F2
  8
SIZE
  6
CONTINUOUS
 62
    30
 10
461.50912199999999
 20
0.0
 30
0.0
 11
461.50912199999999
 21
12.0
 31
0.0
  0
TEXT
  5
F3
  8
SIZE
  6
CONTINUOUS
 62
    30
 10
436.50912199999999
 20
-171.39999999999989
 30
0.0
 40
64.0
  1
109
 50
90.0
 41
0.9
 72
     1
 11
436.50912199999999
 21
-104.2
 31
0.0
  0
POINT
  5
F4
  8
DEFPOINTS
  6
CONTINUOUS
 62
    30
 10
190.70267000000001
 20
0.0
 30
0.0
  0
POINT
  5
F5
  8
DEFPOINTS
  6
CONTINUOUS
 62
    30
 10
107.98432
 20
109.0
 30
0.0
  0
POINT
  5
F6
  8
DEFPOINTS
  6
CONTINUOUS
 62
    30
 10
461.50912199999999
 20
109.0
 30
0.0
  0
LINE
  5
F7
  8
SIZE
  6
CONTINUOUS
 62
    30
 10
210.70267000000001
 20
0.0
 30
0.0
 11
610.36128599999995
 21
0.0
 31
0.0
  0
LINE
  5
F8
  8
SIZE
  6
CONTINUOUS
 62
    30
 10
208.2842609999999
 20
170.22546299999991
 30
0.0
 11
610.36128599999995
 21
170.22546299999991
 31
0.0
  0
LINE
  5
F9
  8
SIZE
  6
CONTINUOUS
 62
    30
 10
590.36128599999995
 20
12.0
 30
0.0
 11
590.36128599999995
 21
158.22546299999991
 31
0.0
  0
CIRCLE
  5
FA
  8
SIZE
  6
CONTINUOUS
 62
    30
 10
590.36128599999995
 20
0.0
 30
0.0
 40
6.0
  0
LINE
  5
FB
  8
SIZE
  6
CONTINUOUS
 62
    30
 10
590.36128599999995
 20
0.0
 30
0.0
 11
590.36128599999995
 21
12.0
 31
0.0
  0
CIRCLE
  5
FC
  8
SIZE
  6
CONTINUOUS
 62
    30
 10
590.36128599999995
 20
170.22546299999991
 30
0.0
 40
6.0
  0
LINE
  5
FD
  8
SIZE
  6
CONTINUOUS
 62
    30
 10
590.36128599999995
 20
170.22546299999991
 30
0.0
 11
590.36128599999995
 21
158.22546299999991
 31
0.0
  0
TEXT
  5
FE
  8
SIZE
  6
CONTINUOUS
 62
    30
 10
565.36128599999995
 20
16.541302428571409
 30
0.0
 40
64.0
  1
170
 50
90.0
 41
0.9
 72
     1
 11
565.36128599999995
 21
85.112730999999982
 31
0.0
  0
POINT
  5
FF
  8
DEFPOINTS
  6
CONTINUOUS
 62
    30
 10
190.70267000000001
 20
0.0
 30
0.0
  0
POINT
  5
100
  8
DEFPOINTS
  6
CONTINUOUS
 62
    30
 10
188.2842609999999
 20
170.22546299999991
 30
0.0
  0
POINT
  5
101
  8
DEFPOINTS
  6
CONTINUOUS
 62
    30
 10
590.36128599999995
 20
170.22546299999991
 30
0.0
  0
LINE
  5
102
  8
SIZE
  6
CONTINUOUS
 62
    30
 10
210.70267000000001
 20
0.0
 30
0.0
 11
761.10412499999984
 21
0.0
 31
0.0
  0
LINE
  5
103
  8
SIZE
  6
CONTINUOUS
 62
    30
 10
73.396963999999983
 20
199.940665
 30
0.0
 11
761.10412499999984
 21
199.940665
 31
0.0
  0
LINE
  5
104
  8
SIZE
  6
CONTINUOUS
 62
    30
 10
741.10412499999984
 20
12.0
 30
0.0
 11
741.10412499999984
 21
187.94066499999991
 31
0.0
  0
CIRCLE
  5
105
  8
SIZE
  6
CONTINUOUS
 62
    30
 10
741.10412499999984
 20
0.0
 30
0.0
 40
6.0
  0
LINE
  5
106
  8
SIZE
  6
CONTINUOUS
 62
    30
 10
741.10412499999984
 20
0.0
 30
0.0
 11
741.10412499999984
 21
12.0
 31
0.0
  0
CIRCLE
  5
107
  8
SIZE
  6
CONTINUOUS
 62
    30
 10
741.10412499999984
 20
199.940665
 30
0.0
 40
6.0
  0
LINE
  5
108
  8
SIZE
  6
CONTINUOUS
 62
    30
 10
741.10412499999984
 20
199.940665
 30
0.0
 11
741.10412499999984
 21
187.94066499999991
 31
0.0
  0
TEXT
  5
109
  8
SIZE
  6
CONTINUOUS
 62
    30
 10
716.10412499999995
 20
25.91318914285716
 30
0.0
 40
64.0
  1
200
 50
90.0
 41
0.9
 72
     1
 11
716.10412499999995
 21
99.970332000000013
 31
0.0
  0
POINT
  5
10A
  8
DEFPOINTS
  6
CONTINUOUS
 62
    30
 10
190.70267000000001
 20
0.0
 30
0.0
  0
POINT
  5
10B
  8
DEFPOINTS
  6
CONTINUOUS
 62
    30
 10
53.396963999999997
 20
199.940665
 30
0.0
  0
POINT
  5
10C
  8
DEFPOINTS
  6
CONTINUOUS
 62
    30
 10
741.10412499999984
 20
199.940665
 30
0.0
  0
LINE
  5
10D
  8
SIZE
  6
CONTINUOUS
 62
    30
 10
210.70267000000001
 20
0.0
 30
0.0
 11
364.40330499999988
 21
0.0
 31
0.0
  0
LINE
  5
10E
  8
SIZE
  6
CONTINUOUS
 62
    30
 10
81.817285999999967
 20
52.036419000000002
 30
0.0
 11
364.40330499999988
 21
52.036419000000002
 31
0.0
  0
LINE
  5
10F
  8
SIZE
  6
CONTINUOUS
 62
    30
 10
344.40330499999988
 20
64.036418999999995
 30
0.0
 11
344.40330499999988
 21
76.036418999999981
 31
0.0
  0
LINE
  5
110
  8
SIZE
  6
CONTINUOUS
 62
    30
 10
344.40330499999988
 20
-12.0
 30
0.0
 11
344.40330499999988
 21
-167.25714300000001
 31
0.0
  0
LINE
  5
111
  8
SIZE
  6
CONTINUOUS
 62
    30
 10
344.40330499999988
 20
52.036419000000002
 30
0.0
 11
344.40330499999988
 21
0.0
 31
0.0
  0
CIRCLE
  5
112
  8
SIZE
  6
CONTINUOUS
 62
    30
 10
344.40330499999988
 20
52.036419000000002
 30
0.0
 40
6.0
  0
LINE
  5
113
  8
SIZE
  6
CONTINUOUS
 62
    30
 10
344.40330499999988
 20
52.036419000000002
 30
0.0
 11
344.40330499999988
 21
64.036418999999995
 31
0.0
  0
CIRCLE
  5
114
  8
SIZE
  6
CONTINUOUS
 62
    30
 10
344.40330499999988
 20
0.0
 30
0.0
 40
6.0
  0
LINE
  5
115
  8
SIZE
  6
CONTINUOUS
 62
    30
 10
344.40330499999988
 20
0.0
 30
0.0
 11
344.40330499999988
 21
-12.0
 31
0.0
  0
TEXT
  5
116
  8
SIZE
  6
CONTINUOUS
 62
    30
 10
319.40330499999988
 20
-142.25714242857131
 30
0.0
 40
64.0
  1
52
 50
90.0
 41
0.9
 72
     1
 11
319.40330499999988
 21
-95.628570999999994
 31
0.0
  0
POINT
  5
117
  8
DEFPOINTS
  6
CONTINUOUS
 62
    30
 10
190.70267000000001
 20
0.0
 30
0.0
  0
POINT
  5
118
  8
DEFPOINTS
  6
CONTINUOUS
 62
    30
 10
61.817286000000003
 20
52.036419000000002
 30
0.0
  0
POINT
  5
119
  8
DEFPOINTS
  6
CONTINUOUS
 62
    30
 10
344.40330499999988
 20
52.036419000000002
 30
0.0
  0
LINE
  5
11A
  8
SIZE
  6
CONTINUOUS
 62
    30
 10
-408.00505700000002
 20
184.47585599999999
 30
0.0
 11
-59.982323999999998
 21
120.095983
 31
0.0
  0
LINE
  5
11B
  8
SIZE
  6
CONTINUOUS
 62
    30
 10
59.982323999999998
 20
97.904016999999996
 30
0.0
 11
71.782124999999994
 21
95.721200999999994
 31
0.0
  0
TEXT
  5
11C
  8
SIZE
  6
CONTINUOUS
 62
    30
 10
-392.8995048830019
 20
207.10563840991389
 30
0.0
 40
64.0
  1
âË98
 50
349.51949427223212
 41
0.9
 72
     1
 11
-307.40150913767297
 21
191.2896086615508
 31
0.0
  0
LINE
  5
11D
  8
SIZE
  6
CONTINUOUS
 62
    30
 10
48.182521999999992
 20
100.086833
 30
0.0
 11
-48.182521999999992
 21
117.9131669999999
 31
0.0
  0
CIRCLE
  5
11E
  8
SIZE
  6
CONTINUOUS
 62
    30
 10
48.182521999999992
 20
100.086833
 30
0.0
 40
6.0
  0
LINE
  5
11F
  8
SIZE
  6
CONTINUOUS
 62
    30
 10
48.182521999999992
 20
100.086833
 30
0.0
 11
59.98232340340671
 21
97.904016736508993
 31
0.0
  0
CIRCLE
  5
120
  8
SIZE
  6
CONTINUOUS
 62
    30
 10
-48.182521999999992
 20
117.9131669999999
 30
0.0
 40
6.0
  0
LINE
  5
121
  8
SIZE
  6
CONTINUOUS
 62
    30
 10
-48.182521999999992
 20
117.9131669999999
 30
0.0
 11
-59.98232340340671
 21
120.09598326349089
 31
0.0
  0
POINT
  5
122
  8
DEFPOINTS
  6
CONTINUOUS
 62
    30
 10
-48.182521999999992
 20
117.9131669999999
 30
0.0
  0
POINT
  5
123
  8
DEFPOINTS
  6
CONTINUOUS
 62
    30
 10
48.182521999999992
 20
100.086833
 30
0.0
  0
LINE
  5
124
  8
SIZE
  6
CONTINUOUS
 62
    30
 10
-452.79744499999998
 20
-19.649927000000002
 30
0.0
 11
-62.044316000000002
 21
91.371815999999995
 31
0.0
  0
LINE
  5
125
  8
SIZE
  6
CONTINUOUS
 62
    30
 10
62.044316000000002
 20
126.62818399999991
 30
0.0
 11
73.587444000000005
 21
129.90784600000001
 31
0.0
  0
TEXT
  5
126
  8
SIZE
  6
CONTINUOUS
 62
    30
 10
-449.30172674639709
 20
7.3327801815850568
 30
0.0
 40
64.0
  1
âË105
 50
15.86103537000167
 41
0.9
 72
     1
 11
-344.55607839829258
 21
37.093364323394951
 31
0.0
  0
LINE
  5
127
  8
SIZE
  6
CONTINUOUS
 62
    30
 10
50.501187000000002
 20
123.348522
 30
0.0
 11
-50.501187000000002
 21
94.651477999999997
 31
0.0
  0
CIRCLE
  5
128
  8
SIZE
  6
CONTINUOUS
 62
    30
 10
50.501187000000002
 20
123.348522
 30
0.0
 40
6.0
  0
LINE
  5
129
  8
SIZE
  6
CONTINUOUS
 62
    30
 10
50.501187000000002
 20
123.348522
 30
0.0
 11
62.044315545942538
 21
126.62818408196
 31
0.0
  0
CIRCLE
  5
12A
  8
SIZE
  6
CONTINUOUS
 62
    30
 10
-50.501187000000002
 20
94.651477999999997
 30
0.0
 40
6.0
  0
LINE
  5
12B
  8
SIZE
  6
CONTINUOUS
 62
    30
 10
-50.501187000000002
 20
94.651477999999997
 30
0.0
 11
-62.044315545942538
 21
91.371815918039914
 31
0.0
  0
POINT
  5
12C
  8
DEFPOINTS
  6
CONTINUOUS
 62
    30
 10
-50.501187000000002
 20
94.651477999999997
 30
0.0
  0
POINT
  5
12D
  8
DEFPOINTS
  6
CONTINUOUS
 62
    30
 10
50.501187000000002
 20
123.348522
 30
0.0
  0
TEXT
  5
12E
  8
NOTE
  6
CONTINUOUS
 62
     4
 10
256.58495299999993
 20
-293.08867600000002
 30
0.0
 40
64.0
  1
8-âË5
 41
0.9
  0
LINE
  5
12F
  8
NOTE
  6
CONTINUOUS
 62
     4
 39
50.0
 10
509.67560500000002
 20
-300.424646
 30
0.0
 11
237.369169
 21
-300.424646
 31
0.0
  0
LINE
  5
130
  8
NOTE
  6
CONTINUOUS
 62
     4
 39
50.0
 10
237.369169
 20
-300.424646
 30
0.0
 11
165.0
 21
-2.5
 31
0.0
  0
LINE
  5
131
  8
NOTE
  6
CONTINUOUS
 62
     4
 39
50.0
 10
165.0
 20
-2.5
 30
0.0
 11
170.10912200000001
 21
-10.85605399999999
 31
0.0
  0
LINE
  5
132
  8
NOTE
  6
CONTINUOUS
 62
     4
 39
50.0
 10
165.0
 20
-2.5
 30
0.0
 11
164.29358300000001
 21
-12.268712000000001
 31
0.0
  0
ARC
  5
133
  8
DETAIL
  6
CONTINUOUS
 62
     5
 10
150.118111
 20
183.515466
 30
0.0
 40
1.220472
 50
0.0
 51
90.0
  0
ARC
  5
134
  8
DETAIL
  6
CONTINUOUS
 62
     5
 10
150.118111
 20
183.515466
 30
0.0
 40
1.220472
 50
0.0
 51
90.0
  0
LINE
  5
135
  8
DETAIL
  6
CONTINUOUS
 62
     5
 10
193.758521
 20
0.0
 30
0.0
 11
0.0
 21
0.0
 31
0.0
  0
ARC
  5
136
  8
DETAIL
  6
CONTINUOUS
 62
     5
 10
157.7321509999999
 20
169.08455399999991
 30
0.0
 40
6.346457
 50
91.0
 51
181.0
  0
ARC
  5
137
  8
DETAIL
  6
CONTINUOUS
 62
     5
 10
-58.582678000000001
 20
72.530762999999979
 30
0.0
 40
20.748031999999991
 50
180.0
 51
270.0
  0
ARC
  5
138
  8
DETAIL
  6
CONTINUOUS
 62
     5
 10
58.582678000000001
 20
72.530762999999979
 30
0.0
 40
20.748031999999991
 50
270.0
 51
0.0
  0
LINE
  5
139
  8
DETAIL
  6
CONTINUOUS
 62
     5
 10
-155.0005909999999
 20
-0.068161
 30
0.0
 11
-151.4221609999999
 21
166.93998300000001
 31
0.0
  0
LINE
  5
13A
  8
DETAIL
  6
CONTINUOUS
 62
     5
 10
-104.90494099999989
 20
2.719392
 30
0.0
 11
-101.24414999999991
 21
174.44597599999989
 31
0.0
  0
LINE
  5
13B
  8
DETAIL
  6
CONTINUOUS
 62
     5
 10
-160.93931900000001
 20
0.0355
 30
0.0
 11
-157.3608889999999
 21
167.043643
 31
0.0
  0
LINE
  5
13C
  8
DETAIL
  6
CONTINUOUS
 62
     5
 10
149.50789
 20
-20.409465999999991
 30
0.0
 11
-149.5078509999999
 21
-20.409465999999991
 31
0.0
  0
LINE
  5
13D
  8
DETAIL
  6
CONTINUOUS
 62
     5
 10
-193.758521
 20
0.0
 30
0.0
 11
0.0
 21
0.0
 31
0.0
  0
LINE
  5
13E
  8
DETAIL
  6
CONTINUOUS
 62
     5
 10
-149.5078509999999
 20
-7.764028999999999
 30
0.0
 11
0.0
 21
-7.764028999999999
 31
0.0
  0
ARC
  5
13F
  8
DETAIL
  6
CONTINUOUS
 62
     5
 10
-154.94534999999999
 20
49.240042000000003
 30
0.0
 40
69.680452999999986
 50
238.33815100000001
 51
271.96256799999998
  0
LINE
  5
140
  8
DETAIL
  6
CONTINUOUS
 62
     5
 10
-192.9158349999999
 20
-7.764028999999999
 30
0.0
 11
-152.55903299999991
 21
-7.764028999999999
 31
0.0
  0
LINE
  5
141
  8
DETAIL
  6
CONTINUOUS
 62
     5
 10
-192.9158349999999
 20
-7.764028999999999
 30
0.0
 11
-152.55903299999991
 21
-7.764028999999999
 31
0.0
  0
ARC
  5
142
  8
DETAIL
  6
CONTINUOUS
 62
     5
 10
-187.45274199999989
 20
-3.9801999999999991
 30
0.0
 40
7.3228350000000004
 50
179.99998199999999
 51
236.25090700000001
  0
ARC
  5
143
  8
DETAIL
  6
CONTINUOUS
 62
     5
 10
-193.758521
 20
-1.0170600000000001
 30
0.0
 40
1.0170600000000001
 50
90.0
 51
180.0
  0
LINE
  5
144
  8
DETAIL
  6
CONTINUOUS
 62
     5
 10
-194.77558200000001
 20
-1.0170600000000001
 30
0.0
 11
-194.77558200000001
 21
-3.9801999999999991
 31
0.0
  0
LINE
  5
145
  8
DETAIL
  6
CONTINUOUS
 62
     5
 10
-149.5078509999999
 20
-20.409465999999991
 30
0.0
 11
-149.5078509999999
 21
0.0
 31
0.0
  0
LINE
  5
146
  8
DETAIL
  6
CONTINUOUS
 62
     5
 10
-152.55903299999991
 20
-19.188992999999989
 30
0.0
 11
-149.5078509999999
 21
-19.188992999999989
 31
0.0
  0
LINE
  5
147
  8
DETAIL
  6
CONTINUOUS
 62
     5
 10
-152.55903299999991
 20
-20.399536999999992
 30
0.0
 11
-152.55903299999991
 21
0.0
 31
0.0
  0
ARC
  5
148
  8
DETAIL
  6
CONTINUOUS
 62
     5
 10
-108.56580099999989
 20
2.783291999999999
 30
0.0
 40
3.6614170000000001
 50
310.52099099999992
 51
359.0
  0
LINE
  5
149
  8
DETAIL
  6
CONTINUOUS
 62
     5
 10
0.0
 20
51.782730999999998
 30
0.0
 11
58.582678000000001
 21
51.782730999999998
 31
0.0
  0
LINE
  5
14A
  8
DETAIL
  6
CONTINUOUS
 62
     5
 10
149.5078509999999
 20
-7.764028999999999
 30
0.0
 11
0.0
 21
-7.764028999999999
 31
0.0
  0
LINE
  5
14B
  8
DETAIL
  6
CONTINUOUS
 62
     5
 10
0.0
 20
51.782730999999998
 30
0.0
 11
-58.582678000000001
 21
51.782730999999998
 31
0.0
  0
LINE
  5
14C
  8
DETAIL
  6
CONTINUOUS
 62
     5
 10
149.5078509999999
 20
-20.409465999999991
 30
0.0
 11
149.5078509999999
 21
0.0
 31
0.0
  0
LINE
  5
14D
  8
DETAIL
  6
CONTINUOUS
 62
     5
 10
0.0
 20
184.73593799999989
 30
0.0
 11
-150.118111
 21
184.73593799999989
 31
0.0
  0
LINE
  5
14E
  8
DETAIL
  6
CONTINUOUS
 62
     5
 10
-151.33858399999991
 20
176.19263099999989
 30
0.0
 11
-151.33858399999991
 21
183.515466
 31
0.0
  0
LINE
  5
14F
  8
DETAIL
  6
CONTINUOUS
 62
     5
 10
-159.785068
 20
185.64291399999991
 30
0.0
 11
-159.89085900000001
 21
179.582157
 31
0.0
  0
LINE
  5
150
  8
DETAIL
  6
CONTINUOUS
 62
     5
 10
-181.61831000000001
 20
180.13596200000001
 30
0.0
 11
-181.512519
 21
186.196718
 31
0.0
  0
LINE
  5
151
  8
DETAIL
  6
CONTINUOUS
 62
     5
 10
-188.2842609999999
 20
170.22546299999991
 30
0.0
 11
-159.758861
 21
169.52681699999999
 31
0.0
  0
LINE
  5
152
  8
DETAIL
  6
CONTINUOUS
 62
     5
 10
-181.79297099999991
 20
170.12961200000001
 30
0.0
 11
-160.06552099999999
 21
169.575807
 31
0.0
  0
ARC
  5
153
  8
DETAIL
  6
CONTINUOUS
 62
     5
 10
-161.52436899999989
 20
155.92989800000001
 30
0.0
 40
1.220472
 50
269.0
 51
359.0
  0
LINE
  5
154
  8
DETAIL
  6
CONTINUOUS
 62
     5
 10
-181.61831000000001
 20
180.13596200000001
 30
0.0
 11
-159.89085900000001
 21
179.582157
 31
0.0
  0
LINE
  5
155
  8
DETAIL
  6
CONTINUOUS
 62
     5
 10
-188.1806
 20
176.1641909999999
 30
0.0
 11
-157.62138999999991
 21
175.43004500000001
 31
0.0
  0
LINE
  5
156
  8
DETAIL
  6
CONTINUOUS
 62
     5
 10
-182.03153299999991
 20
156.462402
 30
0.0
 11
-181.79297099999991
 21
170.12961200000001
 31
0.0
  0
ARC
  5
157
  8
DETAIL
  6
CONTINUOUS
 62
     5
 10
-180.81124700000001
 20
156.441102
 30
0.0
 40
1.220472
 50
179.0
 51
269.0
  0
LINE
  5
158
  8
DETAIL
  6
CONTINUOUS
 62
     5
 10
-180.83254699999989
 20
155.22081600000001
 30
0.0
 11
-161.545669
 21
154.709611
 31
0.0
  0
LINE
  5
159
  8
DETAIL
  6
CONTINUOUS
 62
     5
 10
-162.402433
 20
175.55713600000001
 30
0.0
 11
-162.33143200000001
 21
179.62475800000001
 31
0.0
  0
LINE
  5
15A
  8
DETAIL
  6
CONTINUOUS
 62
     5
 10
-179.24873700000001
 20
176.02574000000001
 30
0.0
 11
-179.17773700000001
 21
180.09336200000001
 31
0.0
  0
LINE
  5
15B
  8
DETAIL
  6
CONTINUOUS
 62
     5
 10
-188.2842609999999
 20
170.22546299999991
 30
0.0
 11
-188.1806
 21
176.1641909999999
 31
0.0
  0
LINE
  5
15C
  8
DETAIL
  6
CONTINUOUS
 62
     5
 10
-79.330708999999999
 20
72.530762999999979
 30
0.0
 11
-79.330708999999999
 21
145.46923699999991
 31
0.0
  0
LINE
  5
15D
  8
DETAIL
  6
CONTINUOUS
 62
     5
 10
-151.37955999999991
 20
169.38055600000001
 30
0.0
 11
-101.34781099999989
 21
168.507248
 31
0.0
  0
LINE
  5
15E
  8
DETAIL
  6
CONTINUOUS
 62
     5
 10
-147.61503999999991
 20
175.25538299999999
 30
0.0
 11
-101.24414999999991
 21
174.44597599999989
 31
0.0
  0
LINE
  5
15F
  8
DETAIL
  6
CONTINUOUS
 62
     5
 10
-151.33858399999991
 20
176.19263099999989
 30
0.0
 11
-151.47586699999991
 21
168.16157799999999
 31
0.0
  0
LINE
  5
160
  8
DETAIL
  6
CONTINUOUS
 62
     5
 10
-147.71870100000001
 20
169.31665499999991
 30
0.0
 11
-147.61503999999991
 21
175.25538299999999
 31
0.0
  0
ARC
  5
161
  8
DETAIL
  6
CONTINUOUS
 62
     5
 10
-157.7321509999999
 20
169.08455399999991
 30
0.0
 40
6.346457
 50
359.0
 51
89.0
  0
LINE
  5
162
  8
DETAIL
  6
CONTINUOUS
 62
     5
 10
-160.30408299999991
 20
155.90859800000001
 30
0.0
 11
-160.06552099999999
 21
169.575807
 31
0.0
  0
ARC
  5
163
  8
DETAIL
  6
CONTINUOUS
 62
     5
 10
-159.8014619999999
 20
167.08624399999999
 30
0.0
 40
2.4409450000000001
 50
359.0
 51
89.0
  0
LINE
  5
164
  8
DETAIL
  6
CONTINUOUS
 62
     5
 10
-180.2709319999999
 20
187.39570499999991
 30
0.0
 11
-160.98405500000001
 21
186.884501
 31
0.0
  0
ARC
  5
165
  8
DETAIL
  6
CONTINUOUS
 62
     5
 10
-180.29223200000001
 20
186.17541800000001
 30
0.0
 40
1.220472
 50
89.0
 51
179.0
  0
ARC
  5
166
  8
DETAIL
  6
CONTINUOUS
 62
     5
 10
-150.118111
 20
183.515466
 30
0.0
 40
1.220472
 50
90.0
 51
180.0
  0
ARC
  5
167
  8
DETAIL
  6
CONTINUOUS
 62
     5
 10
-150.118111
 20
183.515466
 30
0.0
 40
1.220472
 50
90.0
 51
180.0
  0
LINE
  5
168
  8
DETAIL
  6
CONTINUOUS
 62
     5
 10
-116.55509600000001
 20
197.5508989999999
 30
0.0
 11
-122.04722199999991
 21
197.5508989999999
 31
0.0
  0
LINE
  5
169
  8
DETAIL
  6
CONTINUOUS
 62
     5
 10
-126.71148599999989
 20
184.73593799999989
 30
0.0
 11
-122.04722199999991
 21
197.5508989999999
 31
0.0
  0
LINE
  5
16A
  8
DETAIL
  6
CONTINUOUS
 62
     5
 10
-122.04722199999991
 20
197.5508989999999
 30
0.0
 11
-122.131531
 21
184.73593799999989
 31
0.0
  0
LINE
  5
16B
  8
DETAIL
  6
CONTINUOUS
 62
     5
 10
-116.55509600000001
 20
197.5508989999999
 30
0.0
 11
-116.470787
 21
184.73593799999989
 31
0.0
  0
ARC
  5
16C
  8
DETAIL
  6
CONTINUOUS
 62
     5
 10
-161.00535500000001
 20
185.6642139999999
 30
0.0
 40
1.220472
 50
359.0
 51
89.0
  0
LINE
  5
16D
  8
DETAIL
  6
CONTINUOUS
 62
     5
 10
-92.973507999999995
 20
184.73593799999989
 30
0.0
 11
-97.637772999999996
 21
197.5508989999999
 31
0.0
  0
LINE
  5
16E
  8
DETAIL
  6
CONTINUOUS
 62
     5
 10
-97.637772999999996
 20
197.5508989999999
 30
0.0
 11
-103.12989899999999
 21
197.5508989999999
 31
0.0
  0
LINE
  5
16F
  8
DETAIL
  6
CONTINUOUS
 62
     5
 10
-103.12989899999999
 20
197.5508989999999
 30
0.0
 11
-103.214208
 21
184.73593799999989
 31
0.0
  0
LINE
  5
170
  8
DETAIL
  6
CONTINUOUS
 62
     5
 10
-97.637772999999996
 20
197.5508989999999
 30
0.0
 11
-97.553464000000005
 21
184.73593799999989
 31
0.0
  0
LINE
  5
171
  8
DETAIL
  6
CONTINUOUS
 62
     5
 10
79.330708999999999
 20
72.530762999999979
 30
0.0
 11
79.330708999999999
 21
145.46923699999991
 31
0.0
  0
LINE
  5
172
  8
DETAIL
  6
CONTINUOUS
 62
     5
 10
0.0
 20
184.73593799999989
 30
0.0
 11
150.118111
 21
184.73593799999989
 31
0.0
  0
LINE
  5
173
  8
DETAIL
  6
CONTINUOUS
 62
     5
 10
57.405419000000002
 20
199.940665
 30
0.0
 11
23.188977000000001
 21
199.940665
 31
0.0
  0
LINE
  5
174
  8
DETAIL
  6
CONTINUOUS
 62
     5
 10
-11.027466
 20
199.940665
 30
0.0
 11
23.188977000000001
 21
199.940665
 31
0.0
  0
ARC
  5
175
  8
DETAIL
  6
CONTINUOUS
 62
     5
 10
-11.027466
 20
193.22808499999991
 30
0.0
 40
6.7126010000000003
 50
90.0
 51
179.999999
  0
LINE
  5
176
  8
DETAIL
  6
CONTINUOUS
 62
     5
 10
-17.740065000000001
 20
184.73593799999989
 30
0.0
 11
-17.740065000000001
 21
193.22808499999991
 31
0.0
  0
LINE
  5
177
  8
DETAIL
  6
CONTINUOUS
 62
     5
 10
97.637772999999996
 20
197.5508989999999
 30
0.0
 11
103.12989899999999
 21
197.5508989999999
 31
0.0
  0
ARC
  5
178
  8
DETAIL
  6
CONTINUOUS
 62
     5
 10
57.405419000000002
 20
193.22808499999991
 30
0.0
 40
6.7126010000000003
 50
0.000001
 51
90.0
  0
LINE
  5
179
  8
DETAIL
  6
CONTINUOUS
 62
     5
 10
64.118018000000006
 20
184.73593799999989
 30
0.0
 11
64.118018000000006
 21
193.22808499999991
 31
0.0
  0
LINE
  5
17A
  8
DETAIL
  6
CONTINUOUS
 62
     5
 10
92.973507999999995
 20
184.73593799999989
 30
0.0
 11
97.637772999999996
 21
197.5508989999999
 31
0.0
  0
LINE
  5
17B
  8
DETAIL
  6
CONTINUOUS
 62
     5
 10
97.637772999999996
 20
197.5508989999999
 30
0.0
 11
97.553464000000005
 21
184.73593799999989
 31
0.0
  0
LINE
  5
17C
  8
DETAIL
  6
CONTINUOUS
 62
     5
 10
116.55509600000001
 20
197.5508989999999
 30
0.0
 11
122.04722199999991
 21
197.5508989999999
 31
0.0
  0
LINE
  5
17D
  8
DETAIL
  6
CONTINUOUS
 62
     5
 10
126.71148599999989
 20
184.73593799999989
 30
0.0
 11
122.04722199999991
 21
197.5508989999999
 31
0.0
  0
LINE
  5
17E
  8
DETAIL
  6
CONTINUOUS
 62
     5
 10
122.04722199999991
 20
197.5508989999999
 30
0.0
 11
122.131531
 21
184.73593799999989
 31
0.0
  0
LINE
  5
17F
  8
DETAIL
  6
CONTINUOUS
 62
     5
 10
116.55509600000001
 20
197.5508989999999
 30
0.0
 11
116.470787
 21
184.73593799999989
 31
0.0
  0
LINE
  5
180
  8
DETAIL
  6
CONTINUOUS
 62
     5
 10
103.12989899999999
 20
197.5508989999999
 30
0.0
 11
103.214208
 21
184.73593799999989
 31
0.0
  0
LINE
  5
181
  8
DETAIL
  6
CONTINUOUS
 62
     5
 10
151.33858399999991
 20
176.19263099999989
 30
0.0
 11
154.99999600000001
 21
0.0
 31
0.0
  0
LINE
  5
182
  8
DETAIL
  6
CONTINUOUS
 62
     5
 10
155.0005909999999
 20
-0.068161
 30
0.0
 11
151.4221609999999
 21
166.93998300000001
 31
0.0
  0
LINE
  5
183
  8
DETAIL
  6
CONTINUOUS
 62
     5
 10
160.93931900000001
 20
0.0355
 30
0.0
 11
157.3608889999999
 21
167.043643
 31
0.0
  0
ARC
  5
184
  8
DETAIL
  6
CONTINUOUS
 62
     5
 10
187.45274199999989
 20
-3.9801999999999991
 30
0.0
 40
7.3228350000000004
 50
303.74909300000002
 51
0.000018
  0
ARC
  5
185
  8
DETAIL
  6
CONTINUOUS
 62
     5
 10
154.94534999999999
 20
49.240042000000003
 30
0.0
 40
69.680452999999986
 50
268.03743200000002
 51
301.66184900000002
  0
LINE
  5
186
  8
DETAIL
  6
CONTINUOUS
 62
     5
 10
152.55903299999991
 20
-20.399536999999992
 30
0.0
 11
152.55903299999991
 21
0.0
 31
0.0
  0
LINE
  5
187
  8
DETAIL
  6
CONTINUOUS
 62
     5
 10
194.77558200000001
 20
-1.0170600000000001
 30
0.0
 11
194.77558200000001
 21
-3.9801999999999991
 31
0.0
  0
ARC
  5
188
  8
DETAIL
  6
CONTINUOUS
 62
     5
 10
193.758521
 20
-1.0170600000000001
 30
0.0
 40
1.0170600000000001
 50
0.0
 51
90.0
  0
LINE
  5
189
  8
DETAIL
  6
CONTINUOUS
 62
     5
 10
192.9158349999999
 20
-7.764028999999999
 30
0.0
 11
152.55903299999991
 21
-7.764028999999999
 31
0.0
  0
LINE
  5
18A
  8
DETAIL
  6
CONTINUOUS
 62
     5
 10
151.33858399999991
 20
176.19263099999989
 30
0.0
 11
151.33858399999991
 21
183.515466
 31
0.0
  0
LINE
  5
18B
  8
DETAIL
  6
CONTINUOUS
 62
     5
 10
181.61831000000001
 20
180.13596200000001
 30
0.0
 11
181.512519
 21
186.196718
 31
0.0
  0
LINE
  5
18C
  8
DETAIL
  6
CONTINUOUS
 62
     5
 10
159.785068
 20
185.64291399999991
 30
0.0
 11
159.89085900000001
 21
179.582157
 31
0.0
  0
LINE
  5
18D
  8
DETAIL
  6
CONTINUOUS
 62
     5
 10
181.61831000000001
 20
180.13596200000001
 30
0.0
 11
159.89085900000001
 21
179.582157
 31
0.0
  0
ARC
  5
18E
  8
DETAIL
  6
CONTINUOUS
 62
     5
 10
159.8014619999999
 20
167.08624399999999
 30
0.0
 40
2.4409450000000001
 50
91.0
 51
181.0
  0
LINE
  5
18F
  8
DETAIL
  6
CONTINUOUS
 62
     5
 10
188.2842609999999
 20
170.22546299999991
 30
0.0
 11
188.1806
 21
176.1641909999999
 31
0.0
  0
LINE
  5
190
  8
DETAIL
  6
CONTINUOUS
 62
     5
 10
179.24873700000001
 20
176.02574000000001
 30
0.0
 11
179.17773700000001
 21
180.09336200000001
 31
0.0
  0
LINE
  5
191
  8
DETAIL
  6
CONTINUOUS
 62
     5
 10
162.402433
 20
175.55713600000001
 30
0.0
 11
162.33143200000001
 21
179.62475800000001
 31
0.0
  0
LINE
  5
192
  8
DETAIL
  6
CONTINUOUS
 62
     5
 10
188.2842609999999
 20
170.22546299999991
 30
0.0
 11
159.758861
 21
169.52681699999999
 31
0.0
  0
LINE
  5
193
  8
DETAIL
  6
CONTINUOUS
 62
     5
 10
188.1806
 20
176.1641909999999
 30
0.0
 11
157.62138999999991
 21
175.43004500000001
 31
0.0
  0
LINE
  5
194
  8
DETAIL
  6
CONTINUOUS
 62
     5
 10
180.83254699999989
 20
155.22081600000001
 30
0.0
 11
161.545669
 21
154.709611
 31
0.0
  0
ARC
  5
195
  8
DETAIL
  6
CONTINUOUS
 62
     5
 10
161.52436899999989
 20
155.92989800000001
 30
0.0
 40
1.220472
 50
181.0
 51
271.0
  0
ARC
  5
196
  8
DETAIL
  6
CONTINUOUS
 62
     5
 10
180.81124700000001
 20
156.441102
 30
0.0
 40
1.220472
 50
271.0
 51
1.0
  0
LINE
  5
197
  8
DETAIL
  6
CONTINUOUS
 62
     5
 10
181.79297099999991
 20
170.12961200000001
 30
0.0
 11
160.06552099999999
 21
169.575807
 31
0.0
  0
LINE
  5
198
  8
DETAIL
  6
CONTINUOUS
 62
     5
 10
182.03153299999991
 20
156.462402
 30
0.0
 11
181.79297099999991
 21
170.12961200000001
 31
0.0
  0
LINE
  5
199
  8
DETAIL
  6
CONTINUOUS
 62
     5
 10
160.30408299999991
 20
155.90859800000001
 30
0.0
 11
160.06552099999999
 21
169.575807
 31
0.0
  0
ARC
  5
19A
  8
DETAIL
  6
CONTINUOUS
 62
     5
 10
180.29223200000001
 20
186.17541800000001
 30
0.0
 40
1.220472
 50
1.0
 51
91.0
  0
LINE
  5
19B
  8
DETAIL
  6
CONTINUOUS
 62
     5
 10
180.2709319999999
 20
187.39570499999991
 30
0.0
 11
160.98405500000001
 21
186.884501
 31
0.0
  0
ARC
  5
19C
  8
DETAIL
  6
CONTINUOUS
 62
     5
 10
161.00535500000001
 20
185.6642139999999
 30
0.0
 40
1.220472
 50
91.0
 51
181.0
  0
CIRCLE
  5
19D
  8
DETAIL
  6
CONTINUOUS
 62
     5
 39
50.0
 10
0.0
 20
109.0
 30
0.0
 40
52.5
  0
CIRCLE
  5
19E
  8
DETAIL
  6
CONTINUOUS
 62
     5
 39
50.0
 10
0.0
 20
109.0
 30
0.0
 40
49.0
  0
ARC
  5
19F
  8
DETAIL
  6
CONTINUOUS
 62
     5
 10
-58.582678000000001
 20
145.46923699999991
 30
0.0
 40
20.748031999999991
 50
90.0
 51
180.0
  0
ARC
  5
1A0
  8
DETAIL
  6
CONTINUOUS
 62
     5
 10
58.582678000000001
 20
145.46923699999991
 30
0.0
 40
20.748031999999991
 50
0.0
 51
90.0
  0
LINE
  5
1A1
  8
DETAIL
  6
CONTINUOUS
 62
     5
 10
0.0
 20
166.21726899999999
 30
0.0
 11
58.582678000000001
 21
166.21726899999999
 31
0.0
  0
LINE
  5
1A2
  8
DETAIL
  6
CONTINUOUS
 62
     5
 10
0.0
 20
166.21726899999999
 30
0.0
 11
-58.582678000000001
 21
166.21726899999999
 31
0.0
  0
LINE
  5
1A3
  8
OUTLINE
  6
CONTINUOUS
 62
     3
 10
152.55903299999991
 20
-19.188992999999989
 30
0.0
 11
149.5078509999999
 21
-19.188992999999989
 31
0.0
  0
TEXT
  5
1A6
  8
ETC
  6
CONTINUOUS
 62
    61
 10
651.19735783178476
 20
432.2279276027059
 30
0.0
 40
40.0
  1
VD-18ZSVC2
 41
0.9
  0
ENDSEC
  0
EOF
