  0
SECTION
  2
HEADER
  9
$ACADVER
  1
AC1009
  9
$INSBASE
 10
0.0
 20
0.0
 30
0.0
  9
$EXTMIN
 10
-920.00582699999973
 20
-444.01541500000002
 30
0.0
  9
$EXTMAX
 10
973.75463485714306
 20
771.05774400000087
 30
200.0
  9
$LIMMIN
 10
-2970.0
 20
-2100.0
  9
$LIMMAX
 10
2970.0
 20
2100.0
  9
$ORTHOMODE
 70
     1
  9
$REGENMODE
 70
     1
  9
$FILLMODE
 70
     1
  9
$QTEXTMODE
 70
     0
  9
$MIRRTEXT
 70
     0
  9
$DRAGMODE
 70
     2
  9
$LTSCALE
 40
20.0
  9
$OSMODE
 70
    37
  9
$ATTMODE
 70
     1
  9
$TEXTSIZE
 40
64.0
  9
$TRACEWID
 40
0.05
  9
$TEXTSTYLE
  7
STANDARD
  9
$CLAYER
  8
SIZE
  9
$CELTYPE
  6
CONTINUOUS
  9
$CECOLOR
 62
     7
  9
$DIMSCALE
 40
1.0
  9
$DIMASZ
 40
12.0
  9
$DIMEXO
 40
20.0
  9
$DIMDLI
 40
200.0
  9
$DIMRND
 40
0.0
  9
$DIMDLE
 40
0.0
  9
$DIMEXE
 40
20.0
  9
$DIMTP
 40
0.0
  9
$DIMTM
 40
0.0
  9
$DIMTXT
 40
64.0
  9
$DIMCEN
 40
0.09
  9
$DIMTSZ
 40
0.0
  9
$DIMTOL
 70
     0
  9
$DIMLIM
 70
     0
  9
$DIMTIH
 70
     0
  9
$DIMTOH
 70
     0
  9
$DIMSE1
 70
     0
  9
$DIMSE2
 70
     0
  9
$DIMTAD
 70
     1
  9
$DIMZIN
 70
     8
  9
$DIMBLK
  1
DOT1
  9
$DIMASO
 70
     1
  9
$DIMSHO
 70
     0
  9
$DIMPOST
  1

  9
$DIMAPOST
  1

  9
$DIMALT
 70
     0
  9
$DIMALTD
 70
     2
  9
$DIMALTF
 40
25.399999999999999
  9
$DIMLFAC
 40
1.0
  9
$DIMTOFL
 70
     1
  9
$DIMTVP
 40
0.0
  9
$DIMTIX
 70
     1
  9
$DIMSOXD
 70
     0
  9
$DIMSAH
 70
     1
  9
$DIMBLK1
  1
ORIGIN
  9
$DIMBLK2
  1
ORIGIN
  9
$DIMSTYLE
  2
STANDARD
  9
$DIMCLRD
 70
     7
  9
$DIMCLRE
 70
     7
  9
$DIMCLRT
 70
     7
  9
$DIMTFAC
 40
1.0
  9
$DIMGAP
 40
25.0
  9
$LUNITS
 70
     2
  9
$LUPREC
 70
     4
  9
$SKETCHINC
 40
0.1
  9
$FILLETRAD
 40
1.0
  9
$AUNITS
 70
     1
  9
$AUPREC
 70
     3
  9
$MENU
  1
ACAD
  9
$ELEVATION
 40
0.0
  9
$PELEVATION
 40
0.0
  9
$THICKNESS
 40
50.0
  9
$LIMCHECK
 70
     0
  9
$BLIPMODE
 70
     0
  9
$CHAMFERA
 40
0.0
  9
$CHAMFERB
 40
0.0
  9
$SKPOLY
 70
     0
  9
$TDCREATE
 40
2453019.6230103699
  9
$TDUPDATE
 40
2455618.4909765618
  9
$TDINDWG
 40
1.9770309606000001
  9
$TDUSRTIMER
 40
1.9770309606000001
  9
$USRTIMER
 70
     1
  9
$ANGBASE
 50
0.0
  9
$ANGDIR
 70
     0
  9
$PDMODE
 70
     3
  9
$PDSIZE
 40
-2.0
  9
$PLINEWID
 40
0.0
  9
$COORDS
 70
     1
  9
$SPLFRAME
 70
     0
  9
$SPLINETYPE
 70
     6
  9
$SPLINESEGS
 70
     8
  9
$ATTDIA
 70
     0
  9
$ATTREQ
 70
     1
  9
$HANDLING
 70
 22529
  9
$HANDSEED
  5
269
  9
$SURFTAB1
 70
     6
  9
$SURFTAB2
 70
     6
  9
$SURFTYPE
 70
     6
  9
$SURFU
 70
     6
  9
$SURFV
 70
     6
  9
$UCSNAME
  2

  9
$UCSORG
 10
0.0
 20
0.0
 30
0.0
  9
$UCSXDIR
 10
1.0
 20
0.0
 30
0.0
  9
$UCSYDIR
 10
0.0
 20
1.0
 30
0.0
  9
$PUCSNAME
  2

  9
$PUCSORG
 10
0.0
 20
0.0
 30
0.0
  9
$PUCSXDIR
 10
1.0
 20
0.0
 30
0.0
  9
$PUCSYDIR
 10
0.0
 20
1.0
 30
0.0
  9
$USERI1
 70
     0
  9
$USERI2
 70
     0
  9
$USERI3
 70
     0
  9
$USERI4
 70
     0
  9
$USERI5
 70
     0
  9
$USERR1
 40
20.0
  9
$USERR2
 40
0.0
  9
$USERR3
 40
0.0
  9
$USERR4
 40
0.0
  9
$USERR5
 40
0.0
  9
$WORLDVIEW
 70
     1
  9
$SHADEDGE
 70
     3
  9
$SHADEDIF
 70
    70
  9
$TILEMODE
 70
     1
  9
$MAXACTVP
 70
    48
  9
$PLIMCHECK
 70
     0
  9
$PEXTMIN
 10
-1.0000000000000000E+020
 20
-1.0000000000000000E+020
 30
-1.0000000000000000E+020
  9
$PEXTMAX
 10
1.0000000000000000E+020
 20
1.0000000000000000E+020
 30
1.0000000000000000E+020
  9
$PLIMMIN
 10
0.0
 20
0.0
  9
$PLIMMAX
 10
12.0
 20
9.0
  9
$UNITMODE
 70
     0
  9
$VISRETAIN
 70
     0
  9
$PLINEGEN
 70
     0
  9
$PSLTSCALE
 70
     0
  0
ENDSEC
  0
SECTION
  2
TABLES
  0
TABLE
  2
VPORT
 70
     4
  0
VPORT
  2
*ACTIVE
 70
     0
 10
0.0
 20
0.0
 11
1.0
 21
1.0
 12
179.1749183098861
 22
240.62098226604229
 13
0.0
 23
0.0
 14
1.0
 24
1.0
 15
0.0
 25
0.0
 16
0.0
 26
0.0
 36
1.0
 17
0.0
 27
0.0
 37
0.0
 40
1846.4751389583521
 41
1.513819095477386
 42
50.0
 43
0.0
 44
0.0
 50
0.0
 51
0.0
 71
     0
 72
  1000
 73
     1
 74
     0
 75
     0
 76
     0
 77
     0
 78
     0
  0
ENDTAB
  0
TABLE
  2
LTYPE
 70
     3
  0
LTYPE
  2
CONTINUOUS
 70
     0
  3
Ä└É³
 72
    65
 73
     0
 40
0.0
  0
LTYPE
  2
DASHDOT
 70
     0
  3
____ _ ____ _ ____ _ ____ _ ____ _ ____ _ ____
 72
    65
 73
     4
 40
5.5
 49
4.0
 49
-0.6
 49
0.3
 49
-0.6
  0
LTYPE
  2
DASHED
 70
     0
  3
-- -- -- -- -- -- -- -- -- -- -- -- -- -- --
 72
    65
 73
     2
 40
0.75
 49
0.5
 49
-0.25
  0
ENDTAB
  0
TABLE
  2
LAYER
 70
    12
  0
LAYER
  2
0
 70
     0
 62
     7
  6
CONTINUOUS
  0
LAYER
  2
SIZE
 70
     0
 62
    30
  6
CONTINUOUS
  0
LAYER
  2
BASIS
 70
     0
 62
     6
  6
DASHDOT
  0
LAYER
  2
OUTLINE
 70
     0
 62
     3
  6
CONTINUOUS
  0
LAYER
  2
DETAIL
 70
     0
 62
     5
  6
CONTINUOUS
  0
LAYER
  2
ARRANGE
 70
     0
 62
     1
  6
CONTINUOUS
  0
LAYER
  2
DEFPOINTS
 70
     0
 62
     7
  6
CONTINUOUS
  0
LAYER
  2
ETC
 70
     0
 62
    61
  6
CONTINUOUS
  0
LAYER
  2
FIX
 70
     0
 62
    11
  6
CONTINUOUS
  0
LAYER
  2
NOTE
 70
     0
 62
     4
  6
CONTINUOUS
  0
LAYER
  2
SERVICESPACE
 70
     0
 62
     2
  6
DASHDOT
  0
LAYER
  2
SYMBOLLINE
 70
     0
 62
    15
  6
CONTINUOUS
  0
ENDTAB
  0
TABLE
  2
STYLE
 70
     1
  0
STYLE
  2
STANDARD
 70
     0
 40
64.0
 41
0.9
 50
0.0
 71
     0
 42
64.0
  3
SIMPLEX.shx
  4
BIGFONT.shx
  0
ENDTAB
  0
TABLE
  2
VIEW
 70
     1
  0
VIEW
  2
ALL
 70
     0
 40
4282.6198080000004
 10
0.0
 20
41.309904000000003
 41
5940.0
 11
0.0
 21
0.0
 31
1.0
 12
0.0
 22
0.0
 32
0.0
 42
50.0
 43
0.0
 44
0.0
 50
0.0
 71
     0
  0
ENDTAB
  0
TABLE
  2
UCS
 70
     0
  0
ENDTAB
  0
TABLE
  2
APPID
 70
    15
  0
APPID
  2
ACAD
 70
     0
  0
APPID
  2
AUTOCAD_POSTSCRIPT_FIGURE
 70
     0
  0
APPID
  2
ACAD_EXEMPT_FROM_CAD_STANDARDS
 70
     0
  0
APPID
  2
ACAD_PSEXT
 70
     0
  0
APPID
  2
ACAUTHENVIRON
 70
     0
  0
APPID
  2
GENIUS_GENOENT_13
 70
     0
  0
APPID
  2
GENIUS_GENCFG_13
 70
     0
  0
APPID
  2
GENIUS_GENCFG0_13
 70
     0
  0
APPID
  2
GENIUS_GENCFG1_13
 70
     0
  0
APPID
  2
GENIUS_GENCFG2_13
 70
     0
  0
APPID
  2
GENIUS_GENCFG3_13
 70
     0
  0
APPID
  2
GENIUS_GENCFG4_13
 70
     0
  0
APPID
  2
GENIUS_GEVCFG0_13
 70
     0
  0
APPID
  2
CONTENTBLOCKICON
 70
     0
  0
APPID
  2
CONTENTBLOCKDESCRIPTION
 70
     0
  0
ENDTAB
  0
TABLE
  2
DIMSTYLE
 70
     1
  0
DIMSTYLE
  2
STANDARD
 70
     0
  3

  4

  5

  6

  7

 40
1.0
 41
0.18
 42
0.0625
 43
0.38
 44
0.18
 45
0.0
 46
0.0
 47
0.0
 48
0.0
140
0.18
141
0.09
142
0.0
143
25.399999999999999
144
1.0
145
0.0
146
1.0
147
0.09
 71
     0
 72
     0
 73
     1
 74
     1
 75
     0
 76
     0
 77
     0
 78
     0
170
     0
171
     2
172
     0
173
     0
174
     0
175
     0
176
     7
177
     7
178
     7
  0
ENDTAB
  0
ENDSEC
  0
SECTION
  2
BLOCKS
  0
BLOCK
  8
0
  2
$MODEL_SPACE
 70
     0
 10
0.0
 20
0.0
 30
0.0
  3
$MODEL_SPACE
  1

  0
ENDBLK
  5
20
  8
0
  0
BLOCK
 67
     1
  8
0
  2
$PAPER_SPACE
 70
     0
 10
0.0
 20
0.0
 30
0.0
  3
$PAPER_SPACE
  1

  0
ENDBLK
  5
1C
 67
     1
  8
0
  0
BLOCK
  8
0
  2
DOT1
 70
     0
 10
0.0
 20
0.0
 30
0.0
  3
DOT1
  1

  0
CIRCLE
  5
44
  8
SIZE
  6
CONTINUOUS
 62
     7
 10
0.0
 20
0.0
 30
0.0
 40
3.0
  0
ENDBLK
  5
45
  8
0
  0
BLOCK
  8
0
  2
_ORIGIN
 70
     0
 10
0.0
 20
0.0
 30
0.0
  3
_ORIGIN
  1

  0
CIRCLE
  5
48
  8
0
  6
CONTINUOUS
 62
     7
 10
0.0
 20
0.0
 30
0.0
 40
0.5
  0
LINE
  5
49
  8
0
  6
CONTINUOUS
 62
     7
 10
0.0
 20
0.0
 30
0.0
 11
-1.0
 21
0.0
 31
0.0
  0
ENDBLK
  5
4A
  8
0
  0
ENDSEC
  0
SECTION
  2
ENTITIES
  0
TEXT
  5
4B
  8
ETC
  6
CONTINUOUS
 62
    61
 10
189.29749200000001
 20
707.05774399999996
 30
0.0
 40
64.0
  1
VD-18ZSVC2_4
 41
0.9
  0
TEXT
  5
4C
  8
ETC
  6
CONTINUOUS
 62
    61
 10
292.90139399999993
 20
572.48754399999984
 30
0.0
 40
64.0
  1
èÀïCÉ¯
 41
0.9
  0
TEXT
  5
4D
  8
ETC
  6
CONTINUOUS
 62
    61
 10
394.49981410298119
 20
500.31833322252612
 30
0.0
 40
40.0
  1
VD-18ZLSC9-S
 41
0.9
  0
CIRCLE
  5
4E
  8
ARRANGE
  6
CONTINUOUS
 62
     1
 10
0.0
 20
0.0
 30
0.0
 40
40.0
  0
POINT
  5
4F
  8
ARRANGE
  6
CONTINUOUS
 62
     1
 10
0.0
 20
0.0
 30
0.0
 39
50.0
  0
TEXT
  5
50
  8
NOTE
  6
CONTINUOUS
 62
     4
 10
-394.77692500000001
 20
86.877837
 30
0.0
 40
64.0
  1
EA
 41
0.9
  0
LINE
  5
51
  8
NOTE
  6
CONTINUOUS
 62
     4
 39
200.0
 10
-97.129261
 20
-8.1817510000000002
 30
0.0
 11
-97.129261
 21
9.8182489999999998
 31
0.0
  0
LINE
  5
52
  8
NOTE
  6
CONTINUOUS
 62
     4
 39
200.0
 10
-165.0
 20
10.0
 30
0.0
 11
-165.0
 21
-8.0
 31
0.0
  0
LINE
  5
53
  8
NOTE
  6
CONTINUOUS
 62
     4
 39
200.0
 10
102.870739
 20
-8.1817510000000002
 30
0.0
 11
102.870739
 21
9.8182489999999998
 31
0.0
  0
LINE
  5
54
  8
NOTE
  6
CONTINUOUS
 62
     4
 39
200.0
 10
165.0
 20
10.0
 30
0.0
 11
165.0
 21
-8.0
 31
0.0
  0
CIRCLE
  5
55
  8
FIX
  6
CONTINUOUS
 62
    11
 39
50.0
 10
-97.129261
 20
0.0
 30
0.0
 40
2.5
  0
CIRCLE
  5
56
  8
FIX
  6
CONTINUOUS
 62
    11
 39
50.0
 10
-165.0
 20
0.0
 30
0.0
 40
2.5
  0
CIRCLE
  5
57
  8
FIX
  6
CONTINUOUS
 62
    11
 39
50.0
 10
165.0
 20
0.0
 30
0.0
 40
2.5
  0
CIRCLE
  5
58
  8
FIX
  6
CONTINUOUS
 62
    11
 39
50.0
 10
102.870739
 20
0.0
 30
0.0
 40
2.5
  0
TEXT
  5
59
  8
NOTE
  6
CONTINUOUS
 62
     4
 10
281.02724299999988
 20
284.09432700000002
 30
0.0
 40
64.0
  1
AH 4-âË15ü~22
 41
0.9
  0
LINE
  5
5A
  8
NOTE
  6
CONTINUOUS
 62
     4
 39
50.0
 10
901.11444200000005
 20
272.95887199999987
 30
0.0
 11
263.06191199999989
 21
272.95887199999987
 31
0.0
  0
LINE
  5
5B
  8
NOTE
  6
CONTINUOUS
 62
     4
 39
50.0
 10
263.06191199999989
 20
272.95887199999987
 30
0.0
 11
188.2842609999999
 21
172.22546299999991
 31
0.0
  0
LINE
  5
5C
  8
BASIS
  6
DASHDOT
 62
     6
 10
0.0
 20
215.01898600000001
 30
0.0
 11
0.0
 21
-50.112684999999992
 31
0.0
  0
LINE
  5
5D
  8
BASIS
  6
DASHDOT
 62
     6
 10
-309.13333499999987
 20
109.0
 30
0.0
 11
-167.55804800000001
 21
109.0
 31
0.0
  0
LINE
  5
5E
  8
SIZE
  6
CONTINUOUS
 62
    30
 10
102.870739
 20
-28.181750999999991
 30
0.0
 11
102.870739
 21
-188.382138
 31
0.0
  0
LINE
  5
5F
  8
SIZE
  6
CONTINUOUS
 62
    30
 10
-97.129261
 20
-28.181750999999991
 30
0.0
 11
-97.129261
 21
-188.382138
 31
0.0
  0
LINE
  5
60
  8
SIZE
  6
CONTINUOUS
 62
    30
 10
90.870739
 20
-168.38213799999991
 30
0.0
 11
-85.129260999999985
 21
-168.38213799999991
 31
0.0
  0
CIRCLE
  5
61
  8
SIZE
  6
CONTINUOUS
 62
    30
 10
102.870739
 20
-168.38213799999991
 30
0.0
 40
6.0
  0
LINE
  5
62
  8
SIZE
  6
CONTINUOUS
 62
    30
 10
102.870739
 20
-168.38213799999991
 30
0.0
 11
90.870739
 21
-168.38213799999991
 31
0.0
  0
CIRCLE
  5
63
  8
SIZE
  6
CONTINUOUS
 62
    30
 10
-97.129261
 20
-168.38213799999991
 30
0.0
 40
6.0
  0
LINE
  5
64
  8
SIZE
  6
CONTINUOUS
 62
    30
 10
-97.129261
 20
-168.38213799999991
 30
0.0
 11
-85.129260999999985
 21
-168.38213799999991
 31
0.0
  0
TEXT
  5
65
  8
SIZE
  6
CONTINUOUS
 62
    30
 10
-71.186403857142849
 20
-143.38213799999991
 30
0.0
 40
64.0
  1
200
 41
0.9
 72
     1
 11
2.8707389999999999
 21
-143.38213799999991
 31
0.0
  0
POINT
  5
66
  8
DEFPOINTS
  6
CONTINUOUS
 62
    30
 10
102.870739
 20
-8.1817510000000002
 30
0.0
  0
POINT
  5
67
  8
DEFPOINTS
  6
CONTINUOUS
 62
    30
 10
-97.129261
 20
-8.1817510000000002
 30
0.0
  0
POINT
  5
68
  8
DEFPOINTS
  6
CONTINUOUS
 62
    30
 10
-97.129261
 20
-168.38213799999991
 30
0.0
  0
LINE
  5
69
  8
SIZE
  6
CONTINUOUS
 62
    30
 10
154.99940099999989
 20
20.0
 30
0.0
 11
154.99940099999989
 21
478.30402299999997
 31
0.0
  0
LINE
  5
6A
  8
SIZE
  6
CONTINUOUS
 62
    30
 10
-155.0005909999999
 20
19.931839
 30
0.0
 11
-155.0005909999999
 21
478.30402299999997
 31
0.0
  0
LINE
  5
6B
  8
SIZE
  6
CONTINUOUS
 62
    30
 10
142.99940100000001
 20
458.30402299999992
 30
0.0
 11
-143.00059099999999
 21
458.30402299999992
 31
0.0
  0
CIRCLE
  5
6C
  8
SIZE
  6
CONTINUOUS
 62
    30
 10
154.99940099999989
 20
458.30402299999992
 30
0.0
 40
6.0
  0
LINE
  5
6D
  8
SIZE
  6
CONTINUOUS
 62
    30
 10
154.99940099999989
 20
458.30402299999992
 30
0.0
 11
142.99940100000001
 21
458.30402299999992
 31
0.0
  0
CIRCLE
  5
6E
  8
SIZE
  6
CONTINUOUS
 62
    30
 10
-155.0005909999999
 20
458.30402299999992
 30
0.0
 40
6.0
  0
LINE
  5
6F
  8
SIZE
  6
CONTINUOUS
 62
    30
 10
-155.0005909999999
 20
458.30402299999992
 30
0.0
 11
-143.00059099999999
 21
458.30402299999992
 31
0.0
  0
TEXT
  5
70
  8
SIZE
  6
CONTINUOUS
 62
    30
 10
-121.8405915714285
 20
483.30402299999992
 30
0.0
 40
64.0
  1
üá310
 41
0.9
 72
     1
 11
-16.789162999999999
 21
483.30402299999992
 31
0.0
  0
POINT
  5
71
  8
DEFPOINTS
  6
CONTINUOUS
 62
    30
 10
154.99940099999989
 20
0.0
 30
0.0
  0
POINT
  5
72
  8
DEFPOINTS
  6
CONTINUOUS
 62
    30
 10
-155.0005909999999
 20
-0.068161
 30
0.0
  0
POINT
  5
73
  8
DEFPOINTS
  6
CONTINUOUS
 62
    30
 10
-155.0005909999999
 20
458.30402299999992
 30
0.0
  0
LINE
  5
74
  8
SIZE
  6
CONTINUOUS
 62
    30
 10
165.0
 20
-28.0
 30
0.0
 11
165.0
 21
-316.68388299999992
 31
0.0
  0
LINE
  5
75
  8
SIZE
  6
CONTINUOUS
 62
    30
 10
-165.0
 20
-28.0
 30
0.0
 11
-165.0
 21
-316.68388299999992
 31
0.0
  0
LINE
  5
76
  8
SIZE
  6
CONTINUOUS
 62
    30
 10
153.0
 20
-296.68388299999998
 30
0.0
 11
-153.0
 21
-296.68388299999998
 31
0.0
  0
CIRCLE
  5
77
  8
SIZE
  6
CONTINUOUS
 62
    30
 10
165.0
 20
-296.68388299999998
 30
0.0
 40
6.0
  0
LINE
  5
78
  8
SIZE
  6
CONTINUOUS
 62
    30
 10
165.0
 20
-296.68388299999998
 30
0.0
 11
153.0
 21
-296.68388299999998
 31
0.0
  0
CIRCLE
  5
79
  8
SIZE
  6
CONTINUOUS
 62
    30
 10
-165.0
 20
-296.68388299999998
 30
0.0
 40
6.0
  0
LINE
  5
7A
  8
SIZE
  6
CONTINUOUS
 62
    30
 10
-165.0
 20
-296.68388299999998
 30
0.0
 11
-153.0
 21
-296.68388299999998
 31
0.0
  0
TEXT
  5
7B
  8
SIZE
  6
CONTINUOUS
 62
    30
 10
-74.057142857142864
 20
-271.68388299999998
 30
0.0
 40
64.0
  1
330
 41
0.9
 72
     1
 11
0.0
 21
-271.68388299999998
 31
0.0
  0
POINT
  5
7C
  8
DEFPOINTS
  6
CONTINUOUS
 62
    30
 10
165.0
 20
-8.0
 30
0.0
  0
POINT
  5
7D
  8
DEFPOINTS
  6
CONTINUOUS
 62
    30
 10
-165.0
 20
-8.0
 30
0.0
  0
POINT
  5
7E
  8
DEFPOINTS
  6
CONTINUOUS
 62
    30
 10
-165.0
 20
-296.68388299999998
 30
0.0
  0
LINE
  5
7F
  8
SIZE
  6
CONTINUOUS
 62
    30
 10
195.0
 20
-23.401545999999989
 30
0.0
 11
195.0
 21
-444.01541500000002
 31
0.0
  0
LINE
  5
80
  8
SIZE
  6
CONTINUOUS
 62
    30
 10
-195.0
 20
-23.498629999999999
 30
0.0
 11
-195.0
 21
-444.01541500000002
 31
0.0
  0
LINE
  5
81
  8
SIZE
  6
CONTINUOUS
 62
    30
 10
183.0
 20
-424.01541500000002
 30
0.0
 11
-183.0
 21
-424.01541500000002
 31
0.0
  0
CIRCLE
  5
82
  8
SIZE
  6
CONTINUOUS
 62
    30
 10
195.0
 20
-424.01541500000002
 30
0.0
 40
6.0
  0
LINE
  5
83
  8
SIZE
  6
CONTINUOUS
 62
    30
 10
195.0
 20
-424.01541500000002
 30
0.0
 11
183.0
 21
-424.01541500000002
 31
0.0
  0
CIRCLE
  5
84
  8
SIZE
  6
CONTINUOUS
 62
    30
 10
-195.0
 20
-424.01541500000002
 30
0.0
 40
6.0
  0
LINE
  5
85
  8
SIZE
  6
CONTINUOUS
 62
    30
 10
-195.0
 20
-424.01541500000002
 30
0.0
 11
-183.0
 21
-424.01541500000002
 31
0.0
  0
TEXT
  5
86
  8
SIZE
  6
CONTINUOUS
 62
    30
 10
-110.5371428571428
 20
-399.01541500000002
 30
0.0
 40
64.0
  1
üá390
 41
0.9
 72
     1
 11
0.0
 21
-399.01541500000002
 31
0.0
  0
POINT
  5
87
  8
DEFPOINTS
  6
CONTINUOUS
 62
    30
 10
195.0
 20
-3.4015460000000002
 30
0.0
  0
POINT
  5
88
  8
DEFPOINTS
  6
CONTINUOUS
 62
    30
 10
-195.0
 20
-3.498629999999999
 30
0.0
  0
POINT
  5
89
  8
DEFPOINTS
  6
CONTINUOUS
 62
    30
 10
-195.0
 20
-424.01541500000002
 30
0.0
  0
LINE
  5
8A
  8
SIZE
  6
CONTINUOUS
 62
    30
 10
54.100006
 20
213.22808499999991
 30
0.0
 11
54.100006
 21
283.82254599999987
 31
0.0
  0
LINE
  5
8B
  8
SIZE
  6
CONTINUOUS
 62
    30
 10
-28.100006
 20
213.900024
 30
0.0
 11
-28.100006
 21
283.82254599999987
 31
0.0
  0
LINE
  5
8C
  8
SIZE
  6
CONTINUOUS
 62
    30
 10
66.100005999999993
 20
263.82254599999999
 30
0.0
 11
78.100005999999979
 21
263.82254599999999
 31
0.0
  0
LINE
  5
8D
  8
SIZE
  6
CONTINUOUS
 62
    30
 10
-40.100006
 20
263.82254599999999
 30
0.0
 11
-52.100006
 21
263.82254599999999
 31
0.0
  0
LINE
  5
8E
  8
SIZE
  6
CONTINUOUS
 62
    30
 10
54.100006
 20
263.82254599999999
 30
0.0
 11
-28.100006
 21
263.82254599999999
 31
0.0
  0
CIRCLE
  5
8F
  8
SIZE
  6
CONTINUOUS
 62
    30
 10
54.100006
 20
263.82254599999999
 30
0.0
 40
6.0
  0
LINE
  5
90
  8
SIZE
  6
CONTINUOUS
 62
    30
 10
54.100006
 20
263.82254599999999
 30
0.0
 11
66.100006000000008
 21
263.82254599999999
 31
0.0
  0
CIRCLE
  5
91
  8
SIZE
  6
CONTINUOUS
 62
    30
 10
-28.100006
 20
263.82254599999999
 30
0.0
 40
6.0
  0
LINE
  5
92
  8
SIZE
  6
CONTINUOUS
 62
    30
 10
-28.100006
 20
263.82254599999999
 30
0.0
 11
-40.100006
 21
263.82254599999999
 31
0.0
  0
TEXT
  5
93
  8
SIZE
  6
CONTINUOUS
 62
    30
 10
-73.948571428571398
 20
288.82254599999999
 30
0.0
 40
64.0
  1
âË82
 41
0.9
 72
     1
 11
13.0
 21
288.82254599999999
 31
0.0
  0
POINT
  5
94
  8
DEFPOINTS
  6
CONTINUOUS
 62
    30
 10
54.100006
 20
193.22808499999991
 30
0.0
  0
POINT
  5
95
  8
DEFPOINTS
  6
CONTINUOUS
 62
    30
 10
-28.100006
 20
193.900024
 30
0.0
  0
POINT
  5
96
  8
DEFPOINTS
  6
CONTINUOUS
 62
    30
 10
-28.100006
 20
263.82254599999999
 30
0.0
  0
LINE
  5
97
  8
SIZE
  6
CONTINUOUS
 62
    30
 10
170.52028300000001
 20
210.1380859999999
 30
0.0
 11
170.52028300000001
 21
607.68880899999988
 31
0.0
  0
LINE
  5
98
  8
SIZE
  6
CONTINUOUS
 62
    30
 10
-170.41640599999999
 20
219.23325799999989
 30
0.0
 11
-170.41640599999999
 21
607.68880899999988
 31
0.0
  0
LINE
  5
99
  8
SIZE
  6
CONTINUOUS
 62
    30
 10
158.52028300000001
 20
587.68880899999999
 30
0.0
 11
-158.41640599999991
 21
587.68880899999999
 31
0.0
  0
CIRCLE
  5
9A
  8
SIZE
  6
CONTINUOUS
 62
    30
 10
170.52028300000001
 20
587.68880899999999
 30
0.0
 40
6.0
  0
LINE
  5
9B
  8
SIZE
  6
CONTINUOUS
 62
    30
 10
170.52028300000001
 20
587.68880899999999
 30
0.0
 11
158.52028300000001
 21
587.68880899999999
 31
0.0
  0
CIRCLE
  5
9C
  8
SIZE
  6
CONTINUOUS
 62
    30
 10
-170.41640599999999
 20
587.68880899999999
 30
0.0
 40
6.0
  0
LINE
  5
9D
  8
SIZE
  6
CONTINUOUS
 62
    30
 10
-170.41640599999999
 20
587.68880899999999
 30
0.0
 11
-158.41640599999991
 21
587.68880899999999
 31
0.0
  0
TEXT
  5
9E
  8
SIZE
  6
CONTINUOUS
 62
    30
 10
-61.662347714285701
 20
612.68880899999999
 30
0.0
 40
64.0
  1
341
 41
0.9
 72
     1
 11
0.0519380000000069
 21
612.68880899999999
 31
0.0
  0
POINT
  5
9F
  8
DEFPOINTS
  6
CONTINUOUS
 62
    30
 10
170.52028300000001
 20
190.1380859999999
 30
0.0
  0
POINT
  5
A0
  8
DEFPOINTS
  6
CONTINUOUS
 62
    30
 10
-170.41640599999999
 20
199.23325800000001
 30
0.0
  0
POINT
  5
A1
  8
DEFPOINTS
  6
CONTINUOUS
 62
    30
 10
-170.41640599999999
 20
587.68880899999999
 30
0.0
  0
LINE
  5
A2
  8
SIZE
  6
CONTINUOUS
 62
    30
 10
-212.60096999999999
 20
0.0
 30
0.0
 11
-851.00582699999984
 21
0.0
 31
0.0
  0
LINE
  5
A3
  8
SIZE
  6
CONTINUOUS
 62
    30
 10
-168.0
 20
-20.0
 30
0.0
 11
-851.00582699999984
 21
-20.0
 31
0.0
  0
LINE
  5
A4
  8
SIZE
  6
CONTINUOUS
 62
    30
 10
-831.00582699999984
 20
12.0
 30
0.0
 11
-831.00582699999984
 21
24.0
 31
0.0
  0
LINE
  5
A5
  8
SIZE
  6
CONTINUOUS
 62
    30
 10
-831.00582699999984
 20
-32.0
 30
0.0
 11
-831.00582699999984
 21
-193.028109
 31
0.0
  0
LINE
  5
A6
  8
SIZE
  6
CONTINUOUS
 62
    30
 10
-831.00582699999984
 20
0.0
 30
0.0
 11
-831.00582699999984
 21
-20.0
 31
0.0
  0
CIRCLE
  5
A7
  8
SIZE
  6
CONTINUOUS
 62
    30
 10
-831.00582699999984
 20
0.0
 30
0.0
 40
6.0
  0
LINE
  5
A8
  8
SIZE
  6
CONTINUOUS
 62
    30
 10
-831.00582699999984
 20
0.0
 30
0.0
 11
-831.00582699999984
 21
12.0
 31
0.0
  0
CIRCLE
  5
A9
  8
SIZE
  6
CONTINUOUS
 62
    30
 10
-831.00582699999984
 20
-20.0
 30
0.0
 40
6.0
  0
LINE
  5
AA
  8
SIZE
  6
CONTINUOUS
 62
    30
 10
-831.00582699999984
 20
-20.0
 30
0.0
 11
-831.00582699999984
 21
-32.0
 31
0.0
  0
TEXT
  5
AB
  8
SIZE
  6
CONTINUOUS
 62
    30
 10
-856.00582699999984
 20
-168.02810842857139
 30
0.0
 40
64.0
  1
20
 50
90.0
 41
0.9
 72
     1
 11
-856.00582699999984
 21
-121.399537
 31
0.0
  0
POINT
  5
AC
  8
DEFPOINTS
  6
CONTINUOUS
 62
    30
 10
-192.60096999999999
 20
0.0
 30
0.0
  0
POINT
  5
AD
  8
DEFPOINTS
  6
CONTINUOUS
 62
    30
 10
-148.0
 20
-20.0
 30
0.0
  0
POINT
  5
AE
  8
DEFPOINTS
  6
CONTINUOUS
 62
    30
 10
-831.00582699999984
 20
-20.0
 30
0.0
  0
LINE
  5
AF
  8
SIZE
  6
CONTINUOUS
 62
    30
 10
-212.60096999999999
 20
0.0
 30
0.0
 11
-481.50912199999999
 21
0.0
 31
0.0
  0
LINE
  5
B0
  8
SIZE
  6
CONTINUOUS
 62
    30
 10
-329.13333499999987
 20
109.0
 30
0.0
 11
-481.50912199999999
 21
109.0
 31
0.0
  0
LINE
  5
B1
  8
SIZE
  6
CONTINUOUS
 62
    30
 10
-461.50912199999999
 20
97.0
 30
0.0
 11
-461.50912199999999
 21
12.0
 31
0.0
  0
LINE
  5
B2
  8
SIZE
  6
CONTINUOUS
 62
    30
 10
-461.50912199999999
 20
0.0
 30
0.0
 11
-461.50912199999999
 21
-196.40000000000001
 31
0.0
  0
CIRCLE
  5
B3
  8
SIZE
  6
CONTINUOUS
 62
    30
 10
-461.50912199999999
 20
109.0
 30
0.0
 40
6.0
  0
LINE
  5
B4
  8
SIZE
  6
CONTINUOUS
 62
    30
 10
-461.50912199999999
 20
109.0
 30
0.0
 11
-461.50912199999999
 21
97.0
 31
0.0
  0
CIRCLE
  5
B5
  8
SIZE
  6
CONTINUOUS
 62
    30
 10
-461.50912199999999
 20
0.0
 30
0.0
 40
6.0
  0
LINE
  5
B6
  8
SIZE
  6
CONTINUOUS
 62
    30
 10
-461.50912199999999
 20
0.0
 30
0.0
 11
-461.50912199999999
 21
12.0
 31
0.0
  0
TEXT
  5
B7
  8
SIZE
  6
CONTINUOUS
 62
    30
 10
-486.50912199999999
 20
-171.39999999999989
 30
0.0
 40
64.0
  1
109
 50
90.0
 41
0.9
 72
     1
 11
-486.50912199999999
 21
-104.2
 31
0.0
  0
POINT
  5
B8
  8
DEFPOINTS
  6
CONTINUOUS
 62
    30
 10
-192.60096999999999
 20
0.0
 30
0.0
  0
POINT
  5
B9
  8
DEFPOINTS
  6
CONTINUOUS
 62
    30
 10
-309.13333499999987
 20
109.0
 30
0.0
  0
POINT
  5
BA
  8
DEFPOINTS
  6
CONTINUOUS
 62
    30
 10
-461.50912199999999
 20
109.0
 30
0.0
  0
LINE
  5
BB
  8
SIZE
  6
CONTINUOUS
 62
    30
 10
-212.60096999999999
 20
0.0
 30
0.0
 11
-851.00582699999984
 21
0.0
 31
0.0
  0
LINE
  5
BC
  8
SIZE
  6
CONTINUOUS
 62
    30
 10
-73.396963999999983
 20
199.940665
 30
0.0
 11
-851.00582699999984
 21
199.940665
 31
0.0
  0
LINE
  5
BD
  8
SIZE
  6
CONTINUOUS
 62
    30
 10
-831.00582699999984
 20
12.0
 30
0.0
 11
-831.00582699999984
 21
187.94066499999991
 31
0.0
  0
CIRCLE
  5
BE
  8
SIZE
  6
CONTINUOUS
 62
    30
 10
-831.00582699999984
 20
0.0
 30
0.0
 40
6.0
  0
LINE
  5
BF
  8
SIZE
  6
CONTINUOUS
 62
    30
 10
-831.00582699999984
 20
0.0
 30
0.0
 11
-831.00582699999984
 21
12.0
 31
0.0
  0
CIRCLE
  5
C0
  8
SIZE
  6
CONTINUOUS
 62
    30
 10
-831.00582699999984
 20
199.940665
 30
0.0
 40
6.0
  0
LINE
  5
C1
  8
SIZE
  6
CONTINUOUS
 62
    30
 10
-831.00582699999984
 20
199.940665
 30
0.0
 11
-831.00582699999984
 21
187.94066499999991
 31
0.0
  0
TEXT
  5
C2
  8
SIZE
  6
CONTINUOUS
 62
    30
 10
-856.00582699999984
 20
25.91318914285716
 30
0.0
 40
64.0
  1
200
 50
90.0
 41
0.9
 72
     1
 11
-856.00582699999984
 21
99.970332000000013
 31
0.0
  0
POINT
  5
C3
  8
DEFPOINTS
  6
CONTINUOUS
 62
    30
 10
-192.60096999999999
 20
0.0
 30
0.0
  0
POINT
  5
C4
  8
DEFPOINTS
  6
CONTINUOUS
 62
    30
 10
-53.396963999999997
 20
199.940665
 30
0.0
  0
POINT
  5
C5
  8
DEFPOINTS
  6
CONTINUOUS
 62
    30
 10
-831.00582699999984
 20
199.940665
 30
0.0
  0
LINE
  5
C6
  8
SIZE
  6
CONTINUOUS
 62
    30
 10
-212.60096999999999
 20
0.0
 30
0.0
 11
-364.40330499999988
 21
0.0
 31
0.0
  0
LINE
  5
C7
  8
SIZE
  6
CONTINUOUS
 62
    30
 10
-174.09857600000001
 20
52.036419000000002
 30
0.0
 11
-364.40330499999988
 21
52.036419000000002
 31
0.0
  0
LINE
  5
C8
  8
SIZE
  6
CONTINUOUS
 62
    30
 10
-344.40330499999988
 20
64.036418999999995
 30
0.0
 11
-344.40330499999988
 21
76.036418999999981
 31
0.0
  0
LINE
  5
C9
  8
SIZE
  6
CONTINUOUS
 62
    30
 10
-344.40330499999988
 20
-12.0
 30
0.0
 11
-344.40330499999988
 21
-167.25714300000001
 31
0.0
  0
LINE
  5
CA
  8
SIZE
  6
CONTINUOUS
 62
    30
 10
-344.40330499999988
 20
52.036419000000002
 30
0.0
 11
-344.40330499999988
 21
0.0
 31
0.0
  0
CIRCLE
  5
CB
  8
SIZE
  6
CONTINUOUS
 62
    30
 10
-344.40330499999988
 20
52.036419000000002
 30
0.0
 40
6.0
  0
LINE
  5
CC
  8
SIZE
  6
CONTINUOUS
 62
    30
 10
-344.40330499999988
 20
52.036419000000002
 30
0.0
 11
-344.40330499999988
 21
64.036418999999995
 31
0.0
  0
CIRCLE
  5
CD
  8
SIZE
  6
CONTINUOUS
 62
    30
 10
-344.40330499999988
 20
0.0
 30
0.0
 40
6.0
  0
LINE
  5
CE
  8
SIZE
  6
CONTINUOUS
 62
    30
 10
-344.40330499999988
 20
0.0
 30
0.0
 11
-344.40330499999988
 21
-12.0
 31
0.0
  0
TEXT
  5
CF
  8
SIZE
  6
CONTINUOUS
 62
    30
 10
-369.40330499999988
 20
-142.25714242857131
 30
0.0
 40
64.0
  1
52
 50
90.0
 41
0.9
 72
     1
 11
-369.40330499999988
 21
-95.628570999999994
 31
0.0
  0
POINT
  5
D0
  8
DEFPOINTS
  6
CONTINUOUS
 62
    30
 10
-192.60096999999999
 20
0.0
 30
0.0
  0
POINT
  5
D1
  8
DEFPOINTS
  6
CONTINUOUS
 62
    30
 10
-154.09857600000001
 20
52.036419000000002
 30
0.0
  0
POINT
  5
D2
  8
DEFPOINTS
  6
CONTINUOUS
 62
    30
 10
-344.40330499999988
 20
52.036419000000002
 30
0.0
  0
TEXT
  5
D3
  8
NOTE
  6
CONTINUOUS
 62
     4
 10
-490.27638100000001
 20
-293.08867600000002
 30
0.0
 40
64.0
  1
8-âË5
 41
0.9
  0
LINE
  5
D4
  8
NOTE
  6
CONTINUOUS
 62
     4
 39
50.0
 10
-509.67560500000002
 20
-300.424646
 30
0.0
 11
-237.369169
 21
-300.424646
 31
0.0
  0
LINE
  5
D5
  8
NOTE
  6
CONTINUOUS
 62
     4
 39
50.0
 10
-237.369169
 20
-300.424646
 30
0.0
 11
-165.0
 21
-2.5
 31
0.0
  0
LINE
  5
D6
  8
NOTE
  6
CONTINUOUS
 62
     4
 39
50.0
 10
-165.0
 20
-2.5
 30
0.0
 11
-170.10912200000001
 21
-10.85605399999999
 31
0.0
  0
LINE
  5
D7
  8
NOTE
  6
CONTINUOUS
 62
     4
 39
50.0
 10
-165.0
 20
-2.5
 30
0.0
 11
-164.29358300000001
 21
-12.268712000000001
 31
0.0
  0
LINE
  5
D8
  8
OUTLINE
  6
CONTINUOUS
 62
     3
 10
194.0
 20
0.0
 30
0.0
 11
154.737267
 21
0.0
 31
0.0
  0
LINE
  5
D9
  8
OUTLINE
  6
CONTINUOUS
 62
     3
 10
145.5
 20
-20.0
 30
0.0
 11
0.0
 21
-20.0
 31
0.0
  0
LINE
  5
DA
  8
OUTLINE
  6
CONTINUOUS
 62
     3
 10
48.0
 20
200.0
 30
0.0
 11
13.0
 21
200.0
 31
0.0
  0
LINE
  5
DB
  8
OUTLINE
  6
CONTINUOUS
 62
     3
 10
154.737267
 20
0.0
 30
0.0
 11
151.73106100000001
 21
172.22546299999991
 31
0.0
  0
ARC
  5
DC
  8
OUTLINE
  6
CONTINUOUS
 62
     3
 10
147.0
 20
97.700000000000017
 30
0.0
 40
117.7
 50
270.48680100000001
 51
292.08657499999993
  0
ARC
  5
DD
  8
OUTLINE
  6
CONTINUOUS
 62
     3
 10
189.0
 20
-5.8030920000000004
 30
0.0
 40
6.0
 50
292.08657499999993
 51
0.0
  0
LINE
  5
DE
  8
OUTLINE
  6
CONTINUOUS
 62
     3
 10
195.0
 20
-1.0
 30
0.0
 11
195.0
 21
-5.8030920000000004
 31
0.0
  0
ARC
  5
DF
  8
OUTLINE
  6
CONTINUOUS
 62
     3
 10
194.0
 20
-1.0
 30
0.0
 40
1.0
 50
0.0
 51
90.0
  0
LINE
  5
E0
  8
OUTLINE
  6
CONTINUOUS
 62
     3
 10
148.0
 20
-19.0
 30
0.0
 11
148.0
 21
-20.0
 31
0.0
  0
LINE
  5
E1
  8
OUTLINE
  6
CONTINUOUS
 62
     3
 10
145.5
 20
-19.0
 30
0.0
 11
145.5
 21
-20.0
 31
0.0
  0
LINE
  5
E2
  8
OUTLINE
  6
CONTINUOUS
 62
     3
 10
145.5
 20
-19.0
 30
0.0
 11
148.0
 21
-19.0
 31
0.0
  0
LINE
  5
E3
  8
OUTLINE
  6
CONTINUOUS
 62
     3
 10
123.846243
 20
172.44080999999991
 30
0.0
 11
132.34948199999999
 21
186.91440800000001
 31
0.0
  0
LINE
  5
E4
  8
OUTLINE
  6
CONTINUOUS
 62
     3
 10
114.7372669999999
 20
165.0
 30
0.0
 11
94.987267000000003
 21
165.0
 31
0.0
  0
ARC
  5
E5
  8
OUTLINE
  6
CONTINUOUS
 62
     3
 10
134.2463469999999
 20
185.80000000000001
 30
0.0
 40
2.2000000000000002
 50
90.0
 51
149.565764
  0
ARC
  5
E6
  8
OUTLINE
  6
CONTINUOUS
 62
     3
 10
135.02386699999991
 20
185.80000000000001
 30
0.0
 40
2.2000000000000002
 50
0.992294
 51
90.0
  0
LINE
  5
E7
  8
OUTLINE
  6
CONTINUOUS
 62
     3
 10
134.2463469999999
 20
188.0
 30
0.0
 11
135.02386699999991
 21
188.0
 31
0.0
  0
LINE
  5
E8
  8
OUTLINE
  6
CONTINUOUS
 62
     3
 10
137.46114600000001
 20
172.22546299999991
 30
0.0
 11
137.22353200000001
 21
185.83839499999991
 31
0.0
  0
LINE
  5
E9
  8
OUTLINE
  6
CONTINUOUS
 62
     3
 10
94.355562000000006
 20
168.0
 30
0.0
 11
54.600006
 21
168.0
 31
0.0
  0
ARC
  5
EA
  8
OUTLINE
  6
CONTINUOUS
 62
     3
 10
124.70845799999989
 20
171.93426700000001
 30
0.0
 40
1.0
 50
149.56613300000001
 51
163.0704189999999
  0
ARC
  5
EB
  8
OUTLINE
  6
CONTINUOUS
 62
     3
 10
94.355562000000006
 20
167.5
 30
0.0
 40
0.5
 50
3.0
 51
90.0
  0
LINE
  5
EC
  8
OUTLINE
  6
CONTINUOUS
 62
     3
 10
94.987267000000003
 20
165.0
 30
0.0
 11
94.854877000000002
 21
167.52616800000001
 31
0.0
  0
LINE
  5
ED
  8
OUTLINE
  6
CONTINUOUS
 62
     3
 10
54.100006
 20
193.900024
 30
0.0
 11
54.100006
 21
170.29485500000001
 31
0.0
  0
LINE
  5
EE
  8
OUTLINE
  6
CONTINUOUS
 62
     3
 10
54.600060999999997
 20
169.428766
 30
0.0
 11
54.100045000000001
 21
170.29485500000001
 31
0.0
  0
LINE
  5
EF
  8
OUTLINE
  6
CONTINUOUS
 62
     3
 10
54.600006
 20
169.428766
 30
0.0
 11
54.600006
 21
168.0
 31
0.0
  0
ARC
  5
F0
  8
OUTLINE
  6
CONTINUOUS
 62
     3
 10
48.0
 20
193.900024
 30
0.0
 40
6.0999999999999988
 50
0.000001
 51
90.0
  0
LINE
  5
F1
  8
OUTLINE
  6
CONTINUOUS
 62
     3
 10
-151.94568000000001
 20
175.5
 30
0.0
 11
-155.00031599999991
 21
0.5
 31
0.0
  0
LINE
  5
F2
  8
OUTLINE
  6
CONTINUOUS
 62
     3
 10
-194.0
 20
0.0
 30
0.0
 11
-155.00031599999991
 21
0.0
 31
0.0
  0
ARC
  5
F3
  8
OUTLINE
  6
CONTINUOUS
 62
     3
 10
-147.0
 20
97.700000000000017
 30
0.0
 40
117.7
 50
247.9134249999999
 51
269.51319899999987
  0
LINE
  5
F4
  8
OUTLINE
  6
CONTINUOUS
 62
     3
 10
-145.5
 20
-20.0
 30
0.0
 11
0.0
 21
-20.0
 31
0.0
  0
LINE
  5
F5
  8
OUTLINE
  6
CONTINUOUS
 62
     3
 10
-148.0
 20
-19.0
 30
0.0
 11
-148.0
 21
-20.0
 31
0.0
  0
LINE
  5
F6
  8
OUTLINE
  6
CONTINUOUS
 62
     3
 10
-145.5
 20
-19.0
 30
0.0
 11
-145.5
 21
-20.0
 31
0.0
  0
LINE
  5
F7
  8
OUTLINE
  6
CONTINUOUS
 62
     3
 10
-145.5
 20
-19.0
 30
0.0
 11
-148.0
 21
-19.0
 31
0.0
  0
ARC
  5
F8
  8
OUTLINE
  6
CONTINUOUS
 62
     3
 10
-189.0
 20
-5.8030920000000004
 30
0.0
 40
6.0
 50
180.0
 51
247.9134249999999
  0
LINE
  5
F9
  8
OUTLINE
  6
CONTINUOUS
 62
     3
 10
-195.0
 20
-1.0
 30
0.0
 11
-195.0
 21
-5.8030920000000004
 31
0.0
  0
ARC
  5
FA
  8
OUTLINE
  6
CONTINUOUS
 62
     3
 10
-194.0
 20
-1.0
 30
0.0
 40
1.0
 50
90.0
 51
180.0
  0
LINE
  5
FB
  8
OUTLINE
  6
CONTINUOUS
 62
     3
 10
-29.608521
 20
168.0
 30
0.0
 11
-123.8048379999999
 21
168.0
 31
0.0
  0
LINE
  5
FC
  8
OUTLINE
  6
CONTINUOUS
 62
     3
 10
-28.100006
 20
173.49499
 30
0.0
 11
-28.857493000000002
 21
172.23251200000001
 31
0.0
  0
ARC
  5
FD
  8
OUTLINE
  6
CONTINUOUS
 62
     3
 10
-22.0
 20
193.900024
 30
0.0
 40
6.0999999999999988
 50
90.0
 51
179.999999
  0
LINE
  5
FE
  8
OUTLINE
  6
CONTINUOUS
 62
     3
 10
-28.100006
 20
193.900024
 30
0.0
 11
-28.100006
 21
173.49499
 31
0.0
  0
LINE
  5
FF
  8
OUTLINE
  6
CONTINUOUS
 62
     3
 10
-22.0
 20
200.0
 30
0.0
 11
13.0
 21
200.0
 31
0.0
  0
LINE
  5
100
  8
OUTLINE
  6
CONTINUOUS
 62
     3
 10
-62.0
 20
167.995
 30
0.0
 11
-29.0
 21
167.995
 31
0.0
  0
ARC
  5
101
  8
OUTLINE
  6
CONTINUOUS
 62
     3
 10
-28.0
 20
171.71801600000001
 30
0.0
 40
1.0
 50
149.03624300000001
 51
180.0
  0
LINE
  5
102
  8
OUTLINE
  6
CONTINUOUS
 62
     3
 10
-29.0
 20
167.995
 30
0.0
 11
-29.0
 21
171.71801600000001
 31
0.0
  0
LINE
  5
103
  8
OUTLINE
  6
CONTINUOUS
 62
     3
 10
-115.9460439999999
 20
175.5
 30
0.0
 11
-124.52834900000001
 21
175.5
 31
0.0
  0
LINE
  5
104
  8
OUTLINE
  6
CONTINUOUS
 62
     3
 10
-144.982607
 20
182.5
 30
0.0
 11
-143.82745600000001
 21
182.5
 31
0.0
  0
LINE
  5
105
  8
OUTLINE
  6
CONTINUOUS
 62
     3
 10
-126.732299
 20
187.26956599999991
 30
0.0
 11
-132.31628599999991
 21
192.85355299999989
 31
0.0
  0
LINE
  5
106
  8
OUTLINE
  6
CONTINUOUS
 62
     3
 10
-116.982607
 20
182.5
 30
0.0
 11
-116.919736
 21
182.5
 31
0.0
  0
LINE
  5
107
  8
OUTLINE
  6
CONTINUOUS
 62
     3
 10
-116.1702139999999
 20
181.776769
 30
0.0
 11
-115.9460439999999
 21
175.5
 31
0.0
  0
ARC
  5
108
  8
OUTLINE
  6
CONTINUOUS
 62
     3
 10
-116.919736
 20
181.75
 30
0.0
 40
0.75
 50
2.0454080000000001
 51
90.0
  0
ARC
  5
109
  8
OUTLINE
  6
CONTINUOUS
 62
     3
 10
-116.919736
 20
181.75
 30
0.0
 40
0.75
 50
2.0454080000000001
 51
90.0
  0
LINE
  5
10A
  8
OUTLINE
  6
CONTINUOUS
 62
     3
 10
-116.1702139999999
 20
181.776769
 30
0.0
 11
-115.9460439999999
 21
175.5
 31
0.0
  0
LINE
  5
10B
  8
OUTLINE
  6
CONTINUOUS
 62
     3
 10
-116.982607
 20
182.5
 30
0.0
 11
-116.919736
 21
182.5
 31
0.0
  0
LINE
  5
10C
  8
OUTLINE
  6
CONTINUOUS
 62
     3
 10
-125.1407699999999
 20
182.5
 30
0.0
 11
-125.28685900000001
 21
184.16981100000001
 31
0.0
  0
ARC
  5
10D
  8
OUTLINE
  6
CONTINUOUS
 62
     3
 10
-130.26783299999991
 20
183.73403200000001
 30
0.0
 40
5.0
 50
4.999064999999999
 51
45.0
  0
LINE
  5
10E
  8
OUTLINE
  6
CONTINUOUS
 62
     3
 10
-124.0058199999999
 20
169.52746300000001
 30
0.0
 11
-124.52834900000001
 21
175.5
 31
0.0
  0
LINE
  5
10F
  8
OUTLINE
  6
CONTINUOUS
 62
     3
 10
-123.8048379999999
 20
168.0
 30
0.0
 11
-124.0058199999999
 21
169.52746300000001
 31
0.0
  0
LINE
  5
110
  8
OUTLINE
  6
CONTINUOUS
 62
     3
 10
-121.9460439999999
 20
175.5
 30
0.0
 11
-122.510385
 21
175.5
 31
0.0
  0
ARC
  5
111
  8
OUTLINE
  6
CONTINUOUS
 62
     3
 10
-144.982607
 20
181.75
 30
0.0
 40
0.75
 50
90.0
 51
177.137595
  0
LINE
  5
112
  8
OUTLINE
  6
CONTINUOUS
 62
     3
 10
-144.982607
 20
182.5
 30
0.0
 11
-144.909481
 21
182.5
 31
0.0
  0
LINE
  5
113
  8
OUTLINE
  6
CONTINUOUS
 62
     3
 10
-144.982607
 20
182.5
 30
0.0
 11
-144.909481
 21
182.5
 31
0.0
  0
ARC
  5
114
  8
OUTLINE
  6
CONTINUOUS
 62
     3
 10
-144.982607
 20
181.75
 30
0.0
 40
0.75
 50
90.0
 51
177.137595
  0
LINE
  5
115
  8
OUTLINE
  6
CONTINUOUS
 62
     3
 10
-145.73167100000001
 20
181.787453
 30
0.0
 11
-145.94604399999989
 21
177.5
 31
0.0
  0
LINE
  5
116
  8
OUTLINE
  6
CONTINUOUS
 62
     3
 10
-145.73167100000001
 20
181.787453
 30
0.0
 11
-145.94604399999989
 21
177.5
 31
0.0
  0
LINE
  5
117
  8
OUTLINE
  6
CONTINUOUS
 62
     3
 10
-145.94604399999989
 20
177.5
 30
0.0
 11
-149.946044
 21
177.5
 31
0.0
  0
ARC
  5
118
  8
OUTLINE
  6
CONTINUOUS
 62
     3
 10
-149.946044
 20
175.5
 30
0.0
 40
2.0
 50
90.0
 51
180.0
  0
ARC
  5
119
  8
OUTLINE
  6
CONTINUOUS
 62
     3
 10
-149.946044
 20
175.5
 30
0.0
 40
2.0
 50
90.0
 51
180.0
  0
LINE
  5
11A
  8
OUTLINE
  6
CONTINUOUS
 62
     3
 10
-145.94604399999989
 20
177.5
 30
0.0
 11
-149.946044
 21
177.5
 31
0.0
  0
ARC
  5
11B
  8
OUTLINE
  6
CONTINUOUS
 62
     3
 10
-139.13944000000001
 20
192.5
 30
0.0
 40
0.5
 50
90.0
 51
155.772255
  0
ARC
  5
11C
  8
OUTLINE
  6
CONTINUOUS
 62
     3
 10
-132.669839
 20
192.5
 30
0.0
 40
0.5
 50
45.0
 51
90.0
  0
LINE
  5
11D
  8
OUTLINE
  6
CONTINUOUS
 62
     3
 10
-132.669839
 20
193.0
 30
0.0
 11
-139.13944000000001
 21
193.0
 31
0.0
  0
LINE
  5
11E
  8
OUTLINE
  6
CONTINUOUS
 62
     3
 10
-139.59540100000001
 20
192.70518200000001
 30
0.0
 11
-143.770747
 21
183.42663400000001
 31
0.0
  0
LINE
  5
11F
  8
OUTLINE
  6
CONTINUOUS
 62
     3
 10
-143.8147109999999
 20
183.23017799999991
 30
0.0
 11
-143.82745600000001
 21
182.5
 31
0.0
  0
ARC
  5
120
  8
OUTLINE
  6
CONTINUOUS
 62
     3
 10
-143.314787
 20
183.221451
 30
0.0
 40
0.5
 50
155.772255
 51
179.0
  0
LINE
  5
121
  8
SIZE
  6
CONTINUOUS
 62
    30
 10
212.60096999999999
 20
0.0
 30
0.0
 11
302.39210700000001
 21
0.0
 31
0.0
  0
LINE
  5
122
  8
SIZE
  6
CONTINUOUS
 62
    30
 10
208.2842609999999
 20
170.22546299999991
 30
0.0
 11
302.39210700000001
 21
170.22546299999991
 31
0.0
  0
LINE
  5
123
  8
SIZE
  6
CONTINUOUS
 62
    30
 10
282.39210700000001
 20
12.0
 30
0.0
 11
282.39210700000001
 21
158.22546299999991
 31
0.0
  0
CIRCLE
  5
124
  8
SIZE
  6
CONTINUOUS
 62
    30
 10
282.39210700000001
 20
0.0
 30
0.0
 40
6.0
  0
LINE
  5
125
  8
SIZE
  6
CONTINUOUS
 62
    30
 10
282.39210700000001
 20
0.0
 30
0.0
 11
282.39210700000001
 21
12.0
 31
0.0
  0
CIRCLE
  5
126
  8
SIZE
  6
CONTINUOUS
 62
    30
 10
282.39210700000001
 20
170.22546299999991
 30
0.0
 40
6.0
  0
LINE
  5
127
  8
SIZE
  6
CONTINUOUS
 62
    30
 10
282.39210700000001
 20
170.22546299999991
 30
0.0
 11
282.39210700000001
 21
158.22546299999991
 31
0.0
  0
TEXT
  5
128
  8
SIZE
  6
CONTINUOUS
 62
    30
 10
257.39210700000001
 20
16.541302428571409
 30
0.0
 40
64.0
  1
170
 50
90.0
 41
0.9
 72
     1
 11
257.39210700000001
 21
85.112730999999982
 31
0.0
  0
POINT
  5
129
  8
DEFPOINTS
  6
CONTINUOUS
 62
    30
 10
192.60096999999999
 20
0.0
 30
0.0
  0
POINT
  5
12A
  8
DEFPOINTS
  6
CONTINUOUS
 62
    30
 10
188.2842609999999
 20
170.22546299999991
 30
0.0
  0
POINT
  5
12B
  8
DEFPOINTS
  6
CONTINUOUS
 62
    30
 10
282.39210700000001
 20
170.22546299999991
 30
0.0
  0
LINE
  5
12C
  8
SIZE
  6
CONTINUOUS
 62
    30
 10
-282.98104799999987
 20
158.017774
 30
0.0
 11
-591.83251700000005
 21
158.017774
 31
0.0
  0
LINE
  5
12D
  8
SIZE
  6
CONTINUOUS
 62
    30
 10
-282.39661899999987
 20
59.977125999999991
 30
0.0
 11
-591.83251700000005
 21
59.977125999999991
 31
0.0
  0
LINE
  5
12E
  8
SIZE
  6
CONTINUOUS
 62
    30
 10
-571.83251700000005
 20
146.01777399999989
 30
0.0
 11
-571.83251700000005
 21
71.977125999999998
 31
0.0
  0
LINE
  5
12F
  8
SIZE
  6
CONTINUOUS
 62
    30
 10
-571.83251700000005
 20
59.977125999999991
 30
0.0
 11
-571.83251700000005
 21
-232.59535700000001
 31
0.0
  0
CIRCLE
  5
130
  8
SIZE
  6
CONTINUOUS
 62
    30
 10
-571.83251700000005
 20
158.017774
 30
0.0
 40
6.0
  0
LINE
  5
131
  8
SIZE
  6
CONTINUOUS
 62
    30
 10
-571.83251700000005
 20
158.017774
 30
0.0
 11
-571.83251700000005
 21
146.01777399999989
 31
0.0
  0
CIRCLE
  5
132
  8
SIZE
  6
CONTINUOUS
 62
    30
 10
-571.83251700000005
 20
59.977125999999991
 30
0.0
 40
6.0
  0
LINE
  5
133
  8
SIZE
  6
CONTINUOUS
 62
    30
 10
-571.83251700000005
 20
59.977125999999991
 30
0.0
 11
-571.83251700000005
 21
71.977125999999998
 31
0.0
  0
TEXT
  5
134
  8
SIZE
  6
CONTINUOUS
 62
    30
 10
-596.83251700000005
 20
-219.1153564285714
 30
0.0
 40
64.0
  1
âË98
 50
90.0
 41
0.9
 72
     1
 11
-596.83251700000005
 21
-132.166785
 31
0.0
  0
POINT
  5
135
  8
DEFPOINTS
  6
CONTINUOUS
 62
    30
 10
-262.98104799999987
 20
158.017774
 30
0.0
  0
POINT
  5
136
  8
DEFPOINTS
  6
CONTINUOUS
 62
    30
 10
-262.39661899999987
 20
59.977125999999991
 30
0.0
  0
POINT
  5
137
  8
DEFPOINTS
  6
CONTINUOUS
 62
    30
 10
-571.83251700000005
 20
59.977125999999991
 30
0.0
  0
LINE
  5
138
  8
SIZE
  6
CONTINUOUS
 62
    30
 10
-250.77208699999991
 20
161.68778900000001
 30
0.0
 11
-722.15129999999988
 21
161.68778900000001
 31
0.0
  0
LINE
  5
139
  8
SIZE
  6
CONTINUOUS
 62
    30
 10
-250.77208699999991
 20
56.312210999999998
 30
0.0
 11
-722.15129999999988
 21
56.312210999999998
 31
0.0
  0
LINE
  5
13A
  8
SIZE
  6
CONTINUOUS
 62
    30
 10
-702.15129999999988
 20
149.68778900000001
 30
0.0
 11
-702.15129999999988
 21
68.312211000000005
 31
0.0
  0
LINE
  5
13B
  8
SIZE
  6
CONTINUOUS
 62
    30
 10
-702.15129999999988
 20
56.312210999999998
 30
0.0
 11
-702.15129999999988
 21
-267.70971900000001
 31
0.0
  0
CIRCLE
  5
13C
  8
SIZE
  6
CONTINUOUS
 62
    30
 10
-702.15129999999988
 20
161.68778900000001
 30
0.0
 40
6.0
  0
LINE
  5
13D
  8
SIZE
  6
CONTINUOUS
 62
    30
 10
-702.15129999999988
 20
161.68778900000001
 30
0.0
 11
-702.15129999999988
 21
149.68778900000001
 31
0.0
  0
CIRCLE
  5
13E
  8
SIZE
  6
CONTINUOUS
 62
    30
 10
-702.15129999999988
 20
56.312210999999998
 30
0.0
 40
6.0
  0
LINE
  5
13F
  8
SIZE
  6
CONTINUOUS
 62
    30
 10
-702.15129999999988
 20
56.312210999999998
 30
0.0
 11
-702.15129999999988
 21
68.312210999999991
 31
0.0
  0
TEXT
  5
140
  8
SIZE
  6
CONTINUOUS
 62
    30
 10
-727.15129999999988
 20
-254.22971857142849
 30
0.0
 40
64.0
  1
âË105
 50
90.0
 41
0.9
 72
     1
 11
-727.15129999999988
 21
-145.33829
 31
0.0
  0
POINT
  5
141
  8
DEFPOINTS
  6
CONTINUOUS
 62
    30
 10
-230.772087
 20
161.68778900000001
 30
0.0
  0
POINT
  5
142
  8
DEFPOINTS
  6
CONTINUOUS
 62
    30
 10
-230.772087
 20
56.312210999999998
 30
0.0
  0
POINT
  5
143
  8
DEFPOINTS
  6
CONTINUOUS
 62
    30
 10
-702.15129999999988
 20
56.312210999999998
 30
0.0
  0
LINE
  5
144
  8
NOTE
  6
CONTINUOUS
 62
     4
 39
50.0
 10
170.52028300000001
 20
190.1380859999999
 30
0.0
 11
170.52028300000001
 21
154.31283999999999
 31
0.0
  0
LINE
  5
145
  8
OUTLINE
  6
CONTINUOUS
 62
     3
 39
50.0
 10
114.7372669999999
 20
172.22546299999991
 30
0.0
 11
123.70860999999989
 21
172.22546299999991
 31
0.0
  0
LINE
  5
146
  8
OUTLINE
  6
CONTINUOUS
 62
     3
 39
50.0
 10
114.7372669999999
 20
172.22546299999991
 30
0.0
 11
123.7517939999999
 21
172.22546299999991
 31
0.0
  0
LINE
  5
147
  8
OUTLINE
  6
CONTINUOUS
 62
     3
 39
50.0
 10
114.7372669999999
 20
165.0
 30
0.0
 11
114.7372669999999
 21
172.22546299999991
 31
0.0
  0
LINE
  5
148
  8
OUTLINE
  6
CONTINUOUS
 62
     3
 39
50.0
 10
137.46114600000001
 20
172.22546299999991
 30
0.0
 11
151.73106100000001
 21
172.22546299999991
 31
0.0
  0
LINE
  5
149
  8
OUTLINE
  6
CONTINUOUS
 62
     3
 39
50.0
 10
114.7372669999999
 20
165.0
 30
0.0
 11
114.7372669999999
 21
172.22546299999991
 31
0.0
  0
LINE
  5
14A
  8
NOTE
  6
CONTINUOUS
 62
     4
 39
50.0
 10
-170.52028300000001
 20
190.1380859999999
 30
0.0
 11
-170.52028300000001
 21
154.31283999999999
 31
0.0
  0
LINE
  5
14B
  8
SIZE
  6
CONTINUOUS
 62
    30
 10
-265.00904400000002
 20
174.46282599999989
 30
0.0
 11
-265.00904400000002
 21
478.30402299999997
 31
0.0
  0
LINE
  5
14C
  8
SIZE
  6
CONTINUOUS
 62
    30
 10
-155.0005909999999
 20
246.9797079999999
 30
0.0
 11
-155.0005909999999
 21
478.30402299999997
 31
0.0
  0
LINE
  5
14D
  8
SIZE
  6
CONTINUOUS
 62
    30
 10
-167.0005909999999
 20
458.30402299999992
 30
0.0
 11
-253.0090439999999
 21
458.30402299999992
 31
0.0
  0
LINE
  5
14E
  8
SIZE
  6
CONTINUOUS
 62
    30
 10
-265.00904400000002
 20
458.30402299999992
 30
0.0
 11
-453.18047200000001
 21
458.30402299999992
 31
0.0
  0
CIRCLE
  5
14F
  8
SIZE
  6
CONTINUOUS
 62
    30
 10
-155.0005909999999
 20
458.30402299999992
 30
0.0
 40
6.0
  0
LINE
  5
150
  8
SIZE
  6
CONTINUOUS
 62
    30
 10
-155.0005909999999
 20
458.30402299999992
 30
0.0
 11
-167.0005909999999
 21
458.30402299999992
 31
0.0
  0
CIRCLE
  5
151
  8
SIZE
  6
CONTINUOUS
 62
    30
 10
-265.00904400000002
 20
458.30402299999992
 30
0.0
 40
6.0
  0
LINE
  5
152
  8
SIZE
  6
CONTINUOUS
 62
    30
 10
-265.00904400000002
 20
458.30402299999992
 30
0.0
 11
-253.0090439999999
 21
458.30402299999992
 31
0.0
  0
TEXT
  5
153
  8
SIZE
  6
CONTINUOUS
 62
    30
 10
-428.1804722857143
 20
483.30402299999992
 30
0.0
 40
64.0
  1
110
 41
0.9
 72
     1
 11
-365.09475800000001
 21
483.30402299999992
 31
0.0
  0
POINT
  5
154
  8
DEFPOINTS
  6
CONTINUOUS
 62
    30
 10
-265.00904400000002
 20
154.46282600000001
 30
0.0
  0
POINT
  5
155
  8
DEFPOINTS
  6
CONTINUOUS
 62
    30
 10
-155.0005909999999
 20
226.97970799999999
 30
0.0
  0
POINT
  5
156
  8
DEFPOINTS
  6
CONTINUOUS
 62
    30
 10
-155.0005909999999
 20
458.30402299999992
 30
0.0
  0
LINE
  5
157
  8
SIZE
  6
CONTINUOUS
 62
    30
 10
-265.00904400000002
 20
174.46282599999989
 30
0.0
 11
-265.00904400000002
 21
253.48269400000001
 31
0.0
  0
LINE
  5
158
  8
SIZE
  6
CONTINUOUS
 62
    30
 10
-235.0090439999999
 20
174.46282599999989
 30
0.0
 11
-235.0090439999999
 21
253.48269400000001
 31
0.0
  0
LINE
  5
159
  8
SIZE
  6
CONTINUOUS
 62
    30
 10
-223.00904399999999
 20
233.48269400000001
 30
0.0
 11
-211.00904399999999
 21
233.48269400000001
 31
0.0
  0
LINE
  5
15A
  8
SIZE
  6
CONTINUOUS
 62
    30
 10
-277.00904400000002
 20
233.48269400000001
 30
0.0
 11
-432.266187
 21
233.48269400000001
 31
0.0
  0
LINE
  5
15B
  8
SIZE
  6
CONTINUOUS
 62
    30
 10
-235.0090439999999
 20
233.48269400000001
 30
0.0
 11
-265.00904400000002
 21
233.48269400000001
 31
0.0
  0
CIRCLE
  5
15C
  8
SIZE
  6
CONTINUOUS
 62
    30
 10
-235.0090439999999
 20
233.48269400000001
 30
0.0
 40
6.0
  0
LINE
  5
15D
  8
SIZE
  6
CONTINUOUS
 62
    30
 10
-235.0090439999999
 20
233.48269400000001
 30
0.0
 11
-223.00904399999999
 21
233.48269400000001
 31
0.0
  0
CIRCLE
  5
15E
  8
SIZE
  6
CONTINUOUS
 62
    30
 10
-265.00904400000002
 20
233.48269400000001
 30
0.0
 40
6.0
  0
LINE
  5
15F
  8
SIZE
  6
CONTINUOUS
 62
    30
 10
-265.00904400000002
 20
233.48269400000001
 30
0.0
 11
-277.00904400000002
 21
233.48269400000001
 31
0.0
  0
TEXT
  5
160
  8
SIZE
  6
CONTINUOUS
 62
    30
 10
-407.26618642857142
 20
258.48269399999992
 30
0.0
 40
64.0
  1
30
 41
0.9
 72
     1
 11
-360.63761499999998
 21
258.48269399999992
 31
0.0
  0
POINT
  5
161
  8
DEFPOINTS
  6
CONTINUOUS
 62
    30
 10
-265.00904400000002
 20
154.46282600000001
 30
0.0
  0
POINT
  5
162
  8
DEFPOINTS
  6
CONTINUOUS
 62
    30
 10
-235.0090439999999
 20
154.46282600000001
 30
0.0
  0
POINT
  5
163
  8
DEFPOINTS
  6
CONTINUOUS
 62
    30
 10
-235.0090439999999
 20
233.48269400000001
 30
0.0
  0
LINE
  5
164
  8
SIZE
  6
CONTINUOUS
 62
    30
 10
-265.00904400000002
 20
174.46282599999989
 30
0.0
 11
-265.00904400000002
 21
367.48269399999992
 31
0.0
  0
LINE
  5
165
  8
SIZE
  6
CONTINUOUS
 62
    30
 10
-195.0090439999999
 20
179.2744439999999
 30
0.0
 11
-195.0090439999999
 21
367.48269399999992
 31
0.0
  0
LINE
  5
166
  8
SIZE
  6
CONTINUOUS
 62
    30
 10
-183.00904399999999
 20
347.48269399999992
 30
0.0
 11
-171.0090439999999
 21
347.48269399999992
 31
0.0
  0
LINE
  5
167
  8
SIZE
  6
CONTINUOUS
 62
    30
 10
-277.00904400000002
 20
347.48269399999992
 30
0.0
 11
-432.266187
 21
347.48269399999992
 31
0.0
  0
LINE
  5
168
  8
SIZE
  6
CONTINUOUS
 62
    30
 10
-195.0090439999999
 20
347.48269399999992
 30
0.0
 11
-265.00904400000002
 21
347.48269399999992
 31
0.0
  0
CIRCLE
  5
169
  8
SIZE
  6
CONTINUOUS
 62
    30
 10
-195.0090439999999
 20
347.48269399999992
 30
0.0
 40
6.0
  0
LINE
  5
16A
  8
SIZE
  6
CONTINUOUS
 62
    30
 10
-195.0090439999999
 20
347.48269399999992
 30
0.0
 11
-183.00904399999999
 21
347.48269399999992
 31
0.0
  0
CIRCLE
  5
16B
  8
SIZE
  6
CONTINUOUS
 62
    30
 10
-265.00904400000002
 20
347.48269399999992
 30
0.0
 40
6.0
  0
LINE
  5
16C
  8
SIZE
  6
CONTINUOUS
 62
    30
 10
-265.00904400000002
 20
347.48269399999992
 30
0.0
 11
-277.00904400000002
 21
347.48269399999992
 31
0.0
  0
TEXT
  5
16D
  8
SIZE
  6
CONTINUOUS
 62
    30
 10
-407.26618642857142
 20
372.48269399999992
 30
0.0
 40
64.0
  1
70
 41
0.9
 72
     1
 11
-360.63761499999998
 21
372.48269399999992
 31
0.0
  0
POINT
  5
16E
  8
DEFPOINTS
  6
CONTINUOUS
 62
    30
 10
-265.00904400000002
 20
154.46282600000001
 30
0.0
  0
POINT
  5
16F
  8
DEFPOINTS
  6
CONTINUOUS
 62
    30
 10
-195.0090439999999
 20
159.2744439999999
 30
0.0
  0
POINT
  5
170
  8
DEFPOINTS
  6
CONTINUOUS
 62
    30
 10
-195.0090439999999
 20
347.48269399999992
 30
0.0
  0
LINE
  5
171
  8
SIZE
  6
CONTINUOUS
 62
    30
 10
-265.00904400000002
 20
174.46282599999989
 30
0.0
 11
-265.00904400000002
 21
607.68880899999988
 31
0.0
  0
LINE
  5
172
  8
SIZE
  6
CONTINUOUS
 62
    30
 10
-277.56339700000001
 20
135.38184200000001
 30
0.0
 11
-277.56339700000001
 21
607.68880899999988
 31
0.0
  0
LINE
  5
173
  8
SIZE
  6
CONTINUOUS
 62
    30
 10
-253.0090439999999
 20
587.68880899999999
 30
0.0
 11
-241.0090439999999
 21
587.68880899999999
 31
0.0
  0
LINE
  5
174
  8
SIZE
  6
CONTINUOUS
 62
    30
 10
-289.56339700000001
 20
587.68880899999999
 30
0.0
 11
-550.69482600000003
 21
587.68880899999999
 31
0.0
  0
LINE
  5
175
  8
SIZE
  6
CONTINUOUS
 62
    30
 10
-265.00904400000002
 20
587.68880899999999
 30
0.0
 11
-277.56339700000001
 21
587.68880899999999
 31
0.0
  0
CIRCLE
  5
176
  8
SIZE
  6
CONTINUOUS
 62
    30
 10
-265.00904400000002
 20
587.68880899999999
 30
0.0
 40
6.0
  0
LINE
  5
177
  8
SIZE
  6
CONTINUOUS
 62
    30
 10
-265.00904400000002
 20
587.68880899999999
 30
0.0
 11
-253.0090439999999
 21
587.68880899999999
 31
0.0
  0
CIRCLE
  5
178
  8
SIZE
  6
CONTINUOUS
 62
    30
 10
-277.56339700000001
 20
587.68880899999999
 30
0.0
 40
6.0
  0
LINE
  5
179
  8
SIZE
  6
CONTINUOUS
 62
    30
 10
-277.56339700000001
 20
587.68880899999999
 30
0.0
 11
-289.56339700000001
 21
587.68880899999999
 31
0.0
  0
TEXT
  5
17A
  8
SIZE
  6
CONTINUOUS
 62
    30
 10
-535.02053957142857
 20
612.68880899999999
 30
0.0
 40
64.0
  1
üi13üj
 41
0.9
 72
     1
 11
-426.12911100000008
 21
612.68880899999999
 31
0.0
  0
POINT
  5
17B
  8
DEFPOINTS
  6
CONTINUOUS
 62
    30
 10
-265.00904400000002
 20
154.46282600000001
 30
0.0
  0
POINT
  5
17C
  8
DEFPOINTS
  6
CONTINUOUS
 62
    30
 10
-277.56339700000001
 20
115.38184200000001
 30
0.0
  0
POINT
  5
17D
  8
DEFPOINTS
  6
CONTINUOUS
 62
    30
 10
-277.56339700000001
 20
587.68880899999999
 30
0.0
  0
LINE
  5
17E
  8
DETAIL
  6
CONTINUOUS
 62
     5
 10
-57.0
 20
35.0
 30
0.0
 11
35.0
 21
35.0
 31
0.0
  0
LINE
  5
17F
  8
DETAIL
  6
CONTINUOUS
 62
     5
 10
-175.0
 20
-10.0
 30
0.0
 11
175.0
 21
-10.0
 31
0.0
  0
LINE
  5
180
  8
DETAIL
  6
CONTINUOUS
 62
     5
 10
194.0
 20
0.0
 30
0.0
 11
0.0
 21
0.0
 31
0.0
  0
LINE
  5
181
  8
DETAIL
  6
CONTINUOUS
 62
     5
 10
145.5
 20
-20.0
 30
0.0
 11
0.0
 21
-20.0
 31
0.0
  0
LINE
  5
182
  8
DETAIL
  6
CONTINUOUS
 62
     5
 10
21.301428999999999
 20
178.995
 30
0.0
 11
26.0
 21
171.16404799999989
 31
0.0
  0
ARC
  5
183
  8
DETAIL
  6
CONTINUOUS
 62
     5
 10
22.433810000000001
 20
180.995
 30
0.0
 40
1.0
 50
30.963757000000001
 51
90.0
  0
LINE
  5
184
  8
DETAIL
  6
CONTINUOUS
 62
     5
 10
-57.0
 20
35.0
 30
0.0
 11
35.0
 21
35.0
 31
0.0
  0
LINE
  5
185
  8
DETAIL
  6
CONTINUOUS
 62
     5
 10
-59.166401
 20
164.995
 30
0.0
 11
42.0
 21
164.995
 31
0.0
  0
LINE
  5
186
  8
DETAIL
  6
CONTINUOUS
 62
     5
 10
-26.0
 20
167.995
 30
0.0
 11
26.0
 21
167.995
 31
0.0
  0
LINE
  5
187
  8
DETAIL
  6
CONTINUOUS
 62
     5
 10
48.0
 20
200.0
 30
0.0
 11
13.0
 21
200.0
 31
0.0
  0
LINE
  5
188
  8
DETAIL
  6
CONTINUOUS
 62
     5
 10
52.5
 20
0.0
 30
0.0
 11
55.161290000000001
 21
165.0
 31
0.0
  0
LINE
  5
189
  8
DETAIL
  6
CONTINUOUS
 62
     5
 10
41.838709999999992
 20
165.0
 30
0.0
 11
44.5
 21
0.0
 31
0.0
  0
LINE
  5
18A
  8
DETAIL
  6
CONTINUOUS
 62
     5
 10
35.0
 20
35.0
 30
0.0
 11
37.16666699999999
 21
165.0
 31
0.0
  0
LINE
  5
18B
  8
DETAIL
  6
CONTINUOUS
 62
     5
 10
154.737267
 20
0.0
 30
0.0
 11
151.73106100000001
 21
172.22546299999991
 31
0.0
  0
LINE
  5
18C
  8
DETAIL
  6
CONTINUOUS
 62
     5
 10
37.166401
 20
164.995
 30
0.0
 11
35.0
 21
35.0
 31
0.0
  0
ARC
  5
18D
  8
DETAIL
  6
CONTINUOUS
 62
     5
 10
147.0
 20
97.700000000000017
 30
0.0
 40
117.7
 50
270.48680100000001
 51
292.08657499999993
  0
ARC
  5
18E
  8
DETAIL
  6
CONTINUOUS
 62
     5
 10
189.0
 20
-5.8030920000000004
 30
0.0
 40
6.0
 50
292.08657499999993
 51
0.0
  0
LINE
  5
18F
  8
DETAIL
  6
CONTINUOUS
 62
     5
 10
195.0
 20
-1.0
 30
0.0
 11
195.0
 21
-5.8030920000000004
 31
0.0
  0
ARC
  5
190
  8
DETAIL
  6
CONTINUOUS
 62
     5
 10
194.0
 20
-1.0
 30
0.0
 40
1.0
 50
0.0
 51
90.0
  0
LINE
  5
191
  8
DETAIL
  6
CONTINUOUS
 62
     5
 10
148.0
 20
0.0
 30
0.0
 11
148.0
 21
-20.0
 31
0.0
  0
LINE
  5
192
  8
DETAIL
  6
CONTINUOUS
 62
     5
 10
145.5
 20
0.0
 30
0.0
 11
145.5
 21
-20.0
 31
0.0
  0
LINE
  5
193
  8
DETAIL
  6
CONTINUOUS
 62
     5
 10
145.5
 20
-19.0
 30
0.0
 11
148.0
 21
-19.0
 31
0.0
  0
LINE
  5
194
  8
DETAIL
  6
CONTINUOUS
 62
     5
 10
123.846243
 20
172.44080999999991
 30
0.0
 11
132.34948199999999
 21
186.91440800000001
 31
0.0
  0
LINE
  5
195
  8
DETAIL
  6
CONTINUOUS
 62
     5
 10
114.7372669999999
 20
165.0
 30
0.0
 11
42.0
 21
165.0
 31
0.0
  0
ARC
  5
196
  8
DETAIL
  6
CONTINUOUS
 62
     5
 10
134.2463469999999
 20
185.80000000000001
 30
0.0
 40
2.2000000000000002
 50
90.0
 51
149.565764
  0
ARC
  5
197
  8
DETAIL
  6
CONTINUOUS
 62
     5
 10
135.02386699999991
 20
185.80000000000001
 30
0.0
 40
2.2000000000000002
 50
0.992294
 51
90.0
  0
LINE
  5
198
  8
DETAIL
  6
CONTINUOUS
 62
     5
 10
134.2463469999999
 20
188.0
 30
0.0
 11
135.02386699999991
 21
188.0
 31
0.0
  0
LINE
  5
199
  8
DETAIL
  6
CONTINUOUS
 62
     5
 10
137.46114600000001
 20
172.22546299999991
 30
0.0
 11
137.22353200000001
 21
185.83839499999991
 31
0.0
  0
LINE
  5
19A
  8
DETAIL
  6
CONTINUOUS
 62
     5
 10
94.355562000000006
 20
168.0
 30
0.0
 11
29.583055000000002
 21
168.0
 31
0.0
  0
ARC
  5
19B
  8
DETAIL
  6
CONTINUOUS
 62
     5
 10
124.70845799999989
 20
171.93426700000001
 30
0.0
 40
1.0
 50
149.56613300000001
 51
179.0
  0
ARC
  5
19C
  8
DETAIL
  6
CONTINUOUS
 62
     5
 10
125.730954
 20
173.0
 30
0.0
 40
3.0
 50
86.137405000000001
 51
90.0
  0
ARC
  5
19D
  8
DETAIL
  6
CONTINUOUS
 62
     5
 10
94.355562000000006
 20
167.5
 30
0.0
 40
0.5
 50
3.0
 51
90.0
  0
LINE
  5
19E
  8
DETAIL
  6
CONTINUOUS
 62
     5
 10
94.987267000000003
 20
165.0
 30
0.0
 11
94.854877000000002
 21
167.52616800000001
 31
0.0
  0
LINE
  5
19F
  8
DETAIL
  6
CONTINUOUS
 62
     5
 10
54.100006
 20
193.900024
 30
0.0
 11
54.100006
 21
170.29485500000001
 31
0.0
  0
LINE
  5
1A0
  8
DETAIL
  6
CONTINUOUS
 62
     5
 10
54.600006
 20
169.428766
 30
0.0
 11
29.0
 21
169.428766
 31
0.0
  0
LINE
  5
1A1
  8
DETAIL
  6
CONTINUOUS
 62
     5
 10
54.600060999999997
 20
169.428766
 30
0.0
 11
54.100045000000001
 21
170.29485500000001
 31
0.0
  0
LINE
  5
1A2
  8
DETAIL
  6
CONTINUOUS
 62
     5
 10
54.600006
 20
169.428766
 30
0.0
 11
54.600006
 21
168.0
 31
0.0
  0
ARC
  5
1A3
  8
DETAIL
  6
CONTINUOUS
 62
     5
 10
40.0
 20
165.995
 30
0.0
 40
2.0
 50
0.0
 51
90.0
  0
ARC
  5
1A4
  8
DETAIL
  6
CONTINUOUS
 62
     5
 10
28.0
 20
171.71801600000001
 30
0.0
 40
1.0
 50
0.0
 51
30.963757000000001
  0
LINE
  5
1A5
  8
DETAIL
  6
CONTINUOUS
 62
     5
 10
23.291302999999999
 20
181.50949600000001
 30
0.0
 11
28.857493000000002
 21
172.23251200000001
 31
0.0
  0
LINE
  5
1A6
  8
DETAIL
  6
CONTINUOUS
 62
     5
 10
29.0
 20
167.995
 30
0.0
 11
29.0
 21
171.71801600000001
 31
0.0
  0
LINE
  5
1A7
  8
DETAIL
  6
CONTINUOUS
 62
     5
 10
26.0
 20
167.995
 30
0.0
 11
26.0
 21
171.16404799999989
 31
0.0
  0
LINE
  5
1A8
  8
DETAIL
  6
CONTINUOUS
 62
     5
 10
42.0
 20
164.995
 30
0.0
 11
42.0
 21
165.995
 31
0.0
  0
LINE
  5
1A9
  8
DETAIL
  6
CONTINUOUS
 62
     5
 10
29.0
 20
167.995
 30
0.0
 11
40.0
 21
167.995
 31
0.0
  0
ARC
  5
1AA
  8
DETAIL
  6
CONTINUOUS
 62
     5
 10
48.0
 20
193.900024
 30
0.0
 40
6.0999999999999988
 50
0.000001
 51
90.0
  0
LINE
  5
1AB
  8
DETAIL
  6
CONTINUOUS
 62
     5
 10
-151.94568000000001
 20
175.5
 30
0.0
 11
-155.00031599999991
 21
0.5
 31
0.0
  0
LINE
  5
1AC
  8
DETAIL
  6
CONTINUOUS
 62
     5
 10
-143.94491799999989
 20
175.5
 30
0.0
 11
-146.9995549999999
 21
0.5
 31
0.0
  0
LINE
  5
1AD
  8
DETAIL
  6
CONTINUOUS
 62
     5
 10
-235.0090439999999
 20
158.43760800000001
 30
0.0
 11
-235.0090439999999
 21
59.562392000000003
 31
0.0
  0
LINE
  5
1AE
  8
DETAIL
  6
CONTINUOUS
 62
     5
 10
-231.59027699999999
 20
56.495077000000002
 30
0.0
 11
-231.59027699999999
 21
161.50492299999991
 31
0.0
  0
LINE
  5
1AF
  8
DETAIL
  6
CONTINUOUS
 62
     5
 10
-195.0090439999999
 20
56.00011099999999
 30
0.0
 11
-195.0090439999999
 21
162.0001169999999
 31
0.0
  0
LINE
  5
1B0
  8
DETAIL
  6
DASHED
 62
     5
 10
-231.59027699999999
 20
85.620975999999985
 30
0.0
 11
-231.59027699999999
 21
109.0
 31
0.0
  0
LINE
  5
1B1
  8
DETAIL
  6
DASHED
 62
     5
 10
-231.59027699999999
 20
85.620975999999985
 30
0.0
 11
-231.59027699999999
 21
109.0
 31
0.0
  0
LINE
  5
1B2
  8
DETAIL
  6
CONTINUOUS
 62
     5
 10
-265.00904400000002
 20
157.50442100000001
 30
0.0
 11
-265.00904400000002
 21
60.495578999999992
 31
0.0
  0
LINE
  5
1B3
  8
DETAIL
  6
CONTINUOUS
 62
     5
 10
-77.16128999999998
 20
165.0
 30
0.0
 11
-74.5
 21
0.0
 31
0.0
  0
LINE
  5
1B4
  8
DETAIL
  6
CONTINUOUS
 62
     5
 10
-66.5
 20
0.0
 30
0.0
 11
-63.838709999999999
 21
165.0
 31
0.0
  0
LINE
  5
1B5
  8
DETAIL
  6
CONTINUOUS
 62
     5
 10
-59.015504000000007
 20
165.0
 30
0.0
 11
-57.0
 21
35.0
 31
0.0
  0
LINE
  5
1B6
  8
DETAIL
  6
DASHED
 62
     5
 10
-267.64812199999989
 20
89.636892000000003
 30
0.0
 11
-265.99497200000002
 21
88.018445999999983
 31
0.0
  0
LINE
  5
1B7
  8
DETAIL
  6
CONTINUOUS
 62
     5
 10
-59.166401
 20
164.995
 30
0.0
 11
-57.0
 21
35.0
 31
0.0
  0
LINE
  5
1B8
  8
DETAIL
  6
CONTINUOUS
 62
     5
 10
-154.09857600000001
 20
52.036419000000002
 30
0.0
 11
-195.11533199999991
 21
56.001038999999999
 31
0.0
  0
LINE
  5
1B9
  8
DETAIL
  6
CONTINUOUS
 62
     5
 10
-194.0
 20
0.0
 30
0.0
 11
0.0
 21
0.0
 31
0.0
  0
ARC
  5
1BA
  8
DETAIL
  6
CONTINUOUS
 62
     5
 10
-147.0
 20
97.700000000000017
 30
0.0
 40
117.7
 50
247.9134249999999
 51
269.51319899999987
  0
LINE
  5
1BB
  8
DETAIL
  6
CONTINUOUS
 62
     5
 10
-145.5
 20
-20.0
 30
0.0
 11
0.0
 21
-20.0
 31
0.0
  0
LINE
  5
1BC
  8
DETAIL
  6
CONTINUOUS
 62
     5
 10
-148.0
 20
0.0
 30
0.0
 11
-148.0
 21
-20.0
 31
0.0
  0
LINE
  5
1BD
  8
DETAIL
  6
CONTINUOUS
 62
     5
 10
-145.5
 20
0.0
 30
0.0
 11
-145.5
 21
-20.0
 31
0.0
  0
LINE
  5
1BE
  8
DETAIL
  6
CONTINUOUS
 62
     5
 10
-145.5
 20
-19.0
 30
0.0
 11
-148.0
 21
-19.0
 31
0.0
  0
ARC
  5
1BF
  8
DETAIL
  6
CONTINUOUS
 62
     5
 10
-189.0
 20
-5.8030920000000004
 30
0.0
 40
6.0
 50
180.0
 51
247.9134249999999
  0
LINE
  5
1C0
  8
DETAIL
  6
CONTINUOUS
 62
     5
 10
-195.0
 20
-1.0
 30
0.0
 11
-195.0
 21
-5.8030920000000004
 31
0.0
  0
ARC
  5
1C1
  8
DETAIL
  6
CONTINUOUS
 62
     5
 10
-194.0
 20
-1.0
 30
0.0
 40
1.0
 50
90.0
 51
180.0
  0
ARC
  5
1C2
  8
DETAIL
  6
CONTINUOUS
 62
     5
 10
-235.84468699999991
 20
57.745334
 30
0.0
 40
2.0
 50
45.0
 51
89.500000000000014
  0
ARC
  5
1C3
  8
DETAIL
  6
CONTINUOUS
 62
     5
 10
-235.84468699999991
 20
57.745334
 30
0.0
 40
2.0
 50
45.0
 51
89.500000000000014
  0
LINE
  5
1C4
  8
DETAIL
  6
DASHED
 62
     5
 10
-257.23101400000002
 20
81.042466000000005
 30
0.0
 11
-233.21864599999989
 21
82.425212000000002
 31
0.0
  0
LINE
  5
1C5
  8
DETAIL
  6
CONTINUOUS
 62
     5
 10
-195.11533199999991
 20
56.001038999999999
 30
0.0
 11
-230.772087
 21
56.312210999999998
 31
0.0
  0
LINE
  5
1C6
  8
DETAIL
  6
CONTINUOUS
 62
     5
 10
-195.11533199999991
 20
56.001038999999999
 30
0.0
 11
-230.772087
 21
56.312210999999998
 31
0.0
  0
LINE
  5
1C7
  8
DETAIL
  6
CONTINUOUS
 62
     5
 10
-195.0090439999999
 20
58.0
 30
0.0
 11
-195.0090439999999
 21
58.013089999999991
 31
0.0
  0
LINE
  5
1C8
  8
DETAIL
  6
CONTINUOUS
 62
     5
 10
-195.0090439999999
 20
57.999999000000003
 30
0.0
 11
-195.0090439999999
 21
58.0
 31
0.0
  0
LINE
  5
1C9
  8
DETAIL
  6
CONTINUOUS
 62
     5
 10
-195.0090439999999
 20
58.513089999999998
 30
0.0
 11
-195.0090439999999
 21
58.517454000000001
 31
0.0
  0
LINE
  5
1CA
  8
DETAIL
  6
CONTINUOUS
 62
     5
 10
-195.0090439999999
 20
58.513089999999998
 30
0.0
 11
-195.0090439999999
 21
58.517454000000001
 31
0.0
  0
LINE
  5
1CB
  8
DETAIL
  6
CONTINUOUS
 62
     5
 10
-195.0090439999999
 20
57.999999000000003
 30
0.0
 11
-195.0090439999999
 21
58.0
 31
0.0
  0
LINE
  5
1CC
  8
DETAIL
  6
CONTINUOUS
 62
     5
 10
-195.0090439999999
 20
58.0
 30
0.0
 11
-195.0090439999999
 21
58.013089999999991
 31
0.0
  0
LINE
  5
1CD
  8
DETAIL
  6
CONTINUOUS
 62
     5
 10
-234.430474
 20
59.159548000000001
 30
0.0
 11
-232.168847
 21
56.897920999999997
 31
0.0
  0
ARC
  5
1CE
  8
DETAIL
  6
CONTINUOUS
 62
     5
 10
-230.75463400000001
 20
58.312134999999998
 30
0.0
 40
2.0
 50
225.0
 51
269.5
  0
ARC
  5
1CF
  8
DETAIL
  6
CONTINUOUS
 62
     5
 10
-230.75463400000001
 20
58.312134999999998
 30
0.0
 40
2.0
 50
225.0
 51
269.5
  0
LINE
  5
1D0
  8
DETAIL
  6
CONTINUOUS
 62
     5
 10
-234.430474
 20
59.159548000000001
 30
0.0
 11
-232.168847
 21
56.897920999999997
 31
0.0
  0
LINE
  5
1D1
  8
DETAIL
  6
CONTINUOUS
 62
     5
 10
-235.82723399999989
 20
59.745257999999993
 30
0.0
 11
-264.51340699999992
 21
59.995598000000001
 31
0.0
  0
LINE
  5
1D2
  8
DETAIL
  6
CONTINUOUS
 62
     5
 10
-235.82723399999989
 20
59.745257999999993
 30
0.0
 11
-264.51340699999992
 21
59.995598000000001
 31
0.0
  0
LINE
  5
1D3
  8
DETAIL
  6
DASHED
 62
     5
 10
-265.00904400000002
 20
87.186581000000004
 30
0.0
 11
-257.23101400000002
 21
81.042466000000005
 31
0.0
  0
ARC
  5
1D4
  8
DETAIL
  6
CONTINUOUS
 62
     5
 10
-264.50904400000002
 20
60.495578999999992
 30
0.0
 40
0.5
 50
180.0
 51
269.5
  0
ARC
  5
1D5
  8
DETAIL
  6
CONTINUOUS
 62
     5
 10
-264.50904400000002
 20
60.495578999999992
 30
0.0
 40
0.5
 50
180.0
 51
269.5
  0
LINE
  5
1D6
  8
DETAIL
  6
DASHED
 62
     5
 10
-265.00904400000002
 20
87.164278999999965
 30
0.0
 11
-262.36974500000002
 21
85.140423999999996
 31
0.0
  0
LINE
  5
1D7
  8
DETAIL
  6
DASHED
 62
     5
 10
-265.99497200000002
 20
88.018445999999983
 30
0.0
 11
-265.00904400000002
 21
87.164278999999965
 31
0.0
  0
LINE
  5
1D8
  8
DETAIL
  6
CONTINUOUS
 62
     5
 10
-195.03522000000001
 20
161.99966000000001
 30
0.0
 11
-153.13411500000001
 21
162.71359200000001
 31
0.0
  0
LINE
  5
1D9
  8
DETAIL
  6
CONTINUOUS
 62
     5
 10
-195.03522000000001
 20
161.99966000000001
 30
0.0
 11
-153.13411500000001
 21
162.71359200000001
 31
0.0
  0
LINE
  5
1DA
  8
DETAIL
  6
CONTINUOUS
 62
     5
 10
-29.608521
 20
168.0
 30
0.0
 11
-123.8048379999999
 21
168.0
 31
0.0
  0
LINE
  5
1DB
  8
DETAIL
  6
CONTINUOUS
 62
     5
 10
-59.16648399999999
 20
165.0
 30
0.0
 11
-144.128197
 21
165.0
 31
0.0
  0
LINE
  5
1DC
  8
DETAIL
  6
CONTINUOUS
 62
     5
 10
-23.291302999999999
 20
181.50949600000001
 30
0.0
 11
-28.857493000000002
 21
172.23251200000001
 31
0.0
  0
ARC
  5
1DD
  8
DETAIL
  6
CONTINUOUS
 62
     5
 10
-22.0
 20
193.900024
 30
0.0
 40
6.0999999999999988
 50
90.0
 51
179.999999
  0
LINE
  5
1DE
  8
DETAIL
  6
CONTINUOUS
 62
     5
 10
-28.100006
 20
193.900024
 30
0.0
 11
-28.100006
 21
173.49499
 31
0.0
  0
LINE
  5
1DF
  8
DETAIL
  6
CONTINUOUS
 62
     5
 10
21.301428999999999
 20
178.995
 30
0.0
 11
-21.301428999999999
 21
178.995
 31
0.0
  0
LINE
  5
1E0
  8
DETAIL
  6
CONTINUOUS
 62
     5
 10
-22.433810000000001
 20
181.995
 30
0.0
 11
22.433810000000001
 21
181.995
 31
0.0
  0
LINE
  5
1E1
  8
DETAIL
  6
CONTINUOUS
 62
     5
 10
21.252479000000001
 20
179.99722
 30
0.0
 11
21.249166999999989
 21
180.0
 31
0.0
  0
ARC
  5
1E2
  8
DETAIL
  6
CONTINUOUS
 62
     5
 10
22.094452
 20
187.49999500000001
 30
0.0
 40
0.5
 50
1.000564999999999
 51
90.0
  0
ARC
  5
1E3
  8
DETAIL
  6
CONTINUOUS
 62
     5
 10
21.880082000000002
 20
187.49999500000001
 30
0.0
 40
0.5
 50
90.0
 51
178.99944099999999
  0
LINE
  5
1E4
  8
DETAIL
  6
CONTINUOUS
 62
     5
 10
22.094452
 20
188.0
 30
0.0
 11
21.880082999999988
 21
188.0
 31
0.0
  0
LINE
  5
1E5
  8
DETAIL
  6
CONTINUOUS
 62
     5
 10
22.691206999999991
 20
181.96130600000001
 30
0.0
 11
22.594376
 21
187.50872599999991
 31
0.0
  0
LINE
  5
1E6
  8
DETAIL
  6
CONTINUOUS
 62
     5
 10
21.283916000000001
 20
181.995
 30
0.0
 11
21.380158999999999
 21
187.50872599999991
 31
0.0
  0
LINE
  5
1E7
  8
DETAIL
  6
CONTINUOUS
 62
     5
 10
-22.619841000000001
 20
187.50872599999991
 30
0.0
 11
-22.716796999999989
 21
181.95412400000001
 31
0.0
  0
ARC
  5
1E8
  8
DETAIL
  6
CONTINUOUS
 62
     5
 10
-22.119917999999991
 20
187.49999600000001
 30
0.0
 40
0.5
 50
90.0
 51
178.99951100000001
  0
ARC
  5
1E9
  8
DETAIL
  6
CONTINUOUS
 62
     5
 10
-21.905548
 20
187.49999600000001
 30
0.0
 40
0.5
 50
1.000472
 51
90.0
  0
LINE
  5
1EA
  8
DETAIL
  6
CONTINUOUS
 62
     5
 10
-21.905548
 20
188.0
 30
0.0
 11
-22.119917000000001
 21
188.0
 31
0.0
  0
LINE
  5
1EB
  8
DETAIL
  6
CONTINUOUS
 62
     5
 10
-21.405623999999989
 20
187.50872599999991
 30
0.0
 11
-21.309380999999991
 21
181.995
 31
0.0
  0
LINE
  5
1EC
  8
DETAIL
  6
CONTINUOUS
 62
     5
 10
-21.301428999999999
 20
178.995
 30
0.0
 11
-26.0
 21
171.16404799999989
 31
0.0
  0
ARC
  5
1ED
  8
DETAIL
  6
CONTINUOUS
 62
     5
 10
-22.433810000000001
 20
180.995
 30
0.0
 40
1.0
 50
90.0
 51
149.03624300000001
  0
LINE
  5
1EE
  8
DETAIL
  6
CONTINUOUS
 62
     5
 10
-26.0
 20
167.995
 30
0.0
 11
-26.0
 21
171.16404799999989
 31
0.0
  0
LINE
  5
1EF
  8
DETAIL
  6
CONTINUOUS
 62
     5
 10
-22.0
 20
200.0
 30
0.0
 11
13.0
 21
200.0
 31
0.0
  0
LINE
  5
1F0
  8
DETAIL
  6
CONTINUOUS
 62
     5
 10
-78.999968999999965
 20
165.0
 30
0.0
 11
-53.997973000000002
 21
165.0
 31
0.0
  0
LINE
  5
1F1
  8
DETAIL
  6
CONTINUOUS
 62
     5
 10
-62.0
 20
167.995
 30
0.0
 11
-29.0
 21
167.995
 31
0.0
  0
ARC
  5
1F2
  8
DETAIL
  6
CONTINUOUS
 62
     5
 10
-28.0
 20
171.71801600000001
 30
0.0
 40
1.0
 50
149.03624300000001
 51
180.0
  0
LINE
  5
1F3
  8
DETAIL
  6
CONTINUOUS
 62
     5
 10
-29.0
 20
167.995
 30
0.0
 11
-29.0
 21
171.71801600000001
 31
0.0
  0
ARC
  5
1F4
  8
DETAIL
  6
CONTINUOUS
 62
     5
 10
-62.0
 20
165.995
 30
0.0
 40
2.0
 50
90.0
 51
180.0
  0
LINE
  5
1F5
  8
DETAIL
  6
CONTINUOUS
 62
     5
 10
-64.0
 20
164.995
 30
0.0
 11
-64.0
 21
165.995
 31
0.0
  0
LINE
  5
1F6
  8
DETAIL
  6
CONTINUOUS
 62
     5
 10
-64.0
 20
164.995
 30
0.0
 11
-58.99974799999999
 21
164.995
 31
0.0
  0
LINE
  5
1F7
  8
DETAIL
  6
CONTINUOUS
 62
     5
 10
-115.9460439999999
 20
175.5
 30
0.0
 11
-143.94491799999989
 21
175.5
 31
0.0
  0
LINE
  5
1F8
  8
DETAIL
  6
CONTINUOUS
 62
     5
 10
-144.982607
 20
182.5
 30
0.0
 11
-116.919736
 21
182.5
 31
0.0
  0
LINE
  5
1F9
  8
DETAIL
  6
CONTINUOUS
 62
     5
 10
-144.982607
 20
182.5
 30
0.0
 11
-116.919736
 21
182.5
 31
0.0
  0
LINE
  5
1FA
  8
DETAIL
  6
CONTINUOUS
 62
     5
 10
-126.732299
 20
187.26956599999991
 30
0.0
 11
-132.31628599999991
 21
192.85355299999989
 31
0.0
  0
LINE
  5
1FB
  8
DETAIL
  6
CONTINUOUS
 62
     5
 10
-116.982607
 20
182.5
 30
0.0
 11
-116.919736
 21
182.5
 31
0.0
  0
LINE
  5
1FC
  8
DETAIL
  6
CONTINUOUS
 62
     5
 10
-116.1702139999999
 20
181.776769
 30
0.0
 11
-115.9460439999999
 21
175.5
 31
0.0
  0
ARC
  5
1FD
  8
DETAIL
  6
CONTINUOUS
 62
     5
 10
-116.919736
 20
181.75
 30
0.0
 40
0.75
 50
2.0454080000000001
 51
90.0
  0
ARC
  5
1FE
  8
DETAIL
  6
CONTINUOUS
 62
     5
 10
-116.919736
 20
181.75
 30
0.0
 40
0.75
 50
2.0454080000000001
 51
90.0
  0
LINE
  5
1FF
  8
DETAIL
  6
CONTINUOUS
 62
     5
 10
-116.1702139999999
 20
181.776769
 30
0.0
 11
-115.9460439999999
 21
175.5
 31
0.0
  0
LINE
  5
200
  8
DETAIL
  6
CONTINUOUS
 62
     5
 10
-116.982607
 20
182.5
 30
0.0
 11
-116.919736
 21
182.5
 31
0.0
  0
LINE
  5
201
  8
DETAIL
  6
CONTINUOUS
 62
     5
 10
-125.1407699999999
 20
182.5
 30
0.0
 11
-125.28685900000001
 21
184.16981100000001
 31
0.0
  0
ARC
  5
202
  8
DETAIL
  6
CONTINUOUS
 62
     5
 10
-130.26783299999991
 20
183.73403200000001
 30
0.0
 40
5.0
 50
4.999064999999999
 51
45.0
  0
LINE
  5
203
  8
DETAIL
  6
CONTINUOUS
 62
     5
 10
-124.0058199999999
 20
169.52746300000001
 30
0.0
 11
-124.52834900000001
 21
175.5
 31
0.0
  0
LINE
  5
204
  8
DETAIL
  6
CONTINUOUS
 62
     5
 10
-123.410101
 20
165.0
 30
0.0
 11
-124.0058199999999
 21
169.52746300000001
 31
0.0
  0
LINE
  5
205
  8
DETAIL
  6
CONTINUOUS
 62
     5
 10
-121.9460439999999
 20
175.5
 30
0.0
 11
-122.510385
 21
175.5
 31
0.0
  0
ARC
  5
206
  8
DETAIL
  6
CONTINUOUS
 62
     5
 10
-144.982607
 20
181.75
 30
0.0
 40
0.75
 50
90.0
 51
177.137595
  0
LINE
  5
207
  8
DETAIL
  6
CONTINUOUS
 62
     5
 10
-144.982607
 20
182.5
 30
0.0
 11
-144.909481
 21
182.5
 31
0.0
  0
LINE
  5
208
  8
DETAIL
  6
CONTINUOUS
 62
     5
 10
-144.982607
 20
182.5
 30
0.0
 11
-144.909481
 21
182.5
 31
0.0
  0
ARC
  5
209
  8
DETAIL
  6
CONTINUOUS
 62
     5
 10
-144.982607
 20
181.75
 30
0.0
 40
0.75
 50
90.0
 51
177.137595
  0
LINE
  5
20A
  8
DETAIL
  6
CONTINUOUS
 62
     5
 10
-145.73167100000001
 20
181.787453
 30
0.0
 11
-145.94604399999989
 21
177.5
 31
0.0
  0
LINE
  5
20B
  8
DETAIL
  6
CONTINUOUS
 62
     5
 10
-145.73167100000001
 20
181.787453
 30
0.0
 11
-145.94604399999989
 21
177.5
 31
0.0
  0
ARC
  5
20C
  8
DETAIL
  6
CONTINUOUS
 62
     5
 10
-153.151567
 20
163.71343899999991
 30
0.0
 40
1.0
 50
271.0
 51
359.0
  0
ARC
  5
20D
  8
DETAIL
  6
CONTINUOUS
 62
     5
 10
-153.151567
 20
163.71343899999991
 30
0.0
 40
1.0
 50
271.0
 51
359.0
  0
LINE
  5
20E
  8
DETAIL
  6
CONTINUOUS
 62
     5
 10
-145.94604399999989
 20
177.5
 30
0.0
 11
-149.946044
 21
177.5
 31
0.0
  0
ARC
  5
20F
  8
DETAIL
  6
CONTINUOUS
 62
     5
 10
-149.946044
 20
175.5
 30
0.0
 40
2.0
 50
90.0
 51
180.0
  0
ARC
  5
210
  8
DETAIL
  6
CONTINUOUS
 62
     5
 10
-149.946044
 20
175.5
 30
0.0
 40
2.0
 50
90.0
 51
180.0
  0
LINE
  5
211
  8
DETAIL
  6
CONTINUOUS
 62
     5
 10
-145.94604399999989
 20
177.5
 30
0.0
 11
-149.946044
 21
177.5
 31
0.0
  0
LINE
  5
212
  8
DETAIL
  6
CONTINUOUS
 62
     5
 10
-138.51705799999999
 20
192.50436300000001
 30
0.0
 11
-138.60436499999989
 21
182.5
 31
0.0
  0
LINE
  5
213
  8
DETAIL
  6
CONTINUOUS
 62
     5
 10
-136.50840699999989
 20
192.50436300000001
 30
0.0
 11
-136.4211
 21
182.5
 31
0.0
  0
ARC
  5
214
  8
DETAIL
  6
CONTINUOUS
 62
     5
 10
-139.13944000000001
 20
192.5
 30
0.0
 40
0.5
 50
90.0
 51
155.772255
  0
ARC
  5
215
  8
DETAIL
  6
CONTINUOUS
 62
     5
 10
-132.669839
 20
192.5
 30
0.0
 40
0.5
 50
45.0
 51
90.0
  0
ARC
  5
216
  8
DETAIL
  6
CONTINUOUS
 62
     5
 10
-137.00838799999991
 20
192.5
 30
0.0
 40
0.5
 50
0.5
 51
90.0
  0
ARC
  5
217
  8
DETAIL
  6
CONTINUOUS
 62
     5
 10
-138.017077
 20
192.5
 30
0.0
 40
0.5
 50
90.0
 51
179.49999999999989
  0
LINE
  5
218
  8
DETAIL
  6
CONTINUOUS
 62
     5
 10
-132.669839
 20
193.0
 30
0.0
 11
-139.13944000000001
 21
193.0
 31
0.0
  0
LINE
  5
219
  8
DETAIL
  6
CONTINUOUS
 62
     5
 10
-138.66545300000001
 20
175.5
 30
0.0
 11
-138.7570849999999
 21
165.0
 31
0.0
  0
LINE
  5
21A
  8
DETAIL
  6
CONTINUOUS
 62
     5
 10
-136.36001200000001
 20
175.5
 30
0.0
 11
-136.26838000000001
 21
165.0
 31
0.0
  0
LINE
  5
21B
  8
DETAIL
  6
CONTINUOUS
 62
     5
 10
-139.59540100000001
 20
192.70518200000001
 30
0.0
 11
-143.770747
 21
183.42663400000001
 31
0.0
  0
LINE
  5
21C
  8
DETAIL
  6
CONTINUOUS
 62
     5
 10
-143.8147109999999
 20
183.23017799999991
 30
0.0
 11
-143.82745600000001
 21
182.5
 31
0.0
  0
ARC
  5
21D
  8
DETAIL
  6
CONTINUOUS
 62
     5
 10
-143.314787
 20
183.221451
 30
0.0
 40
0.5
 50
155.772255
 51
179.0
  0
ARC
  5
21E
  8
DETAIL
  6
CONTINUOUS
 62
     5
 10
-235.84468699999991
 20
160.2546659999999
 30
0.0
 40
2.0
 50
270.5
 51
315.0
  0
ARC
  5
21F
  8
DETAIL
  6
CONTINUOUS
 62
     5
 10
-235.84468699999991
 20
160.2546659999999
 30
0.0
 40
2.0
 50
270.5
 51
315.0
  0
LINE
  5
220
  8
DETAIL
  6
DASHED
 62
     5
 10
-233.72213699999989
 20
152.97326499999991
 30
0.0
 11
-257.556084
 21
150.55145899999991
 31
0.0
  0
LINE
  5
221
  8
DETAIL
  6
DASHED
 62
     5
 10
-276.45687099999992
 20
123.4079799999999
 30
0.0
 11
-276.955623
 21
121.120548
 31
0.0
  0
LINE
  5
222
  8
DETAIL
  6
DASHED
 62
     5
 10
-277.527646
 20
116.527585
 30
0.0
 11
-277.59914800000001
 21
114.236099
 31
0.0
  0
LINE
  5
223
  8
DETAIL
  6
DASHED
 62
     5
 10
-277.31269900000001
 20
118.8247379999999
 30
0.0
 11
-277.527646
 21
116.527585
 31
0.0
  0
LINE
  5
224
  8
DETAIL
  6
DASHED
 62
     5
 10
-276.955623
 20
121.120548
 30
0.0
 11
-277.31269900000001
 21
118.8247379999999
 31
0.0
  0
LINE
  5
225
  8
DETAIL
  6
DASHED
 62
     5
 10
-269.18847499999993
 20
91.342580999999996
 30
0.0
 11
-267.64812199999989
 21
89.636892000000003
 31
0.0
  0
LINE
  5
226
  8
DETAIL
  6
DASHED
 62
     5
 10
-277.527646
 20
111.9572209999999
 30
0.0
 11
-277.31269900000001
 21
109.69797
 31
0.0
  0
LINE
  5
227
  8
DETAIL
  6
DASHED
 62
     5
 10
-277.59914800000001
 20
114.236099
 30
0.0
 11
-277.527646
 21
111.9572209999999
 31
0.0
  0
LINE
  5
228
  8
DETAIL
  6
DASHED
 62
     5
 10
-270.61080500000003
 20
93.130706000000004
 30
0.0
 11
-269.18847499999993
 21
91.342580999999996
 31
0.0
  0
LINE
  5
229
  8
DETAIL
  6
DASHED
 62
     5
 10
-271.91132499999992
 20
94.995455000000007
 30
0.0
 11
-270.61080500000003
 21
93.130706000000004
 31
0.0
  0
LINE
  5
22A
  8
DETAIL
  6
DASHED
 62
     5
 10
-273.08550500000001
 20
96.931483999999998
 30
0.0
 11
-271.91132499999992
 21
94.995455000000007
 31
0.0
  0
LINE
  5
22B
  8
DETAIL
  6
DASHED
 62
     5
 10
-274.13035799999989
 20
98.932579000000004
 30
0.0
 11
-273.08550500000001
 21
96.931483999999998
 31
0.0
  0
LINE
  5
22C
  8
DETAIL
  6
DASHED
 62
     5
 10
-275.0421
 20
100.99290499999989
 30
0.0
 11
-274.13035799999989
 21
98.932579000000004
 31
0.0
  0
LINE
  5
22D
  8
DETAIL
  6
DASHED
 62
     5
 10
-275.60160400000001
 20
102.471339
 30
0.0
 11
-275.0421
 21
100.99290499999989
 31
0.0
  0
LINE
  5
22E
  8
DETAIL
  6
DASHED
 62
     5
 10
-275.74052199999988
 20
102.865262
 30
0.0
 11
-275.95751100000001
 21
103.499906
 31
0.0
  0
LINE
  5
22F
  8
DETAIL
  6
DASHED
 62
     5
 10
-275.81859300000002
 20
103.105982
 30
0.0
 11
-275.60160400000001
 21
102.471339
 31
0.0
  0
LINE
  5
230
  8
DETAIL
  6
DASHED
 62
     5
 10
-276.45687099999992
 20
105.26563299999999
 30
0.0
 11
-275.81859300000002
 21
103.105982
 31
0.0
  0
LINE
  5
231
  8
DETAIL
  6
DASHED
 62
     5
 10
-276.955623
 20
107.465121
 30
0.0
 11
-276.45687099999992
 21
105.26563299999999
 31
0.0
  0
LINE
  5
232
  8
DETAIL
  6
DASHED
 62
     5
 10
-277.31269900000001
 20
109.69797
 30
0.0
 11
-276.955623
 21
107.465121
 31
0.0
  0
LINE
  5
233
  8
DETAIL
  6
CONTINUOUS
 62
     5
 10
-235.82723399999989
 20
158.25474199999999
 30
0.0
 11
-264.51340699999992
 21
158.004402
 31
0.0
  0
LINE
  5
234
  8
DETAIL
  6
CONTINUOUS
 62
     5
 10
-235.82723399999989
 20
158.25474199999999
 30
0.0
 11
-264.51340699999992
 21
158.004402
 31
0.0
  0
LINE
  5
235
  8
DETAIL
  6
DASHED
 62
     5
 10
-266.12920400000002
 20
142.44208800000001
 30
0.0
 11
-257.556084
 21
150.55145899999991
 31
0.0
  0
ARC
  5
236
  8
DETAIL
  6
CONTINUOUS
 62
     5
 10
-264.50904400000002
 20
157.50442100000001
 30
0.0
 40
0.5
 50
90.5
 51
180.0
  0
LINE
  5
237
  8
DETAIL
  6
DASHED
 62
     5
 10
-265.00904400000002
 20
143.527894
 30
0.0
 11
-265.99497200000002
 21
142.49988200000001
 31
0.0
  0
LINE
  5
238
  8
DETAIL
  6
DASHED
 62
     5
 10
-262.36974500000002
 20
146.01712900000001
 30
0.0
 11
-265.00904400000002
 21
143.527894
 31
0.0
  0
LINE
  5
239
  8
DETAIL
  6
DASHED
 62
     5
 10
-267.64812199999989
 20
140.58994000000001
 30
0.0
 11
-269.18847499999993
 21
138.61264600000001
 31
0.0
  0
LINE
  5
23A
  8
DETAIL
  6
DASHED
 62
     5
 10
-265.99497200000002
 20
142.49988200000001
 30
0.0
 11
-267.64812199999989
 21
140.58994000000001
 31
0.0
  0
LINE
  5
23B
  8
DETAIL
  6
DASHED
 62
     5
 10
-270.61080500000003
 20
136.57372599999991
 30
0.0
 11
-271.91132499999992
 21
134.47966099999991
 31
0.0
  0
LINE
  5
23C
  8
DETAIL
  6
DASHED
 62
     5
 10
-269.18847499999993
 20
138.61264600000001
 30
0.0
 11
-270.61080500000003
 21
136.57372599999991
 31
0.0
  0
LINE
  5
23D
  8
DETAIL
  6
DASHED
 62
     5
 10
-274.13035799999989
 20
130.15126100000001
 30
0.0
 11
-275.0421
 21
127.9301699999999
 31
0.0
  0
LINE
  5
23E
  8
DETAIL
  6
DASHED
 62
     5
 10
-273.08550500000001
 20
132.336592
 30
0.0
 11
-274.13035799999989
 21
130.15126100000001
 31
0.0
  0
LINE
  5
23F
  8
DETAIL
  6
DASHED
 62
     5
 10
-271.91132499999992
 20
134.47966099999991
 30
0.0
 11
-273.08550500000001
 21
132.336592
 31
0.0
  0
LINE
  5
240
  8
DETAIL
  6
DASHED
 62
     5
 10
-275.81859300000002
 20
125.680176
 30
0.0
 11
-276.45687099999992
 21
123.4079799999999
 31
0.0
  0
LINE
  5
241
  8
DETAIL
  6
DASHED
 62
     5
 10
-275.0421
 20
127.9301699999999
 30
0.0
 11
-275.81859300000002
 21
125.680176
 31
0.0
  0
LINE
  5
242
  8
DETAIL
  6
CONTINUOUS
 62
     5
 10
-195.03522000000001
 20
161.99966000000001
 30
0.0
 11
-230.772087
 21
161.68778900000001
 31
0.0
  0
LINE
  5
243
  8
DETAIL
  6
CONTINUOUS
 62
     5
 10
-195.03522000000001
 20
161.99966000000001
 30
0.0
 11
-230.772087
 21
161.68778900000001
 31
0.0
  0
ARC
  5
244
  8
DETAIL
  6
CONTINUOUS
 62
     5
 10
-230.75463400000001
 20
159.6878649999999
 30
0.0
 40
2.0
 50
90.5
 51
135.0
  0
LINE
  5
245
  8
DETAIL
  6
CONTINUOUS
 62
     5
 10
-234.430474
 20
158.840452
 30
0.0
 11
-232.168847
 21
161.10207899999989
 31
0.0
  0
ARC
  5
246
  8
DETAIL
  6
CONTINUOUS
 62
     5
 10
-230.75463400000001
 20
159.6878649999999
 30
0.0
 40
2.0
 50
90.5
 51
135.0
  0
LINE
  5
247
  8
DETAIL
  6
CONTINUOUS
 62
     5
 10
156.737267
 20
0.0
 30
0.0
 11
153.76597099999989
 21
170.22546299999991
 31
0.0
  0
LINE
  5
248
  8
DETAIL
  6
CONTINUOUS
 62
     5
 39
50.0
 10
153.76597099999989
 20
170.22546299999991
 30
0.0
 11
188.2842609999999
 21
170.22546299999991
 31
0.0
  0
LINE
  5
249
  8
DETAIL
  6
CONTINUOUS
 62
     5
 39
50.0
 10
114.7372669999999
 20
172.22546299999991
 30
0.0
 11
123.70860999999989
 21
172.22546299999991
 31
0.0
  0
LINE
  5
24A
  8
DETAIL
  6
CONTINUOUS
 62
     5
 39
50.0
 10
188.2842609999999
 20
172.22546299999991
 30
0.0
 11
188.2842609999999
 21
170.22546299999991
 31
0.0
  0
LINE
  5
24B
  8
DETAIL
  6
CONTINUOUS
 62
     5
 39
50.0
 10
151.73106100000001
 20
172.22546299999991
 30
0.0
 11
188.2842609999999
 21
172.22546299999991
 31
0.0
  0
LINE
  5
24C
  8
DETAIL
  6
CONTINUOUS
 62
     5
 10
-154.737267
 20
0.0
 30
0.0
 11
-151.73106100000001
 21
172.22546299999991
 31
0.0
  0
LINE
  5
24D
  8
DETAIL
  6
CONTINUOUS
 62
     5
 39
50.0
 10
114.7372669999999
 20
172.22546299999991
 30
0.0
 11
151.73106100000001
 21
172.22546299999991
 31
0.0
  0
LINE
  5
24E
  8
DETAIL
  6
CONTINUOUS
 62
     5
 39
50.0
 10
114.7372669999999
 20
0.0
 30
0.0
 11
114.7372669999999
 21
172.22546299999991
 31
0.0
  0
LINE
  5
24F
  8
DETAIL
  6
CONTINUOUS
 62
     5
 39
50.0
 10
114.7372669999999
 20
170.22546299999991
 30
0.0
 11
151.76597100000001
 21
170.22546299999991
 31
0.0
  0
LINE
  5
250
  8
DETAIL
  6
CONTINUOUS
 62
     5
 39
50.0
 10
137.46114600000001
 20
172.22546299999991
 30
0.0
 11
151.73106100000001
 21
172.22546299999991
 31
0.0
  0
LINE
  5
251
  8
DETAIL
  6
CONTINUOUS
 62
     5
 39
50.0
 10
114.7372669999999
 20
165.0
 30
0.0
 11
114.7372669999999
 21
172.22546299999991
 31
0.0
  0
LINE
  5
252
  8
DETAIL
  6
CONTINUOUS
 62
     5
 39
50.0
 10
-152.038274
 20
170.1953059999999
 30
0.0
 11
-188.2842609999999
 21
170.22546299999991
 31
0.0
  0
LINE
  5
253
  8
DETAIL
  6
CONTINUOUS
 62
     5
 39
50.0
 10
-188.2842609999999
 20
172.22546299999991
 30
0.0
 11
-188.2842609999999
 21
170.22546299999991
 31
0.0
  0
LINE
  5
254
  8
DETAIL
  6
CONTINUOUS
 62
     5
 39
50.0
 10
-151.73106100000001
 20
172.22546299999991
 30
0.0
 11
-188.2842609999999
 21
172.22546299999991
 31
0.0
  0
LINE
  5
255
  8
DETAIL
  6
CONTINUOUS
 62
     5
 39
50.0
 10
159.47961699999991
 20
170.22546299999991
 30
0.0
 11
181.56094899999991
 21
170.22546299999991
 31
0.0
  0
LINE
  5
256
  8
DETAIL
  6
CONTINUOUS
 62
     5
 39
50.0
 10
122.959334
 20
155.32452000000001
 30
0.0
 11
143.0406659999999
 21
155.32452000000001
 31
0.0
  0
LINE
  5
257
  8
DETAIL
  6
CONTINUOUS
 62
     5
 39
50.0
 10
121.959334
 20
170.22546299999991
 30
0.0
 11
121.959334
 21
156.32452000000001
 31
0.0
  0
LINE
  5
258
  8
DETAIL
  6
CONTINUOUS
 62
     5
 39
50.0
 10
144.0406659999999
 20
170.22546299999991
 30
0.0
 11
144.0406659999999
 21
156.32452000000001
 31
0.0
  0
ARC
  5
259
  8
DETAIL
  6
CONTINUOUS
 62
     5
 39
50.0
 10
143.0406659999999
 20
156.32452000000001
 30
0.0
 40
1.0
 50
270.0
 51
0.0
  0
ARC
  5
25A
  8
DETAIL
  6
CONTINUOUS
 62
     5
 39
50.0
 10
122.959334
 20
156.32452000000001
 30
0.0
 40
1.0
 50
180.0
 51
270.0
  0
LINE
  5
25B
  8
OUTLINE
  6
CONTINUOUS
 62
     3
 10
-125.1407699999999
 20
182.5
 30
0.0
 11
-116.919736
 21
182.5
 31
0.0
  0
LINE
  5
25C
  8
OUTLINE
  6
CONTINUOUS
 62
     3
 39
50.0
 10
137.46114600000001
 20
172.22546299999991
 30
0.0
 11
151.73106100000001
 21
172.22546299999991
 31
0.0
  0
LINE
  5
25D
  8
NOTE
  6
CONTINUOUS
 62
     4
 39
50.0
 10
188.2842609999999
 20
172.22546299999991
 30
0.0
 11
191.60044600000001
 21
182.05676
 31
0.0
  0
LINE
  5
25E
  8
NOTE
  6
CONTINUOUS
 62
     4
 39
50.0
 10
188.2842609999999
 20
172.22546299999991
 30
0.0
 11
196.73488399999991
 21
178.24530200000001
 31
0.0
  0
TEXT
  5
261
  8
ETC
  6
CONTINUOUS
 62
    61
 10
396.81758031526101
 20
426.18131572947539
 30
0.0
 40
40.0
  1
VD-18ZSVC2
 41
0.9
  0
ENDSEC
  0
EOF
