  0
SECTION
  2
HEADER
  9
$ACADVER
  1
AC1009
  9
$DWGCODEPAGE
  3
dos932
  9
$INSBASE
 10
0.0
 20
0.0
 30
0.0
  9
$EXTMIN
 10
-596.39280567224341
 20
-638.30565258197748
 30
-0.0015258207003583
  9
$EXTMAX
 10
1348.228466531991
 20
811.34034030994007
 30
0.0000000349246037
  9
$LIMMIN
 10
-2970.0
 20
-2100.0
  9
$LIMMAX
 10
2970.0
 20
2100.0
  9
$ORTHOMODE
 70
     1
  9
$REGENMODE
 70
     1
  9
$FILLMODE
 70
     1
  9
$QTEXTMODE
 70
     0
  9
$MIRRTEXT
 70
     0
  9
$LTSCALE
 40
20.0
  9
$ATTMODE
 70
     1
  9
$TEXTSIZE
 40
64.0
  9
$TRACEWID
 40
0.05
  9
$TEXTSTYLE
  7
STANDARD
  9
$CLAYER
  8
SIZE
  9
$CELTYPE
  6
CONTINUOUS
  9
$CECOLOR
 62
     7
  9
$DIMSCALE
 40
1.0
  9
$DIMASZ
 40
12.0
  9
$DIMEXO
 40
20.0
  9
$DIMDLI
 40
200.0
  9
$DIMRND
 40
0.0
  9
$DIMDLE
 40
0.0
  9
$DIMEXE
 40
20.0
  9
$DIMTP
 40
0.0
  9
$DIMTM
 40
0.0
  9
$DIMTXT
 40
64.0
  9
$DIMCEN
 40
0.09
  9
$DIMTSZ
 40
0.0
  9
$DIMTOL
 70
     0
  9
$DIMLIM
 70
     0
  9
$DIMTIH
 70
     0
  9
$DIMTOH
 70
     0
  9
$DIMSE1
 70
     0
  9
$DIMSE2
 70
     0
  9
$DIMTAD
 70
     1
  9
$DIMZIN
 70
     8
  9
$DIMBLK
  1

  9
$DIMASO
 70
     1
  9
$DIMSHO
 70
     0
  9
$DIMPOST
  1

  9
$DIMAPOST
  1

  9
$DIMALT
 70
     0
  9
$DIMALTD
 70
     2
  9
$DIMALTF
 40
25.399999999999999
  9
$DIMLFAC
 40
1.0
  9
$DIMTOFL
 70
     1
  9
$DIMTVP
 40
0.0
  9
$DIMTIX
 70
     1
  9
$DIMSOXD
 70
     0
  9
$DIMSAH
 70
     0
  9
$DIMBLK1
  1

  9
$DIMBLK2
  1

  9
$DIMSTYLE
  2
STANDARD
  9
$DIMCLRD
 70
     7
  9
$DIMCLRE
 70
     7
  9
$DIMCLRT
 70
     7
  9
$DIMTFAC
 40
1.0
  9
$DIMGAP
 40
25.0
  9
$LUNITS
 70
     2
  9
$LUPREC
 70
     4
  9
$SKETCHINC
 40
0.1
  9
$FILLETRAD
 40
3.0
  9
$AUNITS
 70
     1
  9
$AUPREC
 70
     3
  9
$MENU
  1
ACAD
  9
$ELEVATION
 40
0.0
  9
$PELEVATION
 40
0.0
  9
$THICKNESS
 40
0.0
  9
$LIMCHECK
 70
     0
  9
$CHAMFERA
 40
0.0
  9
$CHAMFERB
 40
0.0
  9
$SKPOLY
 70
     0
  9
$TDCREATE
 40
2453019.62301037
  9
$TDUPDATE
 40
2459025.509596701
  9
$TDINDWG
 40
1.7127127431
  9
$TDUSRTIMER
 40
1.7127127431
  9
$USRTIMER
 70
     1
  9
$ANGBASE
 50
0.0
  9
$ANGDIR
 70
     0
  9
$PDMODE
 70
     3
  9
$PDSIZE
 40
-2.0
  9
$PLINEWID
 40
0.0
  9
$SPLFRAME
 70
     0
  9
$SPLINETYPE
 70
     6
  9
$SPLINESEGS
 70
     8
  9
$SURFTAB1
 70
     6
  9
$SURFTAB2
 70
     6
  9
$SURFTYPE
 70
     6
  9
$SURFU
 70
     6
  9
$SURFV
 70
     6
  9
$UCSNAME
  2

  9
$UCSORG
 10
0.0
 20
0.0
 30
0.0
  9
$UCSXDIR
 10
1.0
 20
0.0
 30
0.0
  9
$UCSYDIR
 10
0.0
 20
1.0
 30
0.0
  9
$PUCSNAME
  2

  9
$PUCSORG
 10
0.0
 20
0.0
 30
0.0
  9
$PUCSXDIR
 10
1.0
 20
0.0
 30
0.0
  9
$PUCSYDIR
 10
0.0
 20
1.0
 30
0.0
  9
$USERI1
 70
     0
  9
$USERI2
 70
     0
  9
$USERI3
 70
     0
  9
$USERI4
 70
     0
  9
$USERI5
 70
     0
  9
$USERR1
 40
20.0
  9
$USERR2
 40
0.0
  9
$USERR3
 40
0.0
  9
$USERR4
 40
0.0
  9
$USERR5
 40
0.0
  9
$WORLDVIEW
 70
     1
  9
$SHADEDGE
 70
     3
  9
$SHADEDIF
 70
    70
  9
$TILEMODE
 70
     1
  9
$MAXACTVP
 70
    48
  9
$PINSBASE
 10
0.0
 20
0.0
 30
0.0
  9
$PLIMCHECK
 70
     0
  9
$PEXTMIN
 10
-100000000000000000000.0
 20
-100000000000000000000.0
 30
-100000000000000000000.0
  9
$PEXTMAX
 10
100000000000000000000.0
 20
100000000000000000000.0
 30
100000000000000000000.0
  9
$PLIMMIN
 10
0.0
 20
0.0
  9
$PLIMMAX
 10
12.0
 20
9.0
  9
$UNITMODE
 70
     0
  9
$VISRETAIN
 70
     0
  9
$PLINEGEN
 70
     0
  9
$PSLTSCALE
 70
     0
  9
$TREEDEPTH
 70
  3020
  9
$ATTDIA
 70
     0
  9
$ATTREQ
 70
     1
  9
$BLIPMODE
 70
     1
  9
$COORDS
 70
     1
  9
$DRAGMODE
 70
     2
  9
$OSMODE
 70
     0
  9
$HANDLING
 70
     0
  9
$HANDSEED
  5
EDCE
  0
ENDSEC
  0
SECTION
  2
TABLES
  0
TABLE
  2
LTYPE
 70
     3
  0
LTYPE
  2
CONTINUOUS
 70
     0
  3
実線
 72
    65
 73
     0
 40
0.0
  0
LTYPE
  2
DASHDOT
 70
     0
  3
____ _ ____ _ ____ _ ____ _ ____ _ ____ _ ____
 72
    65
 73
     4
 40
5.5
 49
4.0
 49
-0.6
 49
0.3
 49
-0.6
  0
LTYPE
  2
CENTER
 70
     0
  3
Center ____ _ ____ _ ____ _ ____ _ ____ _ ____
 72
    65
 73
     4
 40
1.0
 49
0.5
 49
-0.25
 49
0.0
 49
-0.25
  0
ENDTAB
  0
TABLE
  2
LAYER
 70
    12
  0
LAYER
  2
0
 70
     0
 62
     7
  6
CONTINUOUS
  0
LAYER
  2
BASIS
 70
     0
 62
     6
  6
DASHDOT
  0
LAYER
  2
OUTLINE
 70
     0
 62
     3
  6
CONTINUOUS
  0
LAYER
  2
DETAIL
 70
     0
 62
     5
  6
CONTINUOUS
  0
LAYER
  2
SIZE
 70
     0
 62
    30
  6
CONTINUOUS
  0
LAYER
  2
ARRANGE
 70
     0
 62
     1
  6
CONTINUOUS
  0
LAYER
  2
DEFPOINTS
 70
     0
 62
     7
  6
CONTINUOUS
  0
LAYER
  2
ETC
 70
     0
 62
    61
  6
CONTINUOUS
  0
LAYER
  2
FIX
 70
     0
 62
    11
  6
CONTINUOUS
  0
LAYER
  2
NOTE
 70
     0
 62
     4
  6
CONTINUOUS
  0
LAYER
  2
SERVICESPACE
 70
    64
 62
     2
  6
DASHDOT
  0
LAYER
  2
SYMBOLLINE
 70
    64
 62
    15
  6
CONTINUOUS
  0
ENDTAB
  0
TABLE
  2
STYLE
 70
     1
  0
STYLE
  2
STANDARD
 70
     0
 40
64.0
 41
0.9
 50
0.0
 71
     0
 42
64.0
  3
SIMPLEX.shx
  4
BIGFONT.shx
  0
ENDTAB
  0
TABLE
  2
APPID
 70
    19
  0
APPID
  2
ACAD
 70
     0
  0
APPID
  2
AUTOCAD_POSTSCRIPT_FIGURE
 70
     0
  0
APPID
  2
ACAD_EXEMPT_FROM_CAD_STANDARDS
 70
     0
  0
APPID
  2
ACAD_PSEXT
 70
     0
  0
APPID
  2
ACAUTHENVIRON
 70
     0
  0
APPID
  2
GENIUS_GENOENT_13
 70
     0
  0
APPID
  2
GENIUS_GENCFG_13
 70
     0
  0
APPID
  2
GENIUS_GENCFG0_13
 70
     0
  0
APPID
  2
GENIUS_GENCFG1_13
 70
     0
  0
APPID
  2
GENIUS_GENCFG2_13
 70
     0
  0
APPID
  2
GENIUS_GENCFG3_13
 70
     0
  0
APPID
  2
GENIUS_GENCFG4_13
 70
     0
  0
APPID
  2
GENIUS_GEVCFG0_13
 70
     0
  0
APPID
  2
CONTENTBLOCKICON
 70
     0
  0
APPID
  2
CONTENTBLOCKDESCRIPTION
 70
     0
  0
APPID
  2
ACAD_NAV_VCDISPLAY
 70
     0
  0
APPID
  2
ACAD_MLEADERVER
 70
     0
  0
APPID
  2
ACDBDYNAMICBLOCKTRUENAME
 70
     0
  0
APPID
  2
ACDBDYNAMICBLOCKGUID
 70
     0
  0
ENDTAB
  0
TABLE
  2
DIMSTYLE
 70
     1
  0
DIMSTYLE
  2
STANDARD
 70
     0
  3

  4

  5
_ORIGIN
  6

  7

 40
1.0
 41
12.0
 42
20.0
 43
200.0
 44
20.0
 45
0.0
 46
0.0
 47
0.0
 48
0.0
140
64.0
141
0.09
142
0.0
143
25.399999999999999
144
1.0
145
0.0
146
1.0
147
25.0
 71
     0
 72
     0
 73
     0
 74
     0
 75
     0
 76
     0
 77
     1
 78
     8
170
     0
171
     2
172
     1
173
     0
174
     1
175
     0
176
     7
177
     7
178
     7
  0
ENDTAB
  0
TABLE
  2
VIEW
 70
     1
  0
VIEW
  2
ALL
 70
     0
 40
4282.6198079999986
 10
0.0
 20
41.309904000000003
 41
5940.0
 11
0.0
 21
0.0
 31
1.0
 12
0.0
 22
0.0
 32
0.0
 42
50.0
 43
0.0
 44
0.0
 50
0.0
 71
     0
  0
ENDTAB
  0
TABLE
  2
UCS
 70
     0
  0
ENDTAB
  0
TABLE
  2
VPORT
 70
     1
  0
VPORT
  2
*ACTIVE
 70
     0
 10
0.0
 20
0.0
 11
1.0
 21
1.0
 12
375.91783042987379
 22
86.517343863981296
 13
0.0
 23
0.0
 14
1.0
 24
1.0
 15
0.0
 25
0.0
 16
0.0
 26
0.0
 36
1.0
 17
0.0
 27
0.0
 37
0.0
 40
1459.256905551975
 41
1.747787610619469
 42
50.0
 43
0.0
 44
0.0
 50
0.0
 51
0.0
 71
     0
 72
  1000
 73
     1
 74
     3
 75
     0
 76
     0
 77
     0
 78
     0
  0
ENDTAB
  0
ENDSEC
  0
SECTION
  2
BLOCKS
  0
BLOCK
  8
0
  2
_ORIGIN
 70
     0
 10
0.0
 20
0.0
 30
0.0
  3
_ORIGIN
  1
_ORIGIN
  0
CIRCLE
  8
0
  6
CONTINUOUS
 62
     7
 10
0.0
 20
0.0
 30
0.0
 40
0.5
  0
LINE
  8
0
  6
CONTINUOUS
 62
     7
 10
0.0
 20
0.0
 30
0.0
 11
-1.0
 21
0.0
 31
0.0
  0
ENDBLK
  8
0
  0
ENDSEC
  0
SECTION
  2
ENTITIES
  0
LINE
  8
NOTE
  6
CONTINUOUS
 62
     4
 10
165.0
 20
100.0
 30
0.0
 11
400.28356798458663
 21
364.8116364789787
 31
0.0
  0
LINE
  8
NOTE
  6
CONTINUOUS
 62
     4
 10
165.0
 20
100.0
 30
0.0
 11
196.31274534757901
 21
122.6834224188834
 31
0.0
  0
LINE
  8
NOTE
  6
CONTINUOUS
 62
     4
 10
183.99527469402349
 20
135.19929633376111
 30
0.0
 11
165.0
 21
100.0
 31
0.0
  0
TEXT
  8
NOTE
  6
CONTINUOUS
 62
     4
 10
-43.215284819591027
 20
-345.27767952661128
 30
0.0
 40
64.0
  1
EA
 41
0.9
  0
TEXT
  8
NOTE
  6
CONTINUOUS
 62
     4
 10
394.97433889379499
 20
-484.32688685288412
 30
0.0
 40
64.0
  1
EL
 41
0.9
  0
LINE
  8
NOTE
  6
CONTINUOUS
 62
     4
 10
518.11739665482173
 20
-518.19683120116031
 30
0.0
 11
349.59290512840289
 21
-518.1968312011179
 31
0.0
  0
LINE
  8
NOTE
  6
CONTINUOUS
 62
     4
 10
115.0
 20
-85.0
 30
0.0
 11
349.59290512840289
 21
-518.1968312011179
 31
0.0
  0
LINE
  8
NOTE
  6
CONTINUOUS
 62
     4
 10
115.0
 20
-85.0
 30
0.0
 11
143.0733740441128
 21
-111.6439491874501
 31
0.0
  0
LINE
  8
NOTE
  6
CONTINUOUS
 62
     4
 10
122.3025623945787
 20
-124.2580497038455
 30
0.0
 11
115.0
 21
-85.0
 31
0.0
  0
CIRCLE
  8
ARRANGE
  6
CONTINUOUS
 62
     1
 10
0.0
 20
0.0
 30
0.0
 40
40.0
  0
POINT
  8
ARRANGE
  6
CONTINUOUS
 62
     1
 10
0.0
 20
0.0
 30
0.0
 50
90.0
  0
LINE
  8
BASIS
  6
DASHDOT
 62
     6
 10
269.99974900000029
 20
0.0
 30
0.0
 11
-255.82284217941921
 21
0.0
 31
0.0
  0
LINE
  8
BASIS
  6
DASHDOT
 62
     6
 10
0.0
 20
-328.40469645841222
 30
0.0
 11
0.0
 21
247.4478729999997
 31
0.0
  0
CIRCLE
  8
FIX
  6
CONTINUOUS
 62
    11
 10
-100.0000000000002
 20
164.99999800000001
 30
0.0
 40
10.0
  0
CIRCLE
  8
FIX
  6
CONTINUOUS
 62
    11
 10
-165.0000000000002
 20
99.999974000000066
 30
0.0
 40
10.0
  0
CIRCLE
  8
FIX
  6
CONTINUOUS
 62
    11
 10
-165.0000000000002
 20
-99.999973000000068
 30
0.0
 40
10.0
  0
LINE
  8
SIZE
  6
CONTINUOUS
 62
    30
 10
-100.0000000000002
 20
193.5
 30
0.0
 11
-100.0000000000002
 21
319.27599934220888
 31
0.0
  0
LINE
  8
SIZE
  6
CONTINUOUS
 62
    30
 10
100.0
 20
193.5
 30
0.0
 11
100.0
 21
319.27599934220888
 31
0.0
  0
LINE
  8
SIZE
  6
CONTINUOUS
 62
    30
 10
-88.000000000000227
 20
299.27599934220888
 30
0.0
 11
88.0
 21
299.27599934220888
 31
0.0
  0
CIRCLE
  8
SIZE
  6
CONTINUOUS
 62
    30
 10
-100.0000000000002
 20
299.27599934220888
 30
0.0
 40
6.0
  0
LINE
  8
SIZE
  6
CONTINUOUS
 62
    30
 10
-100.0000000000002
 20
299.27599934220888
 30
0.0
 11
-88.000000000000227
 21
299.27599934220888
 31
0.0
  0
CIRCLE
  8
SIZE
  6
CONTINUOUS
 62
    30
 10
100.0
 20
299.27599934220888
 30
0.0
 40
6.0
  0
LINE
  8
SIZE
  6
CONTINUOUS
 62
    30
 10
100.0
 20
299.27599934220888
 30
0.0
 11
88.0
 21
299.27599934220888
 31
0.0
  0
TEXT
  8
SIZE
  6
CONTINUOUS
 62
    30
 10
-74.05714285714285
 20
324.27599934220888
 30
0.0
 40
64.0
  1
200
 41
0.9
 72
     1
 11
0.0
 21
324.27599934220888
 31
0.0
  0
POINT
  8
DEFPOINTS
  6
CONTINUOUS
 62
    30
 10
-100.0000000000002
 20
173.5
 30
0.0
  0
POINT
  8
DEFPOINTS
  6
CONTINUOUS
 62
    30
 10
100.0
 20
173.5
 30
0.0
  0
POINT
  8
DEFPOINTS
  6
CONTINUOUS
 62
    30
 10
100.0
 20
299.27599934220888
 30
0.0
  0
LINE
  8
SIZE
  6
CONTINUOUS
 62
    30
 10
-155.0000000000002
 20
160.0
 30
0.0
 11
-155.0000000000002
 21
424.68086682475428
 31
0.0
  0
LINE
  8
SIZE
  6
CONTINUOUS
 62
    30
 10
155.0
 20
160.0
 30
0.0
 11
155.0
 21
424.68086682475428
 31
0.0
  0
LINE
  8
SIZE
  6
CONTINUOUS
 62
    30
 10
-143.0000000000002
 20
404.68086682475428
 30
0.0
 11
143.0
 21
404.68086682475428
 31
0.0
  0
CIRCLE
  8
SIZE
  6
CONTINUOUS
 62
    30
 10
-155.0000000000002
 20
404.68086682475428
 30
0.0
 40
6.0
  0
LINE
  8
SIZE
  6
CONTINUOUS
 62
    30
 10
-155.0000000000002
 20
404.68086682475428
 30
0.0
 11
-143.0000000000002
 21
404.68086682475428
 31
0.0
  0
CIRCLE
  8
SIZE
  6
CONTINUOUS
 62
    30
 10
155.0
 20
404.68086682475428
 30
0.0
 40
6.0
  0
LINE
  8
SIZE
  6
CONTINUOUS
 62
    30
 10
155.0
 20
404.68086682475428
 30
0.0
 11
143.0
 21
404.68086682475428
 31
0.0
  0
TEXT
  8
SIZE
  6
CONTINUOUS
 62
    30
 10
-105.0514285714286
 20
429.68086682475428
 30
0.0
 40
64.0
  1
□310
 41
0.9
 72
     1
 11
0.0
 21
429.68086682475428
 31
0.0
  0
POINT
  8
DEFPOINTS
  6
CONTINUOUS
 62
    30
 10
-155.0000000000002
 20
140.0
 30
0.0
  0
POINT
  8
DEFPOINTS
  6
CONTINUOUS
 62
    30
 10
155.0
 20
140.0
 30
0.0
  0
POINT
  8
DEFPOINTS
  6
CONTINUOUS
 62
    30
 10
155.0
 20
404.68086682475428
 30
0.0
  0
LINE
  8
SIZE
  6
CONTINUOUS
 62
    30
 10
-165.0000000000002
 20
127.49997400000009
 30
0.0
 11
-165.0000000000002
 21
527.21141193407675
 31
0.0
  0
LINE
  8
SIZE
  6
CONTINUOUS
 62
    30
 10
165.0
 20
127.49997400000009
 30
0.0
 11
165.0
 21
527.21141193407675
 31
0.0
  0
LINE
  8
SIZE
  6
CONTINUOUS
 62
    30
 10
-153.0000000000002
 20
507.21141193407698
 30
0.0
 11
153.0
 21
507.21141193407698
 31
0.0
  0
CIRCLE
  8
SIZE
  6
CONTINUOUS
 62
    30
 10
-165.0000000000002
 20
507.21141193407698
 30
0.0
 40
6.0
  0
LINE
  8
SIZE
  6
CONTINUOUS
 62
    30
 10
-165.0000000000002
 20
507.21141193407698
 30
0.0
 11
-153.0000000000002
 21
507.21141193407698
 31
0.0
  0
CIRCLE
  8
SIZE
  6
CONTINUOUS
 62
    30
 10
165.0
 20
507.21141193407698
 30
0.0
 40
6.0
  0
LINE
  8
SIZE
  6
CONTINUOUS
 62
    30
 10
165.0
 20
507.21141193407698
 30
0.0
 11
153.0
 21
507.21141193407698
 31
0.0
  0
TEXT
  8
SIZE
  6
CONTINUOUS
 62
    30
 10
-74.057142857142864
 20
532.21141193407675
 30
0.0
 40
64.0
  1
330
 41
0.9
 72
     1
 11
0.0
 21
532.21141193407675
 31
0.0
  0
POINT
  8
DEFPOINTS
  6
CONTINUOUS
 62
    30
 10
-165.0000000000002
 20
107.49997400000009
 30
0.0
  0
POINT
  8
DEFPOINTS
  6
CONTINUOUS
 62
    30
 10
165.0
 20
107.49997400000009
 30
0.0
  0
POINT
  8
DEFPOINTS
  6
CONTINUOUS
 62
    30
 10
165.0
 20
507.21141193407698
 30
0.0
  0
LINE
  8
SIZE
  6
CONTINUOUS
 62
    30
 10
-181.0000000000002
 20
186.0
 30
0.0
 11
-181.0000000000002
 21
629.16509598621474
 31
0.0
  0
LINE
  8
SIZE
  6
CONTINUOUS
 62
    30
 10
180.9999999999998
 20
186.0
 30
0.0
 11
180.9999999999998
 21
629.16509598621474
 31
0.0
  0
LINE
  8
SIZE
  6
CONTINUOUS
 62
    30
 10
-169.0000000000002
 20
609.16509598621474
 30
0.0
 11
168.9999999999998
 21
609.16509598621474
 31
0.0
  0
CIRCLE
  8
SIZE
  6
CONTINUOUS
 62
    30
 10
-181.0000000000002
 20
609.16509598621474
 30
0.0
 40
6.0
  0
LINE
  8
SIZE
  6
CONTINUOUS
 62
    30
 10
-181.0000000000002
 20
609.16509598621474
 30
0.0
 11
-169.0000000000002
 21
609.16509598621474
 31
0.0
  0
CIRCLE
  8
SIZE
  6
CONTINUOUS
 62
    30
 10
180.9999999999998
 20
609.16509598621474
 30
0.0
 40
6.0
  0
LINE
  8
SIZE
  6
CONTINUOUS
 62
    30
 10
180.9999999999998
 20
609.16509598621474
 30
0.0
 11
168.9999999999998
 21
609.16509598621474
 31
0.0
  0
TEXT
  8
SIZE
  6
CONTINUOUS
 62
    30
 10
-74.057142857143063
 20
634.16509598621474
 30
0.0
 40
64.0
  1
362
 41
0.9
 72
     1
 11
-0.0000000000002274
 21
634.16509598621474
 31
0.0
  0
POINT
  8
DEFPOINTS
  6
CONTINUOUS
 62
    30
 10
-181.0000000000002
 20
166.0
 30
0.0
  0
POINT
  8
DEFPOINTS
  6
CONTINUOUS
 62
    30
 10
180.9999999999998
 20
166.0
 30
0.0
  0
POINT
  8
DEFPOINTS
  6
CONTINUOUS
 62
    30
 10
180.9999999999998
 20
609.16509598621474
 30
0.0
  0
LINE
  8
SIZE
  6
CONTINUOUS
 62
    30
 10
-195.0000000000002
 20
215.0
 30
0.0
 11
-195.0000000000002
 21
742.17567313460972
 31
0.0
  0
LINE
  8
SIZE
  6
CONTINUOUS
 62
    30
 10
194.9999999999998
 20
214.0
 30
0.0
 11
194.9999999999998
 21
742.17567313460972
 31
0.0
  0
LINE
  8
SIZE
  6
CONTINUOUS
 62
    30
 10
-183.0000000000002
 20
722.17567313460972
 30
0.0
 11
182.9999999999998
 21
722.17567313460972
 31
0.0
  0
CIRCLE
  8
SIZE
  6
CONTINUOUS
 62
    30
 10
-195.0000000000002
 20
722.17567313460972
 30
0.0
 40
6.0
  0
LINE
  8
SIZE
  6
CONTINUOUS
 62
    30
 10
-195.0000000000002
 20
722.17567313460972
 30
0.0
 11
-183.0000000000002
 21
722.17567313460972
 31
0.0
  0
CIRCLE
  8
SIZE
  6
CONTINUOUS
 62
    30
 10
194.9999999999998
 20
722.17567313460972
 30
0.0
 40
6.0
  0
LINE
  8
SIZE
  6
CONTINUOUS
 62
    30
 10
194.9999999999998
 20
722.17567313460972
 30
0.0
 11
182.9999999999998
 21
722.17567313460972
 31
0.0
  0
TEXT
  8
SIZE
  6
CONTINUOUS
 62
    30
 10
-110.5371428571431
 20
747.17567313460972
 30
0.0
 40
64.0
  1
□390
 41
0.9
 72
     1
 11
-0.0000000000002274
 21
747.17567313460972
 31
0.0
  0
POINT
  8
DEFPOINTS
  6
CONTINUOUS
 62
    30
 10
-195.0000000000002
 20
195.0
 30
0.0
  0
POINT
  8
DEFPOINTS
  6
CONTINUOUS
 62
    30
 10
194.9999999999998
 20
194.0
 30
0.0
  0
POINT
  8
DEFPOINTS
  6
CONTINUOUS
 62
    30
 10
194.9999999999998
 20
722.17567313460972
 30
0.0
  0
LINE
  8
SIZE
  6
CONTINUOUS
 62
    30
 10
127.5
 20
164.99999800000001
 30
0.0
 11
522.35651895960746
 21
164.99999799999989
 31
0.0
  0
LINE
  8
SIZE
  6
CONTINUOUS
 62
    30
 10
127.5
 20
-164.99999700000009
 30
0.0
 11
522.356518959607
 21
-164.99999700000021
 31
0.0
  0
LINE
  8
SIZE
  6
CONTINUOUS
 62
    30
 10
502.35651895960751
 20
152.99999799999989
 30
0.0
 11
502.35651895960751
 21
-152.99999700000021
 31
0.0
  0
CIRCLE
  8
SIZE
  6
CONTINUOUS
 62
    30
 10
502.35651895960751
 20
164.99999799999989
 30
0.0
 40
6.0
  0
LINE
  8
SIZE
  6
CONTINUOUS
 62
    30
 10
502.35651895960751
 20
164.99999799999989
 30
0.0
 11
502.35651895960751
 21
152.99999799999989
 31
0.0
  0
CIRCLE
  8
SIZE
  6
CONTINUOUS
 62
    30
 10
502.35651895960751
 20
-164.99999700000021
 30
0.0
 40
6.0
  0
LINE
  8
SIZE
  6
CONTINUOUS
 62
    30
 10
502.35651895960751
 20
-164.99999700000021
 30
0.0
 11
502.35651895960751
 21
-152.99999700000021
 31
0.0
  0
TEXT
  8
SIZE
  6
CONTINUOUS
 62
    30
 10
477.35651895960751
 20
-74.057142357142922
 30
0.0
 40
64.0
  1
330
 50
90.0
 41
0.9
 72
     1
 11
477.35651895960751
 21
0.0000004999999419
 31
0.0
  0
POINT
  8
DEFPOINTS
  6
CONTINUOUS
 62
    30
 10
107.5
 20
164.99999800000001
 30
0.0
  0
POINT
  8
DEFPOINTS
  6
CONTINUOUS
 62
    30
 10
107.5
 20
-164.99999700000009
 30
0.0
  0
POINT
  8
DEFPOINTS
  6
CONTINUOUS
 62
    30
 10
502.35651895960751
 20
-164.99999700000021
 30
0.0
  0
LINE
  8
SIZE
  6
CONTINUOUS
 62
    30
 10
193.4999999999998
 20
100.0
 30
0.0
 11
402.74655472201903
 21
100.0
 31
0.0
  0
LINE
  8
SIZE
  6
CONTINUOUS
 62
    30
 10
193.4999999999998
 20
-100.0
 30
0.0
 11
402.74655472201903
 21
-100.0000000000001
 31
0.0
  0
LINE
  8
SIZE
  6
CONTINUOUS
 62
    30
 10
382.7465547220188
 20
88.0
 30
0.0
 11
382.7465547220188
 21
-88.0
 31
0.0
  0
CIRCLE
  8
SIZE
  6
CONTINUOUS
 62
    30
 10
382.7465547220188
 20
100.0
 30
0.0
 40
6.0
  0
LINE
  8
SIZE
  6
CONTINUOUS
 62
    30
 10
382.7465547220188
 20
100.0
 30
0.0
 11
382.7465547220188
 21
88.0
 31
0.0
  0
CIRCLE
  8
SIZE
  6
CONTINUOUS
 62
    30
 10
382.7465547220188
 20
-100.0000000000001
 30
0.0
 40
6.0
  0
LINE
  8
SIZE
  6
CONTINUOUS
 62
    30
 10
382.7465547220188
 20
-100.0000000000001
 30
0.0
 11
382.7465547220188
 21
-88.000000000000114
 31
0.0
  0
TEXT
  8
SIZE
  6
CONTINUOUS
 62
    30
 10
357.7465547220188
 20
-74.05714285714285
 30
0.0
 40
64.0
  1
200
 50
90.0
 41
0.9
 72
     1
 11
357.7465547220188
 21
0.0
 31
0.0
  0
POINT
  8
DEFPOINTS
  6
CONTINUOUS
 62
    30
 10
173.4999999999998
 20
100.0
 30
0.0
  0
POINT
  8
DEFPOINTS
  6
CONTINUOUS
 62
    30
 10
173.4999999999998
 20
-100.0
 30
0.0
  0
POINT
  8
DEFPOINTS
  6
CONTINUOUS
 62
    30
 10
382.7465547220188
 20
-100.0000000000001
 30
0.0
  0
LINE
  8
SIZE
  6
CONTINUOUS
 62
    30
 10
185.9999999999998
 20
181.0
 30
0.0
 11
636.17397958898164
 21
180.99999999999989
 31
0.0
  0
LINE
  8
SIZE
  6
CONTINUOUS
 62
    30
 10
182.75695108000741
 20
-181.0
 30
0.0
 11
636.17397958898164
 21
-181.00000000000011
 31
0.0
  0
LINE
  8
SIZE
  6
CONTINUOUS
 62
    30
 10
616.17397958898164
 20
168.99999999999989
 30
0.0
 11
616.17397958898164
 21
-169.00000000000011
 31
0.0
  0
CIRCLE
  8
SIZE
  6
CONTINUOUS
 62
    30
 10
616.17397958898164
 20
180.99999999999989
 30
0.0
 40
6.0
  0
LINE
  8
SIZE
  6
CONTINUOUS
 62
    30
 10
616.17397958898164
 20
180.99999999999989
 30
0.0
 11
616.17397958898164
 21
168.99999999999989
 31
0.0
  0
CIRCLE
  8
SIZE
  6
CONTINUOUS
 62
    30
 10
616.17397958898164
 20
-181.00000000000011
 30
0.0
 40
6.0
  0
LINE
  8
SIZE
  6
CONTINUOUS
 62
    30
 10
616.17397958898164
 20
-181.00000000000011
 30
0.0
 11
616.17397958898164
 21
-169.00000000000011
 31
0.0
  0
TEXT
  8
SIZE
  6
CONTINUOUS
 62
    30
 10
591.17397958898164
 20
-74.057142857142836
 30
0.0
 40
64.0
  1
362
 50
90.0
 41
0.9
 72
     1
 11
591.17397958898164
 21
0.0
 31
0.0
  0
POINT
  8
DEFPOINTS
  6
CONTINUOUS
 62
    30
 10
165.9999999999998
 20
181.0
 30
0.0
  0
POINT
  8
DEFPOINTS
  6
CONTINUOUS
 62
    30
 10
162.75695108000741
 20
-181.0
 30
0.0
  0
POINT
  8
DEFPOINTS
  6
CONTINUOUS
 62
    30
 10
616.17397958898164
 20
-181.00000000000011
 30
0.0
  0
LINE
  8
SIZE
  6
CONTINUOUS
 62
    30
 10
-49.078498999999972
 20
-242.40122100000011
 30
0.0
 11
-49.078498999999972
 21
-499.54545438889909
 31
0.0
  0
LINE
  8
SIZE
  6
CONTINUOUS
 62
    30
 10
49.110221159852699
 20
-242.06406384899029
 30
0.0
 11
49.110221159852472
 21
-499.54545438889909
 31
0.0
  0
LINE
  8
SIZE
  6
CONTINUOUS
 62
    30
 10
-37.078498999999972
 20
-479.54545438889909
 30
0.0
 11
37.110221159852472
 21
-479.54545438889909
 31
0.0
  0
LINE
  8
SIZE
  6
CONTINUOUS
 62
    30
 10
49.110221159852472
 20
-479.54545438889909
 30
0.0
 11
271.54357250849762
 21
-479.54545438889909
 31
0.0
  0
CIRCLE
  8
SIZE
  6
CONTINUOUS
 62
    30
 10
-49.078498999999972
 20
-479.54545438889909
 30
0.0
 40
6.0
  0
LINE
  8
SIZE
  6
CONTINUOUS
 62
    30
 10
-49.078498999999972
 20
-479.54545438889909
 30
0.0
 11
-37.078498999999972
 21
-479.54545438889909
 31
0.0
  0
CIRCLE
  8
SIZE
  6
CONTINUOUS
 62
    30
 10
49.110221159852472
 20
-479.54545438889909
 30
0.0
 40
6.0
  0
LINE
  8
SIZE
  6
CONTINUOUS
 62
    30
 10
49.110221159852472
 20
-479.54545438889909
 30
0.0
 11
37.110221159852472
 21
-479.54545438889909
 31
0.0
  0
TEXT
  8
SIZE
  6
CONTINUOUS
 62
    30
 10
82.795001079926223
 20
-443.87878772223257
 30
0.0
 40
64.0
  1
φ98
 41
0.9
 72
     1
 11
169.74357250849769
 21
-443.87878772223257
 31
0.0
  0
POINT
  8
DEFPOINTS
  6
CONTINUOUS
 62
    30
 10
-49.078498999999972
 20
-222.40122100000011
 30
0.0
  0
POINT
  8
DEFPOINTS
  6
CONTINUOUS
 62
    30
 10
49.110221159852699
 20
-222.06406384899029
 30
0.0
  0
POINT
  8
DEFPOINTS
  6
CONTINUOUS
 62
    30
 10
49.110221159852472
 20
-479.54545438889909
 30
0.0
  0
LINE
  8
SIZE
  6
CONTINUOUS
 62
    30
 10
-52.307706000000053
 20
-232.87751900000009
 30
0.0
 11
-52.307706000000053
 21
-638.26462041694879
 31
0.0
  0
LINE
  8
SIZE
  6
CONTINUOUS
 62
    30
 10
52.307706000000053
 20
-232.87751900000009
 30
0.0
 11
52.307706000000053
 21
-638.26462041694879
 31
0.0
  0
LINE
  8
SIZE
  6
CONTINUOUS
 62
    30
 10
-40.307706000000053
 20
-618.26462041694879
 30
0.0
 11
40.307706000000053
 21
-618.26462041694879
 31
0.0
  0
LINE
  8
SIZE
  6
CONTINUOUS
 62
    30
 10
52.307706000000053
 20
-618.26462041694879
 30
0.0
 11
313.16484885714289
 21
-618.26462041694879
 31
0.0
  0
CIRCLE
  8
SIZE
  6
CONTINUOUS
 62
    30
 10
-52.307706000000053
 20
-618.26462041694879
 30
0.0
 40
6.0
  0
LINE
  8
SIZE
  6
CONTINUOUS
 62
    30
 10
-52.307706000000053
 20
-618.26462041694879
 30
0.0
 11
-40.307706000000053
 21
-618.26462041694879
 31
0.0
  0
CIRCLE
  8
SIZE
  6
CONTINUOUS
 62
    30
 10
52.307706000000053
 20
-618.26462041694879
 30
0.0
 40
6.0
  0
LINE
  8
SIZE
  6
CONTINUOUS
 62
    30
 10
52.307706000000053
 20
-618.26462041694879
 30
0.0
 11
40.307706000000053
 21
-618.26462041694879
 31
0.0
  0
TEXT
  8
SIZE
  6
CONTINUOUS
 62
    30
 10
80.530563142857119
 20
-582.59795375028216
 30
0.0
 40
64.0
  1
φ105
 41
0.9
 72
     1
 11
189.4219917142857
 21
-582.59795375028216
 31
0.0
  0
POINT
  8
DEFPOINTS
  6
CONTINUOUS
 62
    30
 10
-52.307706000000053
 20
-212.87751900000009
 30
0.0
  0
POINT
  8
DEFPOINTS
  6
CONTINUOUS
 62
    30
 10
52.307706000000053
 20
-212.87751900000009
 30
0.0
  0
POINT
  8
DEFPOINTS
  6
CONTINUOUS
 62
    30
 10
52.307706000000053
 20
-618.26462041694879
 30
0.0
  0
LINE
  8
SIZE
  6
CONTINUOUS
 62
    30
 10
-69.111167835601918
 20
-222.0588680000001
 30
0.0
 11
-298.34626624962328
 21
-222.05886799999999
 31
0.0
  0
LINE
  8
SIZE
  6
CONTINUOUS
 62
    30
 10
-68.221686999999974
 20
-264.0
 30
0.0
 11
-298.34626624962328
 21
-264.0
 31
0.0
  0
LINE
  8
SIZE
  6
CONTINUOUS
 62
    30
 10
-278.34626624962328
 20
-210.05886799999999
 30
0.0
 11
-278.34626624962328
 21
-198.05886799999999
 31
0.0
  0
LINE
  8
SIZE
  6
CONTINUOUS
 62
    30
 10
-278.34626624962328
 20
-276.0
 30
0.0
 11
-278.34626624962362
 21
-437.25714285714292
 31
0.0
  0
LINE
  8
SIZE
  6
CONTINUOUS
 62
    30
 10
-278.34626624962328
 20
-222.05886799999999
 30
0.0
 11
-278.34626624962328
 21
-264.0
 31
0.0
  0
CIRCLE
  8
SIZE
  6
CONTINUOUS
 62
    30
 10
-278.34626624962328
 20
-222.05886799999999
 30
0.0
 40
6.0
  0
LINE
  8
SIZE
  6
CONTINUOUS
 62
    30
 10
-278.34626624962328
 20
-222.05886799999999
 30
0.0
 11
-278.34626624962328
 21
-210.05886799999999
 31
0.0
  0
CIRCLE
  8
SIZE
  6
CONTINUOUS
 62
    30
 10
-278.34626624962328
 20
-264.0
 30
0.0
 40
6.0
  0
LINE
  8
SIZE
  6
CONTINUOUS
 62
    30
 10
-278.34626624962328
 20
-264.0
 30
0.0
 11
-278.34626624962328
 21
-276.0
 31
0.0
  0
TEXT
  8
SIZE
  6
CONTINUOUS
 62
    30
 10
-303.34626624962328
 20
-412.25714285714298
 30
0.0
 40
64.0
  1
42
 50
90.0
 41
0.9
 72
     1
 11
-303.34626624962328
 21
-365.6285714285716
 31
0.0
  0
POINT
  8
DEFPOINTS
  6
CONTINUOUS
 62
    30
 10
-49.111167835601918
 20
-222.0588680000001
 30
0.0
  0
POINT
  8
DEFPOINTS
  6
CONTINUOUS
 62
    30
 10
-48.221686999999967
 20
-264.0
 30
0.0
  0
POINT
  8
DEFPOINTS
  6
CONTINUOUS
 62
    30
 10
-278.34626624962328
 20
-264.0
 30
0.0
  0
LINE
  8
SIZE
  6
CONTINUOUS
 62
    30
 10
-72.766906996872422
 20
-195.260243
 30
0.0
 11
-412.71160697561692
 21
-195.26024299999989
 31
0.0
  0
LINE
  8
SIZE
  6
CONTINUOUS
 62
    30
 10
-68.221686999999974
 20
-263.999999
 30
0.0
 11
-412.71160697561692
 21
-263.99999899999989
 31
0.0
  0
LINE
  8
SIZE
  6
CONTINUOUS
 62
    30
 10
-392.71160697561692
 20
-183.26024299999989
 30
0.0
 11
-392.71160697561692
 21
-171.2602429999998
 31
0.0
  0
LINE
  8
SIZE
  6
CONTINUOUS
 62
    30
 10
-392.71160697561692
 20
-275.99999899999989
 30
0.0
 11
-392.71160697561692
 21
-429.88571328571419
 31
0.0
  0
LINE
  8
SIZE
  6
CONTINUOUS
 62
    30
 10
-392.71160697561692
 20
-195.26024299999989
 30
0.0
 11
-392.71160697561692
 21
-263.99999899999989
 31
0.0
  0
CIRCLE
  8
SIZE
  6
CONTINUOUS
 62
    30
 10
-392.71160697561692
 20
-195.26024299999989
 30
0.0
 40
6.0
  0
LINE
  8
SIZE
  6
CONTINUOUS
 62
    30
 10
-392.71160697561692
 20
-195.26024299999989
 30
0.0
 11
-392.71160697561692
 21
-183.26024299999989
 31
0.0
  0
CIRCLE
  8
SIZE
  6
CONTINUOUS
 62
    30
 10
-392.71160697561692
 20
-263.99999899999989
 30
0.0
 40
6.0
  0
LINE
  8
SIZE
  6
CONTINUOUS
 62
    30
 10
-392.71160697561692
 20
-263.99999899999989
 30
0.0
 11
-392.71160697561692
 21
-275.99999899999989
 31
0.0
  0
TEXT
  8
SIZE
  6
CONTINUOUS
 62
    30
 10
-417.71160697561692
 20
-404.88571328571419
 30
0.0
 40
64.0
  1
69
 50
90.0
 41
0.9
 72
     1
 11
-417.71160697561692
 21
-359.62857042857138
 31
0.0
  0
POINT
  8
DEFPOINTS
  6
CONTINUOUS
 62
    30
 10
-52.766906996872187
 20
-195.260243
 30
0.0
  0
POINT
  8
DEFPOINTS
  6
CONTINUOUS
 62
    30
 10
-48.221686999999967
 20
-263.999999
 30
0.0
  0
POINT
  8
DEFPOINTS
  6
CONTINUOUS
 62
    30
 10
-392.71160697561692
 20
-263.99999899999989
 30
0.0
  0
LINE
  8
SIZE
  6
CONTINUOUS
 62
    30
 10
-146.62037700000019
 20
-155.0
 30
0.0
 11
-526.95713930599709
 21
-154.99999999999989
 31
0.0
  0
LINE
  8
SIZE
  6
CONTINUOUS
 62
    30
 10
-68.221686999999974
 20
-264.0
 30
0.0
 11
-526.95713930599732
 21
-263.99999999999989
 31
0.0
  0
LINE
  8
SIZE
  6
CONTINUOUS
 62
    30
 10
-506.95713930599709
 20
-142.99999999999989
 30
0.0
 11
-506.95713930599709
 21
-130.99999999999989
 31
0.0
  0
LINE
  8
SIZE
  6
CONTINUOUS
 62
    30
 10
-506.95713930599709
 20
-276.0
 30
0.0
 11
-506.95713930599709
 21
-288.0
 31
0.0
  0
LINE
  8
SIZE
  6
CONTINUOUS
 62
    30
 10
-506.95713930599709
 20
-154.99999999999989
 30
0.0
 11
-506.95713930599709
 21
-264.0
 31
0.0
  0
CIRCLE
  8
SIZE
  6
CONTINUOUS
 62
    30
 10
-506.95713930599709
 20
-154.99999999999989
 30
0.0
 40
6.0
  0
LINE
  8
SIZE
  6
CONTINUOUS
 62
    30
 10
-506.95713930599709
 20
-154.99999999999989
 30
0.0
 11
-506.95713930599709
 21
-142.99999999999989
 31
0.0
  0
CIRCLE
  8
SIZE
  6
CONTINUOUS
 62
    30
 10
-506.95713930599709
 20
-264.0
 30
0.0
 40
6.0
  0
LINE
  8
SIZE
  6
CONTINUOUS
 62
    30
 10
-506.95713930599709
 20
-264.0
 30
0.0
 11
-506.95713930599709
 21
-276.0
 31
0.0
  0
TEXT
  8
SIZE
  6
CONTINUOUS
 62
    30
 10
-531.95713930599709
 20
-276.69999999999999
 30
0.0
 40
64.0
  1
109
 50
90.0
 41
0.9
 72
     1
 11
-531.95713930599709
 21
-209.5
 31
0.0
  0
POINT
  8
DEFPOINTS
  6
CONTINUOUS
 62
    30
 10
-126.6203770000002
 20
-155.0
 30
0.0
  0
POINT
  8
DEFPOINTS
  6
CONTINUOUS
 62
    30
 10
-48.221686999999967
 20
-264.0
 30
0.0
  0
POINT
  8
DEFPOINTS
  6
CONTINUOUS
 62
    30
 10
-506.95713930599709
 20
-264.0
 30
0.0
  0
LINE
  8
OUTLINE
  6
CONTINUOUS
 62
     3
 10
-48.719781000000012
 20
-263.50623300000012
 30
0.0
 11
-49.078498999999972
 21
-222.40122100000011
 31
0.0
  0
ARC
  8
OUTLINE
  6
CONTINUOUS
 62
     3
 10
-51.070875999999998
 20
-222.41860800000021
 30
0.0
 40
1.992453
 50
0.5000000000046022
 51
19.999999999989239
  0
LINE
  8
OUTLINE
  6
CONTINUOUS
 62
     3
 10
-49.198582999999871
 20
-221.73714899999999
 30
0.0
 11
-52.187850000000033
 21
-213.52420499999991
 31
0.0
  0
ARC
  8
OUTLINE
  6
CONTINUOUS
 62
     3
 10
-50.315556000000022
 20
-212.84274600000001
 30
0.0
 40
1.992453
 50
181.00000000000179
 51
199.99999999998931
  0
LINE
  8
OUTLINE
  6
CONTINUOUS
 62
     3
 10
49.198581999999988
 20
-221.73714899999999
 30
0.0
 11
52.187850000000033
 21
-213.52420499999991
 31
0.0
  0
ARC
  8
OUTLINE
  6
CONTINUOUS
 62
     3
 10
50.315556000000022
 20
-212.84274600000001
 30
0.0
 40
1.992453
 50
340.00000000001069
 51
358.99999999999818
  0
ARC
  8
OUTLINE
  6
CONTINUOUS
 62
     3
 10
51.070875999999998
 20
-222.41860800000021
 30
0.0
 40
1.992453
 50
160.0000000000108
 51
179.4999999999954
  0
LINE
  8
OUTLINE
  6
CONTINUOUS
 62
     3
 10
48.719781000000012
 20
-263.50623300000012
 30
0.0
 11
49.078498999999972
 21
-222.40122100000011
 31
0.0
  0
LINE
  8
OUTLINE
  6
CONTINUOUS
 62
     3
 10
195.0
 20
195.0
 30
0.0
 11
195.0
 21
-195.0
 31
0.0
  0
LINE
  8
OUTLINE
  6
CONTINUOUS
 62
     3
 10
-195.0000000000002
 20
195.0
 30
0.0
 11
-195.0000000000002
 21
-195.0
 31
0.0
  0
LINE
  8
OUTLINE
  6
CONTINUOUS
 62
     3
 10
195.0
 20
195.0
 30
0.0
 11
-195.0000000000002
 21
195.0
 31
0.0
  0
ARC
  8
OUTLINE
  6
CONTINUOUS
 62
     3
 10
-48.221686999999967
 20
-263.50188600000013
 30
0.0
 40
0.498113
 50
180.5000000000046
 51
270.0
  0
LINE
  8
OUTLINE
  6
CONTINUOUS
 62
     3
 10
-48.719781000000012
 20
-263.50623300000012
 30
0.0
 11
-49.078498999999972
 21
-222.40122100000011
 31
0.0
  0
LINE
  8
OUTLINE
  6
CONTINUOUS
 62
     3
 10
48.719781000000012
 20
-263.50623300000012
 30
0.0
 11
49.078498999999972
 21
-222.40122100000011
 31
0.0
  0
ARC
  8
OUTLINE
  6
CONTINUOUS
 62
     3
 10
48.221685999999863
 20
-263.50188600000013
 30
0.0
 40
0.498113
 50
270.0
 51
359.4999999999954
  0
LINE
  8
OUTLINE
  6
CONTINUOUS
 62
     3
 10
48.221685999999863
 20
-264.0
 30
0.0
 11
-48.221686999999967
 21
-264.0
 31
0.0
  0
LINE
  8
OUTLINE
  6
CONTINUOUS
 62
     3
 10
-52.811280000000117
 20
-195.0
 30
0.0
 11
-195.0000000000002
 21
-195.0
 31
0.0
  0
LINE
  8
OUTLINE
  6
CONTINUOUS
 62
     3
 10
-52.307706000000053
 20
-212.87751900000009
 30
0.0
 11
-52.578199999999917
 21
-197.38091300000019
 31
0.0
  0
ARC
  8
OUTLINE
  6
CONTINUOUS
 62
     3
 10
-67.519320000000107
 20
-197.6417119999999
 30
0.0
 40
14.943396
 50
1.0000000000017619
 51
10.182330999998429
  0
ARC
  8
OUTLINE
  6
CONTINUOUS
 62
     3
 10
67.51931999999988
 20
-197.6417119999999
 30
0.0
 40
14.943396
 50
169.81766900000159
 51
178.99999999999829
  0
LINE
  8
OUTLINE
  6
CONTINUOUS
 62
     3
 10
52.307706000000053
 20
-212.87751900000009
 30
0.0
 11
52.578199999999917
 21
-197.38091300000019
 31
0.0
  0
LINE
  8
OUTLINE
  6
CONTINUOUS
 62
     3
 10
195.0
 20
-195.0
 30
0.0
 11
52.811279999999897
 21
-195.0
 31
0.0
  0
LINE
  8
DETAIL
  6
CONTINUOUS
 62
     5
 10
-48.719781000000012
 20
-263.50623300000012
 30
0.0
 11
-49.078498999999972
 21
-222.40122100000011
 31
0.0
  0
ARC
  8
DETAIL
  6
CONTINUOUS
 62
     5
 10
-51.070875999999998
 20
-222.41860800000009
 30
0.0
 40
1.992453
 50
0.5000000000046022
 51
19.999999999989239
  0
LINE
  8
DETAIL
  6
CONTINUOUS
 62
     5
 10
-49.198582999999871
 20
-221.73714899999999
 30
0.0
 11
-52.187850000000033
 21
-213.52420500000011
 31
0.0
  0
ARC
  8
DETAIL
  6
CONTINUOUS
 62
     5
 10
-50.315556000000022
 20
-212.84274600000001
 30
0.0
 40
1.992453
 50
181.00000000000179
 51
199.99999999998931
  0
LINE
  8
DETAIL
  6
CONTINUOUS
 62
     5
 10
-49.111167999999907
 20
-222.0588680000001
 30
0.0
 11
49.111167999999907
 21
-222.0588680000001
 31
0.0
  0
LINE
  8
DETAIL
  6
CONTINUOUS
 62
     5
 10
49.198581999999988
 20
-221.73714899999999
 30
0.0
 11
52.187850000000033
 21
-213.52420500000011
 31
0.0
  0
ARC
  8
DETAIL
  6
CONTINUOUS
 62
     5
 10
50.315556000000022
 20
-212.84274600000001
 30
0.0
 40
1.992453
 50
340.00000000001069
 51
358.99999999999818
  0
ARC
  8
DETAIL
  6
CONTINUOUS
 62
     5
 10
51.070875999999998
 20
-222.41860800000009
 30
0.0
 40
1.992453
 50
160.0000000000108
 51
179.4999999999954
  0
LINE
  8
DETAIL
  6
CONTINUOUS
 62
     5
 10
48.719781000000012
 20
-263.50623300000012
 30
0.0
 11
49.078498999999972
 21
-222.40122100000011
 31
0.0
  0
LINE
  8
DETAIL
  6
CONTINUOUS
 62
     5
 10
52.273703000000069
 20
-213.21089000000009
 30
0.0
 11
-52.273703000000069
 21
-213.21089000000009
 31
0.0
  0
LINE
  8
DETAIL
  6
CONTINUOUS
 62
     5
 10
195.0
 20
195.0
 30
0.0
 11
195.0
 21
-195.0
 31
0.0
  0
LINE
  8
DETAIL
  6
CONTINUOUS
 62
     5
 10
-195.0000000000002
 20
195.0
 30
0.0
 11
-195.0000000000002
 21
-195.0
 31
0.0
  0
LINE
  8
DETAIL
  6
CONTINUOUS
 62
     5
 10
195.0
 20
195.0
 30
0.0
 11
-195.0000000000002
 21
195.0
 31
0.0
  0
ARC
  8
DETAIL
  6
CONTINUOUS
 62
     5
 10
-48.221686999999967
 20
-263.50188600000001
 30
0.0
 40
0.498113
 50
180.5000000000046
 51
270.0
  0
LINE
  8
DETAIL
  6
CONTINUOUS
 62
     5
 10
-48.719781000000012
 20
-263.50623300000012
 30
0.0
 11
-49.078498999999972
 21
-222.40122100000011
 31
0.0
  0
LINE
  8
DETAIL
  6
CONTINUOUS
 62
     5
 10
48.719781000000012
 20
-263.50623300000012
 30
0.0
 11
49.078498999999972
 21
-222.40122100000011
 31
0.0
  0
ARC
  8
DETAIL
  6
CONTINUOUS
 62
     5
 10
48.221685999999863
 20
-263.50188600000001
 30
0.0
 40
0.498113
 50
270.0
 51
359.4999999999954
  0
LINE
  8
DETAIL
  6
CONTINUOUS
 62
     5
 10
48.221685999999863
 20
-264.0
 30
0.0
 11
-48.221686999999967
 21
-264.0
 31
0.0
  0
LINE
  8
DETAIL
  6
CONTINUOUS
 62
     5
 10
-52.811280000000117
 20
-195.0
 30
0.0
 11
-195.0000000000002
 21
-195.0
 31
0.0
  0
ARC
  8
DETAIL
  6
CONTINUOUS
 62
     5
 10
85.172667999999931
 20
-118.5509430000001
 30
0.0
 40
1.992453
 50
19.83509800000833
 51
90.0
  0
ARC
  8
DETAIL
  6
CONTINUOUS
 62
     5
 10
122.58566
 20
-151.42641500000011
 30
0.0
 40
0.9962259999999999
 50
270.0
 51
0.0
  0
LINE
  8
DETAIL
  6
CONTINUOUS
 62
     5
 10
123.58188700000009
 20
-146.34566000000009
 30
0.0
 11
-123.5818869999998
 21
-146.34566000000009
 31
0.0
  0
LINE
  8
DETAIL
  6
CONTINUOUS
 62
     5
 10
123.58188700000009
 20
-151.42641500000011
 30
0.0
 11
123.58188700000009
 21
-144.45283000000009
 31
0.0
  0
LINE
  8
DETAIL
  6
CONTINUOUS
 62
     5
 10
123.58188700000009
 20
-144.45283000000009
 30
0.0
 11
126.620377
 21
-147.441509
 31
0.0
  0
ARC
  8
DETAIL
  6
CONTINUOUS
 62
     5
 10
98.033369999999877
 20
-142.46037700000011
 30
0.0
 40
1.992453
 50
199.83509800000829
 51
270.0
  0
LINE
  8
DETAIL
  6
CONTINUOUS
 62
     5
 10
123.58188700000009
 20
-144.45283000000009
 30
0.0
 11
98.033369999999877
 21
-144.45283000000009
 31
0.0
  0
LINE
  8
DETAIL
  6
CONTINUOUS
 62
     5
 10
87.046914000000015
 20
-117.8748750000001
 30
0.0
 11
96.159123000000136
 21
-143.13644500000009
 31
0.0
  0
LINE
  8
DETAIL
  6
CONTINUOUS
 62
     5
 10
-52.307706000000053
 20
-212.87751900000009
 30
0.0
 11
-52.578199999999917
 21
-197.38091300000011
 31
0.0
  0
ARC
  8
DETAIL
  6
CONTINUOUS
 62
     5
 10
-67.519320000000107
 20
-197.6417120000001
 30
0.0
 40
14.943396
 50
1.0000000000017619
 51
17.156651999993361
  0
LINE
  8
DETAIL
  6
CONTINUOUS
 62
     5
 10
-53.240878000000073
 20
-193.23363000000009
 30
0.0
 11
-65.623330000000124
 21
-153.1249950000001
 31
0.0
  0
LINE
  8
DETAIL
  6
CONTINUOUS
 62
     5
 10
-52.798557999999957
 20
-195.26024300000009
 30
0.0
 11
52.766907000000167
 21
-195.26024300000009
 31
0.0
  0
ARC
  8
DETAIL
  6
CONTINUOUS
 62
     5
 10
67.51931999999988
 20
-197.6417120000001
 30
0.0
 40
14.943396
 50
162.84334800000661
 51
178.99999999999829
  0
LINE
  8
DETAIL
  6
CONTINUOUS
 62
     5
 10
53.240878000000073
 20
-193.23363000000009
 30
0.0
 11
65.623329999999896
 21
-153.1249950000001
 31
0.0
  0
LINE
  8
DETAIL
  6
CONTINUOUS
 62
     5
 10
52.307706000000053
 20
-212.87751900000009
 30
0.0
 11
52.578199999999917
 21
-197.38091300000011
 31
0.0
  0
LINE
  8
DETAIL
  6
CONTINUOUS
 62
     5
 10
195.0
 20
-195.0
 30
0.0
 11
52.811279999999897
 21
-195.0
 31
0.0
  0
ARC
  8
DETAIL
  6
CONTINUOUS
 62
     5
 10
-122.58566
 20
-151.42641500000011
 30
0.0
 40
0.9962259999999999
 50
180.0
 51
270.0
  0
LINE
  8
DETAIL
  6
CONTINUOUS
 62
     5
 10
-123.5818869999998
 20
-151.42641500000011
 30
0.0
 11
-123.5818869999998
 21
-144.45283000000009
 31
0.0
  0
LINE
  8
DETAIL
  6
CONTINUOUS
 62
     5
 10
-123.5818869999998
 20
-144.45283000000009
 30
0.0
 11
-126.6203770000002
 21
-147.441509
 31
0.0
  0
ARC
  8
DETAIL
  6
CONTINUOUS
 62
     5
 10
-98.033370000000104
 20
-142.46037700000011
 30
0.0
 40
1.992453
 50
270.0
 51
340.16490199999163
  0
LINE
  8
DETAIL
  6
CONTINUOUS
 62
     5
 10
-123.5818869999998
 20
-144.45283000000009
 30
0.0
 11
-98.033370000000104
 21
-144.45283000000009
 31
0.0
  0
ARC
  8
DETAIL
  6
CONTINUOUS
 62
     5
 10
-85.172668000000158
 20
-118.5509430000001
 30
0.0
 40
1.992453
 50
90.0
 51
160.16490199999171
  0
LINE
  8
DETAIL
  6
CONTINUOUS
 62
     5
 10
-87.046913999999788
 20
-117.8748750000001
 30
0.0
 11
-96.159122999999909
 21
-143.13644500000009
 31
0.0
  0
LINE
  8
DETAIL
  6
CONTINUOUS
 62
     5
 10
85.172667999999931
 20
-116.55849000000011
 30
0.0
 11
-85.172668000000158
 21
-116.55849000000011
 31
0.0
  0
LINE
  8
DETAIL
  6
CONTINUOUS
 62
     5
 10
122.58566
 20
-152.42264100000011
 30
0.0
 11
-122.58566
 21
-152.42264100000011
 31
0.0
  0
ARC
  8
DETAIL
  6
CONTINUOUS
 62
     5
 10
140.0
 20
140.0
 30
0.0
 40
15.0
 50
0.0
 51
90.0
  0
LINE
  8
DETAIL
  6
CONTINUOUS
 62
     5
 10
140.0
 20
155.0
 30
0.0
 11
-140.0000000000002
 21
155.0
 31
0.0
  0
ARC
  8
DETAIL
  6
CONTINUOUS
 62
     5
 10
-140.0000000000002
 20
140.0
 30
0.0
 40
15.0
 50
90.0
 51
180.0
  0
CIRCLE
  8
DETAIL
  6
CONTINUOUS
 62
     5
 10
165.0
 20
99.999974000000066
 30
0.0
 40
2.5
  0
CIRCLE
  8
DETAIL
  6
CONTINUOUS
 62
     5
 10
100.0
 20
164.99999800000001
 30
0.0
 40
2.5
  0
ARC
  8
DETAIL
  6
CONTINUOUS
 62
     5
 10
165.99992599999999
 20
165.9999759999998
 30
0.0
 40
15.0
 50
0.0
 51
90.0
  0
LINE
  8
NOTE
  6
CENTER
 62
     4
 10
165.0
 20
107.49997400000009
 30
0.0
 11
165.0
 21
92.499974000000066
 31
0.0
  0
LINE
  8
NOTE
  6
CENTER
 62
     4
 10
172.5
 20
99.999974000000066
 30
0.0
 11
157.5
 21
99.999974000000066
 31
0.0
  0
LINE
  8
NOTE
  6
CENTER
 62
     4
 10
100.0
 20
172.49999800000001
 30
0.0
 11
100.0
 21
157.49999800000001
 31
0.0
  0
LINE
  8
NOTE
  6
CENTER
 62
     4
 10
107.5
 20
164.99999800000001
 30
0.0
 11
92.5
 21
164.99999800000001
 31
0.0
  0
LINE
  8
DETAIL
  6
CONTINUOUS
 62
     5
 10
165.99992599999999
 20
180.9999759999998
 30
0.0
 11
0.0
 21
180.9999759999998
 31
0.0
  0
LINE
  8
DETAIL
  6
CONTINUOUS
 62
     5
 10
180.99992599999999
 20
0.0
 30
0.0
 11
180.99992599999999
 21
165.9999759999998
 31
0.0
  0
CIRCLE
  8
DETAIL
  6
CONTINUOUS
 62
     5
 10
-100.0000000000002
 20
164.99999800000001
 30
0.0
 40
2.5
  0
LINE
  8
NOTE
  6
CENTER
 62
     4
 10
-100.0000000000002
 20
172.49999800000001
 30
0.0
 11
-100.0000000000002
 21
157.49999800000001
 31
0.0
  0
LINE
  8
NOTE
  6
CENTER
 62
     4
 10
-107.5000000000002
 20
164.99999800000001
 30
0.0
 11
-92.500000000000227
 21
164.99999800000001
 31
0.0
  0
CIRCLE
  8
DETAIL
  6
CONTINUOUS
 62
     5
 10
-165.0000000000002
 20
99.999974000000066
 30
0.0
 40
2.5
  0
ARC
  8
DETAIL
  6
CONTINUOUS
 62
     5
 10
-165.99992599999999
 20
165.9999759999998
 30
0.0
 40
15.0
 50
90.0
 51
180.0
  0
LINE
  8
NOTE
  6
CENTER
 62
     4
 10
-165.0000000000002
 20
107.49997400000009
 30
0.0
 11
-165.0000000000002
 21
92.499974000000066
 31
0.0
  0
LINE
  8
NOTE
  6
CENTER
 62
     4
 10
-172.5000000000002
 20
99.999974000000066
 30
0.0
 11
-157.5000000000002
 21
99.999974000000066
 31
0.0
  0
LINE
  8
DETAIL
  6
CONTINUOUS
 62
     5
 10
-165.99992599999999
 20
180.9999759999998
 30
0.0
 11
0.0
 21
180.9999759999998
 31
0.0
  0
LINE
  8
DETAIL
  6
CONTINUOUS
 62
     5
 10
-180.99992599999999
 20
0.0
 30
0.0
 11
-180.99992599999999
 21
165.9999759999998
 31
0.0
  0
CIRCLE
  8
DETAIL
  6
CONTINUOUS
 62
     5
 10
-100.0000000000002
 20
-164.99999700000009
 30
0.0
 40
2.5
  0
LINE
  8
NOTE
  6
CENTER
 62
     4
 10
-100.0000000000002
 20
-172.49999700000009
 30
0.0
 11
-100.0000000000002
 21
-157.49999700000009
 31
0.0
  0
LINE
  8
NOTE
  6
CENTER
 62
     4
 10
-107.5000000000002
 20
-164.99999700000009
 30
0.0
 11
-92.500000000000227
 21
-164.99999700000009
 31
0.0
  0
CIRCLE
  8
DETAIL
  6
CONTINUOUS
 62
     5
 10
-165.0000000000002
 20
-99.999973000000068
 30
0.0
 40
2.5
  0
ARC
  8
DETAIL
  6
CONTINUOUS
 62
     5
 10
-165.99992599999999
 20
-165.99997500000009
 30
0.0
 40
15.0
 50
180.0
 51
270.0
  0
LINE
  8
NOTE
  6
CENTER
 62
     4
 10
-165.0000000000002
 20
-107.4999730000001
 30
0.0
 11
-165.0000000000002
 21
-92.499973000000068
 31
0.0
  0
LINE
  8
NOTE
  6
CENTER
 62
     4
 10
-172.5000000000002
 20
-99.999973000000068
 30
0.0
 11
-157.5000000000002
 21
-99.999973000000068
 31
0.0
  0
LINE
  8
DETAIL
  6
CONTINUOUS
 62
     5
 10
-180.99992599999999
 20
0.0
 30
0.0
 11
-180.99992599999999
 21
-165.99997500000009
 31
0.0
  0
CIRCLE
  8
DETAIL
  6
CONTINUOUS
 62
     5
 10
100.0
 20
-164.99999700000009
 30
0.0
 40
2.5
  0
LINE
  8
NOTE
  6
CENTER
 62
     4
 10
100.0
 20
-172.49999700000009
 30
0.0
 11
100.0
 21
-157.49999700000009
 31
0.0
  0
LINE
  8
NOTE
  6
CENTER
 62
     4
 10
107.5
 20
-164.99999700000009
 30
0.0
 11
92.5
 21
-164.99999700000009
 31
0.0
  0
CIRCLE
  8
DETAIL
  6
CONTINUOUS
 62
     5
 10
165.0
 20
-99.999973000000068
 30
0.0
 40
2.5
  0
ARC
  8
DETAIL
  6
CONTINUOUS
 62
     5
 10
165.99992599999999
 20
-165.99997500000009
 30
0.0
 40
15.0
 50
270.0
 51
0.0
  0
LINE
  8
NOTE
  6
CENTER
 62
     4
 10
165.0
 20
-107.4999730000001
 30
0.0
 11
165.0
 21
-92.499973000000068
 31
0.0
  0
LINE
  8
NOTE
  6
CENTER
 62
     4
 10
172.5
 20
-99.999973000000068
 30
0.0
 11
157.5
 21
-99.999973000000068
 31
0.0
  0
LINE
  8
DETAIL
  6
CONTINUOUS
 62
     5
 10
180.99992599999999
 20
0.0
 30
0.0
 11
180.99992599999999
 21
-165.99997500000009
 31
0.0
  0
LINE
  8
DETAIL
  6
CONTINUOUS
 62
     5
 10
165.99992599999999
 20
-180.99997500000009
 30
0.0
 11
57.017687000000024
 21
-180.99997500000009
 31
0.0
  0
LINE
  8
DETAIL
  6
CONTINUOUS
 62
     5
 10
-165.99992599999999
 20
-180.99997500000009
 30
0.0
 11
-57.017687000000024
 21
-180.99997500000009
 31
0.0
  0
CIRCLE
  8
DETAIL
  6
CONTINUOUS
 62
     5
 10
115.0
 20
-85.0
 30
0.0
 40
14.25
  0
LINE
  8
NOTE
  6
CENTER
 62
     4
 10
115.0
 20
-65.75
 30
0.0
 11
115.0
 21
-104.25
 31
0.0
  0
LINE
  8
NOTE
  6
CENTER
 62
     4
 10
134.25
 20
-85.0
 30
0.0
 11
95.75
 21
-85.0
 31
0.0
  0
CIRCLE
  8
DETAIL
  6
CONTINUOUS
 62
     5
 10
22.91320700000006
 20
12.950943999999939
 30
0.0
 40
40.845283000000002
  0
LINE
  8
DETAIL
  6
CONTINUOUS
 62
     5
 10
-155.0000000000002
 20
-147.441509
 30
0.0
 11
-155.0000000000002
 21
140.0
 31
0.0
  0
LINE
  8
DETAIL
  6
CONTINUOUS
 62
     5
 10
-126.6203770000002
 20
-147.441509
 30
0.0
 11
-155.0000000000002
 21
-147.441509
 31
0.0
  0
LINE
  8
DETAIL
  6
CONTINUOUS
 62
     5
 10
-126.6203770000002
 20
-155.0
 30
0.0
 11
-126.6203770000002
 21
-147.441509
 31
0.0
  0
LINE
  8
DETAIL
  6
CONTINUOUS
 62
     5
 10
-65.044474000000037
 20
-155.0
 30
0.0
 11
-126.6203770000002
 21
-155.0
 31
0.0
  0
LINE
  8
DETAIL
  6
CONTINUOUS
 62
     5
 10
126.620377
 20
-155.0
 30
0.0
 11
126.620377
 21
-147.441509
 31
0.0
  0
LINE
  8
DETAIL
  6
CONTINUOUS
 62
     5
 10
126.620377
 20
-155.0
 30
0.0
 11
65.044473000000153
 21
-155.0
 31
0.0
  0
LINE
  8
DETAIL
  6
CONTINUOUS
 62
     5
 10
126.620377
 20
-147.441509
 30
0.0
 11
155.0
 21
-147.441509
 31
0.0
  0
LINE
  8
DETAIL
  6
CONTINUOUS
 62
     5
 10
155.0
 20
-147.441509
 30
0.0
 11
155.0
 21
140.0
 31
0.0
  0
CIRCLE
  8
FIX
  6
CONTINUOUS
 62
    11
 10
-100.0000000000002
 20
-164.99999700000009
 30
0.0
 40
10.0
  0
CIRCLE
  8
FIX
  6
CONTINUOUS
 62
    11
 10
100.0000000000002
 20
164.99999800000001
 30
0.0
 40
10.0
  0
CIRCLE
  8
FIX
  6
CONTINUOUS
 62
    11
 10
165.0000000000002
 20
99.999974000000066
 30
0.0
 40
10.0
  0
CIRCLE
  8
FIX
  6
CONTINUOUS
 62
    11
 10
165.0000000000002
 20
-99.999973000000068
 30
0.0
 40
10.0
  0
CIRCLE
  8
FIX
  6
CONTINUOUS
 62
    11
 10
100.0000000000002
 20
-164.99999700000009
 30
0.0
 40
10.0
  0
TEXT
  8
ETC
  6
CONTINUOUS
 62
    61
 10
709.05840749928529
 20
717.04988526908528
 30
0.0
 40
64.0
  1
VD-18ZSVC6_1
 41
0.9
  0
TEXT
  8
ETC
  6
CONTINUOUS
 62
    61
 10
704.8724134992849
 20
599.0945752542541
 30
0.0
 40
64.0
  1
換気扇
 41
0.9
  0
TEXT
  8
ETC
  6
CONTINUOUS
 62
    61
 10
755.57381174784086
 20
490.94580236802881
 30
0.0
 40
40.0
  1
VD-18ZSVC6
 41
0.9
  0
TEXT
  8
ETC
  6
CONTINUOUS
 62
    61
 10
755.57381174784086
 20
424.94580236802881
 30
0.0
 40
40.0
  1
VD-18ZLSC13-S
 41
0.9
  0
TEXT
  8
NOTE
  6
CONTINUOUS
 62
     4
 10
428.70928374857522
 20
398.12119584812763
 30
0.0
 40
63.999999999999993
  1
8-φ5
 41
0.9
  0
LINE
  8
NOTE
  6
CONTINUOUS
 62
     4
 10
681.86576284140119
 20
364.81163520242478
 30
0.0
 11
400.28357073026609
 21
364.81166468140327
 31
0.0
  0
ENDSEC
  0
EOF
