  0
SECTION
  2
HEADER
  9
$ACADVER
  1
AC1009
  9
$DWGCODEPAGE
  3
dos932
  9
$INSBASE
 10
0.0
 20
0.0
 30
0.0
  9
$EXTMIN
 10
-682.0449664164862
 20
-434.82970019666209
 30
-0.0015258207003583
  9
$EXTMAX
 10
1206.381237362953
 20
748.21472988488858
 30
0.0000000349246037
  9
$LIMMIN
 10
-2970.0
 20
-2100.0
  9
$LIMMAX
 10
2970.0
 20
2100.0
  9
$ORTHOMODE
 70
     1
  9
$REGENMODE
 70
     1
  9
$FILLMODE
 70
     1
  9
$QTEXTMODE
 70
     0
  9
$MIRRTEXT
 70
     0
  9
$LTSCALE
 40
20.0
  9
$ATTMODE
 70
     1
  9
$TEXTSIZE
 40
64.0
  9
$TRACEWID
 40
0.05
  9
$TEXTSTYLE
  7
STANDARD
  9
$CLAYER
  8
SIZE
  9
$CELTYPE
  6
CONTINUOUS
  9
$CECOLOR
 62
     7
  9
$DIMSCALE
 40
1.0
  9
$DIMASZ
 40
12.0
  9
$DIMEXO
 40
20.0
  9
$DIMDLI
 40
200.0
  9
$DIMRND
 40
0.0
  9
$DIMDLE
 40
0.0
  9
$DIMEXE
 40
20.0
  9
$DIMTP
 40
0.0
  9
$DIMTM
 40
0.0
  9
$DIMTXT
 40
64.0
  9
$DIMCEN
 40
0.09
  9
$DIMTSZ
 40
0.0
  9
$DIMTOL
 70
     0
  9
$DIMLIM
 70
     0
  9
$DIMTIH
 70
     0
  9
$DIMTOH
 70
     0
  9
$DIMSE1
 70
     0
  9
$DIMSE2
 70
     0
  9
$DIMTAD
 70
     1
  9
$DIMZIN
 70
     8
  9
$DIMBLK
  1

  9
$DIMASO
 70
     1
  9
$DIMSHO
 70
     0
  9
$DIMPOST
  1

  9
$DIMAPOST
  1

  9
$DIMALT
 70
     0
  9
$DIMALTD
 70
     2
  9
$DIMALTF
 40
25.399999999999999
  9
$DIMLFAC
 40
1.0
  9
$DIMTOFL
 70
     1
  9
$DIMTVP
 40
0.0
  9
$DIMTIX
 70
     1
  9
$DIMSOXD
 70
     0
  9
$DIMSAH
 70
     0
  9
$DIMBLK1
  1

  9
$DIMBLK2
  1

  9
$DIMSTYLE
  2
STANDARD
  9
$DIMCLRD
 70
     7
  9
$DIMCLRE
 70
     7
  9
$DIMCLRT
 70
     7
  9
$DIMTFAC
 40
1.0
  9
$DIMGAP
 40
25.0
  9
$LUNITS
 70
     2
  9
$LUPREC
 70
     4
  9
$SKETCHINC
 40
0.1
  9
$FILLETRAD
 40
3.0
  9
$AUNITS
 70
     1
  9
$AUPREC
 70
     3
  9
$MENU
  1
ACAD
  9
$ELEVATION
 40
0.0
  9
$PELEVATION
 40
0.0
  9
$THICKNESS
 40
0.0
  9
$LIMCHECK
 70
     0
  9
$CHAMFERA
 40
0.0
  9
$CHAMFERB
 40
0.0
  9
$SKPOLY
 70
     0
  9
$TDCREATE
 40
2453019.62301037
  9
$TDUPDATE
 40
2459025.5098289
  9
$TDINDWG
 40
1.714113206
  9
$TDUSRTIMER
 40
1.714113206
  9
$USRTIMER
 70
     1
  9
$ANGBASE
 50
0.0
  9
$ANGDIR
 70
     0
  9
$PDMODE
 70
     3
  9
$PDSIZE
 40
-2.0
  9
$PLINEWID
 40
0.0
  9
$SPLFRAME
 70
     0
  9
$SPLINETYPE
 70
     6
  9
$SPLINESEGS
 70
     8
  9
$SURFTAB1
 70
     6
  9
$SURFTAB2
 70
     6
  9
$SURFTYPE
 70
     6
  9
$SURFU
 70
     6
  9
$SURFV
 70
     6
  9
$UCSNAME
  2

  9
$UCSORG
 10
0.0
 20
0.0
 30
0.0
  9
$UCSXDIR
 10
1.0
 20
0.0
 30
0.0
  9
$UCSYDIR
 10
0.0
 20
1.0
 30
0.0
  9
$PUCSNAME
  2

  9
$PUCSORG
 10
0.0
 20
0.0
 30
0.0
  9
$PUCSXDIR
 10
1.0
 20
0.0
 30
0.0
  9
$PUCSYDIR
 10
0.0
 20
1.0
 30
0.0
  9
$USERI1
 70
     0
  9
$USERI2
 70
     0
  9
$USERI3
 70
     0
  9
$USERI4
 70
     0
  9
$USERI5
 70
     0
  9
$USERR1
 40
20.0
  9
$USERR2
 40
0.0
  9
$USERR3
 40
0.0
  9
$USERR4
 40
0.0
  9
$USERR5
 40
0.0
  9
$WORLDVIEW
 70
     1
  9
$SHADEDGE
 70
     3
  9
$SHADEDIF
 70
    70
  9
$TILEMODE
 70
     1
  9
$MAXACTVP
 70
    48
  9
$PINSBASE
 10
0.0
 20
0.0
 30
0.0
  9
$PLIMCHECK
 70
     0
  9
$PEXTMIN
 10
-100000000000000000000.0
 20
-100000000000000000000.0
 30
-100000000000000000000.0
  9
$PEXTMAX
 10
100000000000000000000.0
 20
100000000000000000000.0
 30
100000000000000000000.0
  9
$PLIMMIN
 10
0.0
 20
0.0
  9
$PLIMMAX
 10
12.0
 20
9.0
  9
$UNITMODE
 70
     0
  9
$VISRETAIN
 70
     0
  9
$PLINEGEN
 70
     0
  9
$PSLTSCALE
 70
     0
  9
$TREEDEPTH
 70
  3020
  9
$ATTDIA
 70
     0
  9
$ATTREQ
 70
     1
  9
$BLIPMODE
 70
     1
  9
$COORDS
 70
     1
  9
$DRAGMODE
 70
     2
  9
$OSMODE
 70
     0
  9
$HANDLING
 70
     0
  9
$HANDSEED
  5
FA66
  0
ENDSEC
  0
SECTION
  2
TABLES
  0
TABLE
  2
LTYPE
 70
     3
  0
LTYPE
  2
CONTINUOUS
 70
     0
  3
実線
 72
    65
 73
     0
 40
0.0
  0
LTYPE
  2
DASHDOT
 70
     0
  3
____ _ ____ _ ____ _ ____ _ ____ _ ____ _ ____
 72
    65
 73
     4
 40
5.5
 49
4.0
 49
-0.6
 49
0.3
 49
-0.6
  0
LTYPE
  2
CENTER
 70
     0
  3
Center ____ _ ____ _ ____ _ ____ _ ____ _ ____
 72
    65
 73
     4
 40
1.0
 49
0.5
 49
-0.25
 49
0.0
 49
-0.25
  0
ENDTAB
  0
TABLE
  2
LAYER
 70
    12
  0
LAYER
  2
0
 70
     0
 62
     7
  6
CONTINUOUS
  0
LAYER
  2
BASIS
 70
     0
 62
     6
  6
DASHDOT
  0
LAYER
  2
OUTLINE
 70
     0
 62
     3
  6
CONTINUOUS
  0
LAYER
  2
DETAIL
 70
     0
 62
     5
  6
CONTINUOUS
  0
LAYER
  2
SIZE
 70
     0
 62
    30
  6
CONTINUOUS
  0
LAYER
  2
ARRANGE
 70
     0
 62
     1
  6
CONTINUOUS
  0
LAYER
  2
DEFPOINTS
 70
     0
 62
     7
  6
CONTINUOUS
  0
LAYER
  2
ETC
 70
     0
 62
    61
  6
CONTINUOUS
  0
LAYER
  2
FIX
 70
     0
 62
    11
  6
CONTINUOUS
  0
LAYER
  2
NOTE
 70
     0
 62
     4
  6
CONTINUOUS
  0
LAYER
  2
SERVICESPACE
 70
    64
 62
     2
  6
DASHDOT
  0
LAYER
  2
SYMBOLLINE
 70
    64
 62
    15
  6
CONTINUOUS
  0
ENDTAB
  0
TABLE
  2
STYLE
 70
     1
  0
STYLE
  2
STANDARD
 70
     0
 40
64.0
 41
0.9
 50
0.0
 71
     0
 42
64.0
  3
SIMPLEX.shx
  4
BIGFONT.shx
  0
ENDTAB
  0
TABLE
  2
APPID
 70
    19
  0
APPID
  2
ACAD
 70
     0
  0
APPID
  2
AUTOCAD_POSTSCRIPT_FIGURE
 70
     0
  0
APPID
  2
ACAD_EXEMPT_FROM_CAD_STANDARDS
 70
     0
  0
APPID
  2
ACAD_PSEXT
 70
     0
  0
APPID
  2
ACAUTHENVIRON
 70
     0
  0
APPID
  2
GENIUS_GENOENT_13
 70
     0
  0
APPID
  2
GENIUS_GENCFG_13
 70
     0
  0
APPID
  2
GENIUS_GENCFG0_13
 70
     0
  0
APPID
  2
GENIUS_GENCFG1_13
 70
     0
  0
APPID
  2
GENIUS_GENCFG2_13
 70
     0
  0
APPID
  2
GENIUS_GENCFG3_13
 70
     0
  0
APPID
  2
GENIUS_GENCFG4_13
 70
     0
  0
APPID
  2
GENIUS_GEVCFG0_13
 70
     0
  0
APPID
  2
CONTENTBLOCKICON
 70
     0
  0
APPID
  2
CONTENTBLOCKDESCRIPTION
 70
     0
  0
APPID
  2
ACAD_NAV_VCDISPLAY
 70
     0
  0
APPID
  2
ACAD_MLEADERVER
 70
     0
  0
APPID
  2
ACDBDYNAMICBLOCKTRUENAME
 70
     0
  0
APPID
  2
ACDBDYNAMICBLOCKGUID
 70
     0
  0
ENDTAB
  0
TABLE
  2
DIMSTYLE
 70
     1
  0
DIMSTYLE
  2
STANDARD
 70
     0
  3

  4

  5
_ORIGIN
  6

  7

 40
1.0
 41
12.0
 42
20.0
 43
200.0
 44
20.0
 45
0.0
 46
0.0
 47
0.0
 48
0.0
140
64.0
141
0.09
142
0.0
143
25.399999999999999
144
1.0
145
0.0
146
1.0
147
25.0
 71
     0
 72
     0
 73
     0
 74
     0
 75
     0
 76
     0
 77
     1
 78
     8
170
     0
171
     2
172
     1
173
     0
174
     1
175
     0
176
     7
177
     7
178
     7
  0
ENDTAB
  0
TABLE
  2
VIEW
 70
     1
  0
VIEW
  2
ALL
 70
     0
 40
4282.6198079999986
 10
0.0
 20
41.309904000000003
 41
5940.0
 11
0.0
 21
0.0
 31
1.0
 12
0.0
 22
0.0
 32
0.0
 42
50.0
 43
0.0
 44
0.0
 50
0.0
 71
     0
  0
ENDTAB
  0
TABLE
  2
UCS
 70
     0
  0
ENDTAB
  0
TABLE
  2
VPORT
 70
     1
  0
VPORT
  2
*ACTIVE
 70
     0
 10
0.0
 20
0.0
 11
1.0
 21
1.0
 12
262.16813547323358
 22
156.6925148441133
 13
0.0
 23
0.0
 14
1.0
 24
1.0
 15
0.0
 25
0.0
 16
0.0
 26
0.0
 36
1.0
 17
0.0
 27
0.0
 37
0.0
 40
1190.887818568279
 41
1.747787610619469
 42
50.0
 43
0.0
 44
0.0
 50
0.0
 51
0.0
 71
     0
 72
  1000
 73
     1
 74
     3
 75
     0
 76
     0
 77
     0
 78
     0
  0
ENDTAB
  0
ENDSEC
  0
SECTION
  2
BLOCKS
  0
BLOCK
  8
0
  2
_ORIGIN
 70
     0
 10
0.0
 20
0.0
 30
0.0
  3
_ORIGIN
  1
_ORIGIN
  0
CIRCLE
  8
0
  6
CONTINUOUS
 62
     7
 10
0.0
 20
0.0
 30
0.0
 40
0.5
  0
LINE
  8
0
  6
CONTINUOUS
 62
     7
 10
0.0
 20
0.0
 30
0.0
 11
-1.0
 21
0.0
 31
0.0
  0
ENDBLK
  8
0
  0
ENDSEC
  0
SECTION
  2
ENTITIES
  0
LINE
  8
NOTE
  6
CONTINUOUS
 62
     4
 10
-164.9999999999998
 20
-0.0000000000001137
 30
0.0
 11
-400.2835679845864
 21
264.81163647897858
 31
0.0
  0
LINE
  8
NOTE
  6
CONTINUOUS
 62
     4
 10
-164.9999999999998
 20
-0.0000000000001137
 30
0.0
 11
-196.31274534757881
 21
22.68342241888331
 31
0.0
  0
LINE
  8
NOTE
  6
CONTINUOUS
 62
     4
 10
-183.99527469402321
 20
35.199296333761033
 30
0.0
 11
-164.9999999999998
 21
-0.0000000000001137
 31
0.0
  0
TEXT
  8
NOTE
  6
CONTINUOUS
 62
     4
 10
310.84241163965947
 20
80.079713965875612
 30
0.0
 40
64.0
  1
EA
 41
0.9
 72
     2
 11
406.84241163965947
 21
80.079713965875612
 31
0.0
  0
TEXT
  8
NOTE
  6
CONTINUOUS
 62
     4
 10
-342.59849263610892
 20
401.6531604653984
 30
0.0
 40
64.0
  1
EL
 41
0.9
  0
LINE
  8
NOTE
  6
CONTINUOUS
 62
     4
 10
-380.71297896856407
 20
384.59841560060158
 30
0.0
 11
-91.733056303986359
 21
384.5984156005286
 31
0.0
  0
LINE
  8
NOTE
  6
CONTINUOUS
 62
     4
 10
85.0
 20
168.0
 30
0.0
 11
-91.733056303986359
 21
384.5984156005286
 31
0.0
  0
LINE
  8
NOTE
  6
CONTINUOUS
 62
     4
 10
85.0
 20
168.0
 30
0.0
 11
52.440288265110667
 21
188.92557120522591
 31
0.0
  0
LINE
  8
NOTE
  6
CONTINUOUS
 62
     4
 10
70.486536276681818
 20
205.20055449624689
 30
0.0
 11
85.0
 21
168.0
 31
0.0
  0
CIRCLE
  8
FIX
  6
CONTINUOUS
 62
    11
 10
-165.0
 20
0.0000000000001137
 30
0.0
 40
10.0
  0
LINE
  8
BASIS
  6
DASHDOT
 62
     6
 10
0.0
 20
-33.989709999999953
 30
0.0
 11
0.0
 21
266.822855
 31
0.0
  0
CIRCLE
  8
FIX
  6
CONTINUOUS
 62
    11
 10
-100.0
 20
0.0
 30
0.0
 40
10.0
  0
CIRCLE
  8
FIX
  6
CONTINUOUS
 62
    11
 10
100.0
 20
0.0
 30
0.0
 40
10.0
  0
CIRCLE
  8
FIX
  6
CONTINUOUS
 62
    11
 10
165.0
 20
0.0000000000001137
 30
0.0
 40
10.0
  0
CIRCLE
  8
ARRANGE
  6
CONTINUOUS
 62
     1
 10
0.0
 20
0.0
 30
0.0
 40
40.0
  0
POINT
  8
ARRANGE
  6
CONTINUOUS
 62
     1
 10
0.0
 20
0.0
 30
0.0
 50
90.000000000000014
  0
LINE
  8
SIZE
  6
CONTINUOUS
 62
    30
 10
100.0
 20
-27.26081099999999
 30
0.0
 11
100.0
 21
-184.1636074172884
 31
0.0
  0
LINE
  8
SIZE
  6
CONTINUOUS
 62
    30
 10
-100.0
 20
-27.26081099999999
 30
0.0
 11
-100.0
 21
-184.1636074172884
 31
0.0
  0
LINE
  8
SIZE
  6
CONTINUOUS
 62
    30
 10
88.0
 20
-164.1636074172884
 30
0.0
 11
-88.0
 21
-164.1636074172884
 31
0.0
  0
CIRCLE
  8
SIZE
  6
CONTINUOUS
 62
    30
 10
100.0
 20
-164.1636074172884
 30
0.0
 40
6.0
  0
LINE
  8
SIZE
  6
CONTINUOUS
 62
    30
 10
100.0
 20
-164.1636074172884
 30
0.0
 11
88.0
 21
-164.1636074172884
 31
0.0
  0
CIRCLE
  8
SIZE
  6
CONTINUOUS
 62
    30
 10
-100.0
 20
-164.1636074172884
 30
0.0
 40
6.0
  0
LINE
  8
SIZE
  6
CONTINUOUS
 62
    30
 10
-100.0
 20
-164.1636074172884
 30
0.0
 11
-88.0
 21
-164.1636074172884
 31
0.0
  0
TEXT
  8
SIZE
  6
CONTINUOUS
 62
    30
 10
-74.05714285714285
 20
-139.1636074172884
 30
0.0
 40
64.0
  1
200
 41
0.9
 72
     1
 11
0.0
 21
-139.1636074172884
 31
0.0
  0
POINT
  8
DEFPOINTS
  6
CONTINUOUS
 62
    30
 10
100.0
 20
-7.2608109999999897
 30
0.0
  0
POINT
  8
DEFPOINTS
  6
CONTINUOUS
 62
    30
 10
-100.0
 20
-7.2608109999999897
 30
0.0
  0
POINT
  8
DEFPOINTS
  6
CONTINUOUS
 62
    30
 10
-100.0
 20
-164.1636074172884
 30
0.0
  0
LINE
  8
SIZE
  6
CONTINUOUS
 62
    30
 10
165.0
 20
-27.160034
 30
0.0
 11
165.0
 21
-302.20459319010092
 31
0.0
  0
LINE
  8
SIZE
  6
CONTINUOUS
 62
    30
 10
-165.0
 20
-27.26081099999999
 30
0.0
 11
-165.0
 21
-302.20459319010092
 31
0.0
  0
LINE
  8
SIZE
  6
CONTINUOUS
 62
    30
 10
153.0
 20
-282.20459319010092
 30
0.0
 11
-153.0
 21
-282.20459319010092
 31
0.0
  0
CIRCLE
  8
SIZE
  6
CONTINUOUS
 62
    30
 10
165.0
 20
-282.20459319010092
 30
0.0
 40
6.0
  0
LINE
  8
SIZE
  6
CONTINUOUS
 62
    30
 10
165.0
 20
-282.20459319010092
 30
0.0
 11
153.0
 21
-282.20459319010092
 31
0.0
  0
CIRCLE
  8
SIZE
  6
CONTINUOUS
 62
    30
 10
-165.0
 20
-282.20459319010092
 30
0.0
 40
6.0
  0
LINE
  8
SIZE
  6
CONTINUOUS
 62
    30
 10
-165.0
 20
-282.20459319010092
 30
0.0
 11
-153.0
 21
-282.20459319010092
 31
0.0
  0
TEXT
  8
SIZE
  6
CONTINUOUS
 62
    30
 10
-74.057142857142864
 20
-257.20459319010109
 30
0.0
 40
64.0
  1
330
 41
0.9
 72
     1
 11
0.0
 21
-257.20459319010109
 31
0.0
  0
POINT
  8
DEFPOINTS
  6
CONTINUOUS
 62
    30
 10
165.0
 20
-7.160033999999996
 30
0.0
  0
POINT
  8
DEFPOINTS
  6
CONTINUOUS
 62
    30
 10
-165.0
 20
-7.2608109999999897
 30
0.0
  0
POINT
  8
DEFPOINTS
  6
CONTINUOUS
 62
    30
 10
-165.0
 20
-282.20459319010092
 30
0.0
  0
LINE
  8
SIZE
  6
CONTINUOUS
 62
    30
 10
195.0
 20
-20.0
 30
0.0
 11
195.0
 21
-434.68918532599952
 31
0.0
  0
LINE
  8
SIZE
  6
CONTINUOUS
 62
    30
 10
-195.0
 20
-20.0
 30
0.0
 11
-195.0
 21
-434.68918532599952
 31
0.0
  0
LINE
  8
SIZE
  6
CONTINUOUS
 62
    30
 10
183.0
 20
-414.68918532599952
 30
0.0
 11
-183.0
 21
-414.68918532599952
 31
0.0
  0
CIRCLE
  8
SIZE
  6
CONTINUOUS
 62
    30
 10
195.0
 20
-414.68918532599952
 30
0.0
 40
6.0
  0
LINE
  8
SIZE
  6
CONTINUOUS
 62
    30
 10
195.0
 20
-414.68918532599952
 30
0.0
 11
183.0
 21
-414.68918532599952
 31
0.0
  0
CIRCLE
  8
SIZE
  6
CONTINUOUS
 62
    30
 10
-195.0
 20
-414.68918532599952
 30
0.0
 40
6.0
  0
LINE
  8
SIZE
  6
CONTINUOUS
 62
    30
 10
-195.0
 20
-414.68918532599952
 30
0.0
 11
-183.0
 21
-414.68918532599952
 31
0.0
  0
TEXT
  8
SIZE
  6
CONTINUOUS
 62
    30
 10
-110.5371428571428
 20
-389.68918532599952
 30
0.0
 40
64.0
  1
□390
 41
0.9
 72
     1
 11
0.0
 21
-389.68918532599952
 31
0.0
  0
POINT
  8
DEFPOINTS
  6
CONTINUOUS
 62
    30
 10
195.0
 20
0.0
 30
0.0
  0
POINT
  8
DEFPOINTS
  6
CONTINUOUS
 62
    30
 10
-195.0
 20
0.0
 30
0.0
  0
POINT
  8
DEFPOINTS
  6
CONTINUOUS
 62
    30
 10
-195.0
 20
-414.68918532599952
 30
0.0
  0
LINE
  8
SIZE
  6
CONTINUOUS
 62
    30
 10
155.99999324704589
 20
20.00000000000011
 30
0.0
 11
155.99999324704589
 21
678.92085240727465
 31
0.0
  0
LINE
  8
SIZE
  6
CONTINUOUS
 62
    30
 10
-154.67145199999999
 20
20.00000000000011
 30
0.0
 11
-154.67145199999999
 21
678.92085240727465
 31
0.0
  0
LINE
  8
SIZE
  6
CONTINUOUS
 62
    30
 10
143.99999324704589
 20
658.92085240727465
 30
0.0
 11
-142.67145199999999
 21
658.92085240727465
 31
0.0
  0
CIRCLE
  8
SIZE
  6
CONTINUOUS
 62
    30
 10
155.99999324704589
 20
658.92085240727465
 30
0.0
 40
6.0
  0
LINE
  8
SIZE
  6
CONTINUOUS
 62
    30
 10
155.99999324704589
 20
658.92085240727465
 30
0.0
 11
143.99999324704589
 21
658.92085240727465
 31
0.0
  0
CIRCLE
  8
SIZE
  6
CONTINUOUS
 62
    30
 10
-154.67145199999999
 20
658.92085240727465
 30
0.0
 40
6.0
  0
LINE
  8
SIZE
  6
CONTINUOUS
 62
    30
 10
-154.67145199999999
 20
658.92085240727465
 30
0.0
 11
-142.67145199999999
 21
658.92085240727465
 31
0.0
  0
TEXT
  8
SIZE
  6
CONTINUOUS
 62
    30
 10
-104.38715794790561
 20
683.92085240727465
 30
0.0
 40
64.0
  1
□310
 41
0.9
 72
     1
 11
0.6642706235229525
 21
683.92085240727465
 31
0.0
  0
POINT
  8
DEFPOINTS
  6
CONTINUOUS
 62
    30
 10
155.99999324704589
 20
0.0000000000001137
 30
0.0
  0
POINT
  8
DEFPOINTS
  6
CONTINUOUS
 62
    30
 10
-154.67145199999999
 20
0.0000000000001137
 30
0.0
  0
POINT
  8
DEFPOINTS
  6
CONTINUOUS
 62
    30
 10
-154.67145199999999
 20
658.92085240727465
 30
0.0
  0
LINE
  8
SIZE
  6
CONTINUOUS
 62
    30
 10
155.99999324704589
 20
20.00000000000011
 30
0.0
 11
155.99999324704589
 21
678.92085240727465
 31
0.0
  0
LINE
  8
SIZE
  6
CONTINUOUS
 62
    30
 10
265.0
 20
177.403944
 30
0.0
 11
265.0
 21
678.92085240727465
 31
0.0
  0
LINE
  8
SIZE
  6
CONTINUOUS
 62
    30
 10
167.99999324704589
 20
658.92085240727465
 30
0.0
 11
253.00000000000011
 21
658.92085240727465
 31
0.0
  0
LINE
  8
SIZE
  6
CONTINUOUS
 62
    30
 10
265.0
 20
658.92085240727465
 30
0.0
 11
462.28601928571447
 21
658.92085240727465
 31
0.0
  0
CIRCLE
  8
SIZE
  6
CONTINUOUS
 62
    30
 10
155.99999324704589
 20
658.92085240727465
 30
0.0
 40
6.0
  0
LINE
  8
SIZE
  6
CONTINUOUS
 62
    30
 10
155.99999324704589
 20
658.92085240727465
 30
0.0
 11
167.99999324704589
 21
658.92085240727465
 31
0.0
  0
CIRCLE
  8
SIZE
  6
CONTINUOUS
 62
    30
 10
265.0
 20
658.92085240727465
 30
0.0
 40
6.0
  0
LINE
  8
SIZE
  6
CONTINUOUS
 62
    30
 10
265.0
 20
658.92085240727465
 30
0.0
 11
253.00000000000011
 21
658.92085240727465
 31
0.0
  0
TEXT
  8
SIZE
  6
CONTINUOUS
 62
    30
 10
302.88601928571438
 20
683.92085240727465
 30
0.0
 40
64.0
  1
109
 41
0.9
 72
     1
 11
370.08601928571443
 21
683.92085240727465
 31
0.0
  0
POINT
  8
DEFPOINTS
  6
CONTINUOUS
 62
    30
 10
155.99999324704589
 20
0.0000000000001137
 30
0.0
  0
POINT
  8
DEFPOINTS
  6
CONTINUOUS
 62
    30
 10
265.0
 20
157.403944
 30
0.0
  0
POINT
  8
DEFPOINTS
  6
CONTINUOUS
 62
    30
 10
265.0
 20
658.92085240727465
 30
0.0
  0
LINE
  8
SIZE
  6
CONTINUOUS
 62
    30
 10
222.90000000000009
 20
178.29679400000001
 30
0.0
 11
222.90000000000009
 21
304.89993534706628
 31
0.0
  0
LINE
  8
SIZE
  6
CONTINUOUS
 62
    30
 10
265.0
 20
177.403944
 30
0.0
 11
265.0
 21
304.89993534706628
 31
0.0
  0
LINE
  8
SIZE
  6
CONTINUOUS
 62
    30
 10
210.90000000000009
 20
284.89993534706628
 30
0.0
 11
198.90000000000009
 21
284.89993534706628
 31
0.0
  0
LINE
  8
SIZE
  6
CONTINUOUS
 62
    30
 10
277.0
 20
284.89993534706628
 30
0.0
 11
471.01482953586492
 21
284.89993534706628
 31
0.0
  0
LINE
  8
SIZE
  6
CONTINUOUS
 62
    30
 10
222.90000000000009
 20
284.89993534706628
 30
0.0
 11
265.0
 21
284.89993534706628
 31
0.0
  0
CIRCLE
  8
SIZE
  6
CONTINUOUS
 62
    30
 10
222.90000000000009
 20
284.89993534706628
 30
0.0
 40
6.0
  0
LINE
  8
SIZE
  6
CONTINUOUS
 62
    30
 10
222.90000000000009
 20
284.89993534706628
 30
0.0
 11
210.90000000000009
 21
284.89993534706628
 31
0.0
  0
CIRCLE
  8
SIZE
  6
CONTINUOUS
 62
    30
 10
265.0
 20
284.89993534706628
 30
0.0
 40
6.0
  0
LINE
  8
SIZE
  6
CONTINUOUS
 62
    30
 10
265.0
 20
284.89993534706628
 30
0.0
 11
277.0
 21
284.89993534706628
 31
0.0
  0
TEXT
  8
SIZE
  6
CONTINUOUS
 62
    30
 10
352.75768667872211
 20
309.89993534706628
 30
0.0
 40
64.0
  1
42
 41
0.9
 72
     1
 11
399.38625810729349
 21
309.89993534706628
 31
0.0
  0
POINT
  8
DEFPOINTS
  6
CONTINUOUS
 62
    30
 10
222.90000000000009
 20
158.29679400000001
 30
0.0
  0
POINT
  8
DEFPOINTS
  6
CONTINUOUS
 62
    30
 10
265.0
 20
157.403944
 30
0.0
  0
POINT
  8
DEFPOINTS
  6
CONTINUOUS
 62
    30
 10
265.0
 20
284.89993534706628
 30
0.0
  0
LINE
  8
SIZE
  6
CONTINUOUS
 62
    30
 10
265.0
 20
177.403944
 30
0.0
 11
265.0
 21
445.33696620043878
 31
0.0
  0
LINE
  8
SIZE
  6
CONTINUOUS
 62
    30
 10
196.0
 20
181.814483569039
 30
0.0
 11
196.0
 21
445.33696620043878
 31
0.0
  0
LINE
  8
SIZE
  6
CONTINUOUS
 62
    30
 10
184.0
 20
425.33696620043878
 30
0.0
 11
172.0
 21
425.33696620043878
 31
0.0
  0
LINE
  8
SIZE
  6
CONTINUOUS
 62
    30
 10
277.0
 20
425.33696620043878
 30
0.0
 11
446.76471012507523
 21
425.33696620043878
 31
0.0
  0
LINE
  8
SIZE
  6
CONTINUOUS
 62
    30
 10
196.0
 20
425.33696620043878
 30
0.0
 11
265.0
 21
425.33696620043878
 31
0.0
  0
CIRCLE
  8
SIZE
  6
CONTINUOUS
 62
    30
 10
196.0
 20
425.33696620043878
 30
0.0
 40
6.0
  0
LINE
  8
SIZE
  6
CONTINUOUS
 62
    30
 10
196.0
 20
425.33696620043878
 30
0.0
 11
184.0
 21
425.33696620043878
 31
0.0
  0
CIRCLE
  8
SIZE
  6
CONTINUOUS
 62
    30
 10
265.0
 20
425.33696620043878
 30
0.0
 40
6.0
  0
LINE
  8
SIZE
  6
CONTINUOUS
 62
    30
 10
265.0
 20
425.33696620043878
 30
0.0
 11
277.0
 21
425.33696620043878
 31
0.0
  0
TEXT
  8
SIZE
  6
CONTINUOUS
 62
    30
 10
331.25042441078961
 20
450.33696620043878
 30
0.0
 40
64.0
  1
69
 41
0.9
 72
     1
 11
376.50756726793247
 21
450.33696620043878
 31
0.0
  0
POINT
  8
DEFPOINTS
  6
CONTINUOUS
 62
    30
 10
265.0
 20
157.403944
 30
0.0
  0
POINT
  8
DEFPOINTS
  6
CONTINUOUS
 62
    30
 10
196.0
 20
161.814483569039
 30
0.0
  0
POINT
  8
DEFPOINTS
  6
CONTINUOUS
 62
    30
 10
196.0
 20
425.33696620043878
 30
0.0
  0
LINE
  8
SIZE
  6
CONTINUOUS
 62
    30
 10
-68.5
 20
200.00003000000001
 30
0.0
 11
-463.38346657946738
 21
200.00003000000001
 31
0.0
  0
LINE
  8
SIZE
  6
CONTINUOUS
 62
    30
 10
-215.0
 20
0.0000000000001137
 30
0.0
 11
-463.38346657946749
 21
0.0000000000001705
 31
0.0
  0
LINE
  8
SIZE
  6
CONTINUOUS
 62
    30
 10
-443.38346657946738
 20
188.00003000000001
 30
0.0
 11
-443.38346657946749
 21
12.000000000000171
 31
0.0
  0
CIRCLE
  8
SIZE
  6
CONTINUOUS
 62
    30
 10
-443.38346657946738
 20
200.00003000000001
 30
0.0
 40
6.0
  0
LINE
  8
SIZE
  6
CONTINUOUS
 62
    30
 10
-443.38346657946738
 20
200.00003000000001
 30
0.0
 11
-443.38346657946738
 21
188.00003000000001
 31
0.0
  0
CIRCLE
  8
SIZE
  6
CONTINUOUS
 62
    30
 10
-443.38346657946749
 20
0.0000000000001705
 30
0.0
 40
6.0
  0
LINE
  8
SIZE
  6
CONTINUOUS
 62
    30
 10
-443.38346657946749
 20
0.0000000000001705
 30
0.0
 11
-443.38346657946749
 21
12.000000000000171
 31
0.0
  0
TEXT
  8
SIZE
  6
CONTINUOUS
 62
    30
 10
-468.38346657946749
 20
25.942872142857109
 30
0.0
 40
64.0
  1
200
 50
90.0
 41
0.9
 72
     1
 11
-468.38346657946749
 21
100.000015
 31
0.0
  0
POINT
  8
DEFPOINTS
  6
CONTINUOUS
 62
    30
 10
-48.5
 20
200.0000299999999
 30
0.0
  0
POINT
  8
DEFPOINTS
  6
CONTINUOUS
 62
    30
 10
-195.0
 20
0.0000000000001137
 30
0.0
  0
POINT
  8
DEFPOINTS
  6
CONTINUOUS
 62
    30
 10
-443.38346657946749
 20
0.0000000000001705
 30
0.0
  0
LINE
  8
SIZE
  6
CONTINUOUS
 62
    30
 10
-20.059253931363859
 20
-17.499999949839552
 30
0.0
 11
-463.38346657946749
 21
-17.499999949839431
 31
0.0
  0
LINE
  8
SIZE
  6
CONTINUOUS
 62
    30
 10
-215.0
 20
0.0
 30
0.0
 11
-463.38346657946749
 21
0.0000000000000568
 31
0.0
  0
LINE
  8
SIZE
  6
CONTINUOUS
 62
    30
 10
-443.38346657946749
 20
12.00000000000006
 30
0.0
 11
-443.38346657946749
 21
24.00000000000006
 31
0.0
  0
LINE
  8
SIZE
  6
CONTINUOUS
 62
    30
 10
-443.38346657946749
 20
-29.499999949839431
 30
0.0
 11
-443.38346657946761
 21
-173.7857142355538
 31
0.0
  0
LINE
  8
SIZE
  6
CONTINUOUS
 62
    30
 10
-443.38346657946749
 20
0.0000000000000568
 30
0.0
 11
-443.38346657946749
 21
-17.499999949839431
 31
0.0
  0
CIRCLE
  8
SIZE
  6
CONTINUOUS
 62
    30
 10
-443.38346657946749
 20
0.0000000000000568
 30
0.0
 40
6.0
  0
LINE
  8
SIZE
  6
CONTINUOUS
 62
    30
 10
-443.38346657946749
 20
0.0000000000000568
 30
0.0
 11
-443.38346657946749
 21
12.00000000000006
 31
0.0
  0
CIRCLE
  8
SIZE
  6
CONTINUOUS
 62
    30
 10
-443.38346657946749
 20
-17.499999949839431
 30
0.0
 40
6.0
  0
LINE
  8
SIZE
  6
CONTINUOUS
 62
    30
 10
-443.38346657946749
 20
-17.499999949839431
 30
0.0
 11
-443.38346657946749
 21
-29.499999949839431
 31
0.0
  0
TEXT
  8
SIZE
  6
CONTINUOUS
 62
    30
 10
-468.38346657946749
 20
-148.78571423555391
 30
0.0
 40
64.0
  1
18
 50
90.0
 41
0.9
 72
     1
 11
-468.38346657946749
 21
-107.6428570926967
 31
0.0
  0
POINT
  8
DEFPOINTS
  6
CONTINUOUS
 62
    30
 10
-0.0592539313638554
 20
-17.499999949839552
 30
0.0
  0
POINT
  8
DEFPOINTS
  6
CONTINUOUS
 62
    30
 10
-195.0
 20
0.0
 30
0.0
  0
POINT
  8
DEFPOINTS
  6
CONTINUOUS
 62
    30
 10
-443.38346657946749
 20
0.0000000000000568
 30
0.0
  0
LINE
  8
SIZE
  6
CONTINUOUS
 62
    30
 10
175.38640592186971
 20
52.136013934021321
 30
0.0
 11
399.31849891740973
 21
52.136013934021257
 31
0.0
  0
LINE
  8
SIZE
  6
CONTINUOUS
 62
    30
 10
215.0
 20
0.0000000000001137
 30
0.0
 11
399.31849891740973
 21
0.0000000000000568
 31
0.0
  0
LINE
  8
SIZE
  6
CONTINUOUS
 62
    30
 10
379.31849891740973
 20
64.136013934021264
 30
0.0
 11
379.31849891740973
 21
76.136013934021264
 31
0.0
  0
LINE
  8
SIZE
  6
CONTINUOUS
 62
    30
 10
379.31849891740973
 20
-11.99999999999994
 30
0.0
 11
379.31849891740973
 21
-172.62126636198451
 31
0.0
  0
LINE
  8
SIZE
  6
CONTINUOUS
 62
    30
 10
379.31849891740973
 20
52.136013934021257
 30
0.0
 11
379.31849891740973
 21
0.0000000000000568
 31
0.0
  0
CIRCLE
  8
SIZE
  6
CONTINUOUS
 62
    30
 10
379.31849891740973
 20
52.136013934021257
 30
0.0
 40
6.0
  0
LINE
  8
SIZE
  6
CONTINUOUS
 62
    30
 10
379.31849891740973
 20
52.136013934021257
 30
0.0
 11
379.31849891740973
 21
64.136013934021264
 31
0.0
  0
CIRCLE
  8
SIZE
  6
CONTINUOUS
 62
    30
 10
379.31849891740973
 20
0.0000000000000568
 30
0.0
 40
6.0
  0
LINE
  8
SIZE
  6
CONTINUOUS
 62
    30
 10
379.31849891740973
 20
0.0000000000000568
 30
0.0
 11
379.31849891740973
 21
-11.99999999999994
 31
0.0
  0
TEXT
  8
SIZE
  6
CONTINUOUS
 62
    30
 10
354.31849891740973
 20
-147.6212663619846
 30
0.0
 40
64.0
  1
52
 50
90.0
 41
0.9
 72
     1
 11
354.31849891740973
 21
-100.99269493341311
 31
0.0
  0
POINT
  8
DEFPOINTS
  6
CONTINUOUS
 62
    30
 10
155.38640592186971
 20
52.136013934021321
 30
0.0
  0
POINT
  8
DEFPOINTS
  6
CONTINUOUS
 62
    30
 10
195.0
 20
0.0000000000001137
 30
0.0
  0
POINT
  8
DEFPOINTS
  6
CONTINUOUS
 62
    30
 10
379.31849891740973
 20
0.0000000000000568
 30
0.0
  0
LINE
  8
SIZE
  6
CONTINUOUS
 62
    30
 10
301.03252700000007
 20
109.0
 30
0.0
 11
518.65836407469578
 21
108.9999999999999
 31
0.0
  0
LINE
  8
SIZE
  6
CONTINUOUS
 62
    30
 10
215.0
 20
0.0
 30
0.0
 11
518.65836407469578
 21
-0.0000000000001137
 31
0.0
  0
LINE
  8
SIZE
  6
CONTINUOUS
 62
    30
 10
498.65836407469578
 20
97.0
 30
0.0
 11
498.65836407469578
 21
11.99999999999989
 31
0.0
  0
LINE
  8
SIZE
  6
CONTINUOUS
 62
    30
 10
498.65836407469578
 20
-0.0000000000001137
 30
0.0
 11
498.65836407469578
 21
-197.77142857142869
 31
0.0
  0
CIRCLE
  8
SIZE
  6
CONTINUOUS
 62
    30
 10
498.65836407469578
 20
108.9999999999999
 30
0.0
 40
6.0
  0
LINE
  8
SIZE
  6
CONTINUOUS
 62
    30
 10
498.65836407469578
 20
108.9999999999999
 30
0.0
 11
498.65836407469578
 21
96.999999999999886
 31
0.0
  0
CIRCLE
  8
SIZE
  6
CONTINUOUS
 62
    30
 10
498.65836407469578
 20
-0.0000000000001137
 30
0.0
 40
6.0
  0
LINE
  8
SIZE
  6
CONTINUOUS
 62
    30
 10
498.65836407469578
 20
-0.0000000000001137
 30
0.0
 11
498.65836407469578
 21
11.99999999999989
 31
0.0
  0
TEXT
  8
SIZE
  6
CONTINUOUS
 62
    30
 10
473.65836407469578
 20
-172.77142857142849
 30
0.0
 40
64.0
  1
109
 50
90.0
 41
0.9
 72
     1
 11
473.65836407469578
 21
-105.5714285714286
 31
0.0
  0
POINT
  8
DEFPOINTS
  6
CONTINUOUS
 62
    30
 10
281.03252700000007
 20
109.0
 30
0.0
  0
POINT
  8
DEFPOINTS
  6
CONTINUOUS
 62
    30
 10
195.0
 20
0.0
 30
0.0
  0
POINT
  8
DEFPOINTS
  6
CONTINUOUS
 62
    30
 10
498.65836407469578
 20
-0.0000000000001137
 30
0.0
  0
LINE
  8
SIZE
  6
CONTINUOUS
 62
    30
 10
284.50436326774923
 20
60.095274038468013
 30
0.0
 11
644.34652774656251
 21
60.095274038467892
 31
0.0
  0
LINE
  8
SIZE
  6
CONTINUOUS
 62
    30
 10
284.50436326774923
 20
157.90392496153211
 30
0.0
 11
644.34652774656251
 21
157.903924961532
 31
0.0
  0
LINE
  8
SIZE
  6
CONTINUOUS
 62
    30
 10
624.34652774656251
 20
145.903924961532
 30
0.0
 11
624.34652774656251
 21
72.095274038467892
 31
0.0
  0
LINE
  8
SIZE
  6
CONTINUOUS
 62
    30
 10
624.34652774656251
 20
60.095274038467892
 30
0.0
 11
624.34652774656251
 21
-195.75202623189571
 31
0.0
  0
CIRCLE
  8
SIZE
  6
CONTINUOUS
 62
    30
 10
624.34652774656251
 20
157.903924961532
 30
0.0
 40
6.0
  0
LINE
  8
SIZE
  6
CONTINUOUS
 62
    30
 10
624.34652774656251
 20
157.903924961532
 30
0.0
 11
624.34652774656251
 21
145.903924961532
 31
0.0
  0
CIRCLE
  8
SIZE
  6
CONTINUOUS
 62
    30
 10
624.34652774656251
 20
60.095274038467892
 30
0.0
 40
6.0
  0
LINE
  8
SIZE
  6
CONTINUOUS
 62
    30
 10
624.34652774656251
 20
60.095274038467892
 30
0.0
 11
624.34652774656251
 21
72.095274038467892
 31
0.0
  0
TEXT
  8
SIZE
  6
CONTINUOUS
 62
    30
 10
588.679861079896
 20
-180.90059766046701
 30
0.0
 40
64.0
  1
φ98
 50
90.0
 41
0.9
 72
     1
 11
588.679861079896
 21
-93.952026231895616
 31
0.0
  0
POINT
  8
DEFPOINTS
  6
CONTINUOUS
 62
    30
 10
264.50436326774928
 20
60.095274038468013
 30
0.0
  0
POINT
  8
DEFPOINTS
  6
CONTINUOUS
 62
    30
 10
264.50436326774928
 20
157.90392496153211
 30
0.0
  0
POINT
  8
DEFPOINTS
  6
CONTINUOUS
 62
    30
 10
624.34652774656251
 20
157.903924961532
 30
0.0
  0
LINE
  8
SIZE
  6
CONTINUOUS
 62
    30
 10
233.68387381287471
 20
56.493758609687227
 30
0.0
 11
765.32359581814899
 21
56.493758609687063
 31
0.0
  0
LINE
  8
SIZE
  6
CONTINUOUS
 62
    30
 10
233.68387400000009
 20
161.50544099999999
 30
0.0
 11
765.32359581814899
 21
161.50544099999991
 31
0.0
  0
LINE
  8
SIZE
  6
CONTINUOUS
 62
    30
 10
745.32359581814899
 20
149.50544099999991
 30
0.0
 11
745.32359581814899
 21
68.493758609687063
 31
0.0
  0
LINE
  8
SIZE
  6
CONTINUOUS
 62
    30
 10
745.32359581814899
 20
56.493758609687063
 30
0.0
 11
745.32359581814899
 21
-202.99195567602709
 31
0.0
  0
CIRCLE
  8
SIZE
  6
CONTINUOUS
 62
    30
 10
745.32359581814899
 20
161.50544099999991
 30
0.0
 40
6.0
  0
LINE
  8
SIZE
  6
CONTINUOUS
 62
    30
 10
745.32359581814899
 20
161.50544099999991
 30
0.0
 11
745.32359581814899
 21
149.50544099999991
 31
0.0
  0
CIRCLE
  8
SIZE
  6
CONTINUOUS
 62
    30
 10
745.32359581814899
 20
56.493758609687063
 30
0.0
 40
6.0
  0
LINE
  8
SIZE
  6
CONTINUOUS
 62
    30
 10
745.32359581814899
 20
56.493758609687063
 30
0.0
 11
745.32359581814899
 21
68.493758609687063
 31
0.0
  0
TEXT
  8
SIZE
  6
CONTINUOUS
 62
    30
 10
709.65692915148247
 20
-188.14052710459839
 30
0.0
 40
64.0
  1
φ105
 50
90.0
 41
0.9
 72
     1
 11
709.65692915148247
 21
-79.249098533169786
 31
0.0
  0
POINT
  8
DEFPOINTS
  6
CONTINUOUS
 62
    30
 10
213.68387381287471
 20
56.493758609687227
 30
0.0
  0
POINT
  8
DEFPOINTS
  6
CONTINUOUS
 62
    30
 10
213.68387400000009
 20
161.50544099999999
 30
0.0
  0
POINT
  8
DEFPOINTS
  6
CONTINUOUS
 62
    30
 10
745.32359581814899
 20
161.50544099999991
 30
0.0
  0
LINE
  8
OUTLINE
  6
CONTINUOUS
 62
     3
 10
155.99999399999999
 20
0.0000000000001137
 30
0.0
 11
194.47310999999991
 21
0.0000000000001137
 31
0.0
  0
LINE
  8
OUTLINE
  6
CONTINUOUS
 62
     3
 10
153.23022700000001
 20
164.06249
 30
0.0
 11
153.03319500000001
 21
175.73336000000009
 31
0.0
  0
LINE
  8
OUTLINE
  6
CONTINUOUS
 62
     3
 10
143.82397200000011
 20
182.6996
 30
0.0
 11
146.03128899999999
 21
182.6996
 31
0.0
  0
LINE
  8
OUTLINE
  6
CONTINUOUS
 62
     3
 10
29.0
 20
168.0
 30
0.0
 11
29.0
 21
171.723016
 31
0.0
  0
LINE
  8
OUTLINE
  6
CONTINUOUS
 62
     3
 10
27.5
 20
174.5
 30
0.0
 11
28.85749299999998
 21
172.23751100000001
 31
0.0
  0
ARC
  8
OUTLINE
  6
CONTINUOUS
 62
     3
 10
28.0
 20
171.723016
 30
0.0
 40
1.0
 50
0.0
 51
30.963757000001319
  0
LINE
  8
OUTLINE
  6
CONTINUOUS
 62
     3
 10
118.0020500000001
 20
182.6996
 30
0.0
 11
125.1582330000001
 21
182.6996
 31
0.0
  0
ARC
  8
OUTLINE
  6
CONTINUOUS
 62
     3
 10
118.0020500000001
 20
181.9496
 30
0.0
 40
0.75
 50
90.0
 51
178.0000000000029
  0
LINE
  8
OUTLINE
  6
CONTINUOUS
 62
     3
 10
117.0514069999999
 20
176.21704900000009
 30
0.0
 11
117.25250700000019
 21
181.975774
 31
0.0
  0
ARC
  8
OUTLINE
  6
CONTINUOUS
 62
     3
 10
117.551103
 20
176.1996
 30
0.0
 40
0.5
 50
178.0000000000029
 51
270.0
  0
LINE
  8
OUTLINE
  6
CONTINUOUS
 62
     3
 10
117.551103
 20
175.6996
 30
0.0
 11
124.5458120000001
 21
175.6996
 31
0.0
  0
ARC
  8
OUTLINE
  6
CONTINUOUS
 62
     3
 10
146.03128899999999
 20
181.9496
 30
0.0
 40
0.75
 50
1.999999999997103
 51
90.0
  0
LINE
  8
OUTLINE
  6
CONTINUOUS
 62
     3
 10
146.930159
 20
177.6996
 30
0.0
 11
146.78083199999989
 21
181.975774
 31
0.0
  0
LINE
  8
OUTLINE
  6
CONTINUOUS
 62
     3
 10
151.0334800000002
 20
177.6996
 30
0.0
 11
146.930159
 21
177.6996
 31
0.0
  0
ARC
  8
OUTLINE
  6
CONTINUOUS
 62
     3
 10
151.0334800000002
 20
175.6996
 30
0.0
 40
2.0
 50
0.9671979999977837
 51
90.0
  0
ARC
  8
OUTLINE
  6
CONTINUOUS
 62
     3
 10
154.23008500000009
 20
164.07937000000001
 30
0.0
 40
1.0
 50
180.96719699999721
 51
268.26560799999032
  0
LINE
  8
OUTLINE
  6
CONTINUOUS
 62
     3
 10
195.88469400000011
 20
161.8176050000001
 30
0.0
 11
154.19981899999991
 21
163.07982799999999
 31
0.0
  0
ARC
  8
OUTLINE
  6
CONTINUOUS
 62
     3
 10
196.429486
 20
179.80935900000009
 30
0.0
 40
18.0
 50
268.2656070000063
 51
268.99999999999818
  0
LINE
  8
OUTLINE
  6
CONTINUOUS
 62
     3
 10
213.68387400000009
 20
161.50544099999999
 30
0.0
 11
196.11534299999991
 21
161.81209999999999
 31
0.0
  0
ARC
  8
OUTLINE
  6
CONTINUOUS
 62
     3
 10
213.64896900000011
 20
159.50574499999991
 30
0.0
 40
2.0
 50
69.999999999982933
 51
88.999999999998238
  0
LINE
  8
OUTLINE
  6
CONTINUOUS
 62
     3
 10
222.57706300000021
 20
158.38453999999999
 30
0.0
 11
214.33300899999989
 21
161.38513
 31
0.0
  0
ARC
  8
OUTLINE
  6
CONTINUOUS
 62
     3
 10
223.26110299999999
 20
160.263926
 30
0.0
 40
2.0
 50
249.99999999998289
 51
269.50000000000853
  0
LINE
  8
OUTLINE
  6
CONTINUOUS
 62
     3
 10
264.5043639999999
 20
157.90392499999999
 30
0.0
 11
223.24365000000009
 21
158.264002
 31
0.0
  0
ARC
  8
OUTLINE
  6
CONTINUOUS
 62
     3
 10
264.5
 20
157.403944
 30
0.0
 40
0.5
 50
0.0
 51
89.500000000008455
  0
LINE
  8
OUTLINE
  6
CONTINUOUS
 62
     3
 10
265.0
 20
157.403944
 30
0.0
 11
265.0
 21
60.595255000000073
 31
0.0
  0
LINE
  8
OUTLINE
  6
CONTINUOUS
 62
     3
 10
264.5043639999999
 20
60.095274000000018
 30
0.0
 11
223.24365000000009
 21
59.735197000000078
 31
0.0
  0
ARC
  8
OUTLINE
  6
CONTINUOUS
 62
     3
 10
264.5
 20
60.595255000000073
 30
0.0
 40
0.5
 50
270.49999999999147
 51
0.0
  0
ARC
  8
OUTLINE
  6
CONTINUOUS
 62
     3
 10
223.26110299999999
 20
57.735273999999997
 30
0.0
 40
2.0
 50
90.500000000017607
 51
110.0000000000171
  0
LINE
  8
OUTLINE
  6
CONTINUOUS
 62
     3
 10
222.57706300000021
 20
59.614659000000067
 30
0.0
 11
214.33300899999989
 21
56.614069000000093
 31
0.0
  0
ARC
  8
OUTLINE
  6
CONTINUOUS
 62
     3
 10
213.64896900000011
 20
58.493454000000042
 30
0.0
 40
2.0
 50
271.00000000000182
 51
290.00000000001711
  0
LINE
  8
OUTLINE
  6
CONTINUOUS
 62
     3
 10
213.68387400000009
 20
56.493759000000068
 30
0.0
 11
196.67868300000009
 21
56.196931999999947
 31
0.0
  0
LINE
  8
OUTLINE
  6
CONTINUOUS
 62
     3
 10
156.0385160000001
 20
52.464436000000092
 30
0.0
 11
195.32413799999989
 21
56.122159000000117
 31
0.0
  0
ARC
  8
OUTLINE
  6
CONTINUOUS
 62
     3
 10
196.99282600000021
 20
38.199672999999962
 30
0.0
 40
18.0
 50
91.000000000001776
 51
95.319238999997324
  0
ARC
  8
OUTLINE
  6
CONTINUOUS
 62
     3
 10
156.1312210000001
 20
51.468743000000018
 30
0.0
 40
1.0
 50
95.31923799999511
 51
180.96719799999781
  0
LINE
  8
OUTLINE
  6
CONTINUOUS
 62
     3
 10
156.0
 20
-0.0003999999998996
 30
0.0
 11
155.1313640000001
 21
51.451863000000117
 31
0.0
  0
ARC
  8
OUTLINE
  6
CONTINUOUS
 62
     3
 10
-48.5
 20
194.5000299999999
 30
0.0
 40
5.5
 50
90.0
 51
180.0
  0
ARC
  8
OUTLINE
  6
CONTINUOUS
 62
     3
 10
22.0
 20
194.5000299999999
 30
0.0
 40
5.5
 50
0.0
 51
90.0
  0
LINE
  8
OUTLINE
  6
CONTINUOUS
 62
     3
 10
27.5
 20
174.5
 30
0.0
 11
27.5
 21
194.5000299999999
 31
0.0
  0
LINE
  8
OUTLINE
  6
CONTINUOUS
 62
     3
 10
-48.5
 20
200.0000299999999
 30
0.0
 11
22.0
 21
200.0000299999999
 31
0.0
  0
LINE
  8
OUTLINE
  6
CONTINUOUS
 62
     3
 10
-54.0
 20
168.0
 30
0.0
 11
-54.0
 21
194.5000299999999
 31
0.0
  0
ARC
  8
OUTLINE
  6
CONTINUOUS
 62
     3
 10
0.0
 20
34982.499999999993
 30
0.0
 40
35000.0
 50
269.69226700000257
 51
270.30773299999743
  0
LINE
  8
OUTLINE
  6
CONTINUOUS
 62
     3
 10
-195.0
 20
0.0000000000001137
 30
0.0
 11
-154.737267
 21
0.0000000000001137
 31
0.0
  0
LINE
  8
OUTLINE
  6
CONTINUOUS
 62
     3
 10
-195.0
 20
0.0000000000001137
 30
0.0
 11
-194.4297819999999
 21
-10.880402
 31
0.0
  0
LINE
  8
OUTLINE
  6
CONTINUOUS
 62
     3
 10
-194.33660499999999
 20
-11.082402
 30
0.0
 11
-188.187242
 21
-16.912882999999969
 31
0.0
  0
ARC
  8
OUTLINE
  6
CONTINUOUS
 62
     3
 10
-194.13019299999999
 20
-10.86470099999997
 30
0.0
 40
0.3
 50
182.99999999999909
 51
226.52475600000531
  0
ARC
  8
OUTLINE
  6
CONTINUOUS
 62
     3
 10
-187.98083
 20
-16.695180999999931
 30
0.0
 40
0.3
 50
226.52475600000531
 51
269.69226700000257
  0
LINE
  8
OUTLINE
  6
CONTINUOUS
 62
     3
 10
194.9724249999999
 20
-0.5261679999999842
 30
0.0
 11
194.42978299999999
 21
-10.880402
 31
0.0
  0
LINE
  8
OUTLINE
  6
CONTINUOUS
 62
     3
 10
194.3366060000001
 20
-11.082402
 30
0.0
 11
188.18724300000011
 21
-16.912882999999969
 31
0.0
  0
ARC
  8
OUTLINE
  6
CONTINUOUS
 62
     3
 10
194.1301940000001
 20
-10.86470099999997
 30
0.0
 40
0.3
 50
313.47524399999469
 51
357.00000000000091
  0
ARC
  8
OUTLINE
  6
CONTINUOUS
 62
     3
 10
194.47310999999991
 20
-0.4999999999998863
 30
0.0
 40
0.5
 50
357.00000000000091
 51
90.0
  0
ARC
  8
OUTLINE
  6
CONTINUOUS
 62
     3
 10
187.98083100000011
 20
-16.695180999999931
 30
0.0
 40
0.3
 50
270.30773299999743
 51
313.47524399999469
  0
LINE
  8
OUTLINE
  6
CONTINUOUS
 62
     3
 10
-154.737267
 20
0.0000000000001137
 30
0.0
 11
-151.90863300000001
 21
162.052357
 31
0.0
  0
ARC
  8
OUTLINE
  6
CONTINUOUS
 62
     3
 10
-148.90908899999999
 20
162.0
 30
0.0
 40
3.0
 50
90.0
 51
178.99999999999829
  0
LINE
  8
OUTLINE
  6
CONTINUOUS
 62
     3
 10
-148.90908899999999
 20
165.0
 30
0.0
 11
-94.987266999999974
 21
165.0
 31
0.0
  0
ARC
  8
OUTLINE
  6
CONTINUOUS
 62
     3
 10
-94.355560999999852
 20
167.5
 30
0.0
 40
0.5
 50
90.0
 51
177.00000000000091
  0
LINE
  8
OUTLINE
  6
CONTINUOUS
 62
     3
 10
-94.987266999999974
 20
165.0
 30
0.0
 11
-94.854875999999877
 21
167.52616800000001
 31
0.0
  0
LINE
  8
OUTLINE
  6
CONTINUOUS
 62
     3
 10
-94.355560999999852
 20
168.0
 30
0.0
 11
-54.0
 21
168.0
 31
0.0
  0
LINE
  8
OUTLINE
  6
CONTINUOUS
 62
     3
 10
125.1582330000001
 20
182.6996
 30
0.0
 11
125.2868600000002
 21
184.16981100000001
 31
0.0
  0
ARC
  8
OUTLINE
  6
CONTINUOUS
 62
     3
 10
139.13943999999989
 20
192.5
 30
0.0
 40
0.5
 50
24.227744999991629
 51
90.0
  0
ARC
  8
OUTLINE
  6
CONTINUOUS
 62
     3
 10
132.66983999999999
 20
192.5
 30
0.0
 40
0.5
 50
90.0
 51
135.0
  0
ARC
  8
OUTLINE
  6
CONTINUOUS
 62
     3
 10
130.26783300000011
 20
183.7340320000001
 30
0.0
 40
5.0
 50
135.0
 51
175.00093499999869
  0
LINE
  8
OUTLINE
  6
CONTINUOUS
 62
     3
 10
132.66983999999999
 20
193.0
 30
0.0
 11
139.13943999999989
 21
193.0
 31
0.0
  0
LINE
  8
OUTLINE
  6
CONTINUOUS
 62
     3
 10
126.732299
 20
187.26956600000011
 30
0.0
 11
132.31628599999999
 21
192.85355299999989
 31
0.0
  0
LINE
  8
OUTLINE
  6
CONTINUOUS
 62
     3
 10
124.0058199999999
 20
169.52746200000001
 30
0.0
 11
124.5458120000001
 21
175.6996
 31
0.0
  0
LINE
  8
OUTLINE
  6
CONTINUOUS
 62
     3
 10
123.804838
 20
168.0
 30
0.0
 11
124.0058199999999
 21
169.52746200000001
 31
0.0
  0
LINE
  8
OUTLINE
  6
CONTINUOUS
 62
     3
 10
139.59540100000001
 20
192.70518200000001
 30
0.0
 11
143.77074799999991
 21
183.42663300000001
 31
0.0
  0
LINE
  8
OUTLINE
  6
CONTINUOUS
 62
     3
 10
143.81471099999999
 20
183.230177
 30
0.0
 11
143.82397200000011
 21
182.6996
 31
0.0
  0
ARC
  8
OUTLINE
  6
CONTINUOUS
 62
     3
 10
143.31478700000031
 20
183.22145100000009
 30
0.0
 40
0.5
 50
1.0000000000017619
 51
24.227744999991629
  0
LINE
  8
OUTLINE
  6
CONTINUOUS
 62
     3
 10
62.0
 20
168.0
 30
0.0
 11
29.0
 21
168.0
 31
0.0
  0
LINE
  8
OUTLINE
  6
CONTINUOUS
 62
     3
 10
62.0
 20
168.0
 30
0.0
 11
123.804838
 21
168.0
 31
0.0
  0
LINE
  8
BASIS
  6
DASHDOT
 62
     6
 10
281.03252700000007
 20
109.0
 30
0.0
 11
130.21167299999999
 21
109.0
 31
0.0
  0
LINE
  8
DETAIL
  6
CONTINUOUS
 62
     5
 10
26.0
 20
168.0
 30
0.0
 11
-26.0
 21
168.0
 31
0.0
  0
LINE
  8
DETAIL
  6
CONTINUOUS
 62
     5
 10
-29.0
 20
168.0
 30
0.0
 11
-40.0
 21
168.0
 31
0.0
  0
LINE
  8
DETAIL
  6
CONTINUOUS
 62
     5
 10
64.0
 20
165.0
 30
0.0
 11
-42.0
 21
165.0
 31
0.0
  0
LINE
  8
DETAIL
  6
CONTINUOUS
 62
     5
 10
29.0
 20
168.0
 30
0.0
 11
29.0
 21
171.723016
 31
0.0
  0
LINE
  8
DETAIL
  6
CONTINUOUS
 62
     5
 10
26.0
 20
168.0
 30
0.0
 11
26.0
 21
171.16904800000009
 31
0.0
  0
LINE
  8
DETAIL
  6
CONTINUOUS
 62
     5
 10
-26.0
 20
168.0
 30
0.0
 11
-26.0
 21
171.16904800000009
 31
0.0
  0
LINE
  8
DETAIL
  6
CONTINUOUS
 62
     5
 10
-29.0
 20
168.0
 30
0.0
 11
-29.0
 21
171.723016
 31
0.0
  0
LINE
  8
DETAIL
  6
CONTINUOUS
 62
     5
 10
-23.291302000000091
 20
181.51449500000001
 30
0.0
 11
-28.857491999999869
 21
172.23751100000001
 31
0.0
  0
LINE
  8
DETAIL
  6
CONTINUOUS
 62
     5
 10
23.291302999999971
 20
181.51449500000001
 30
0.0
 11
28.85749299999998
 21
172.23751100000001
 31
0.0
  0
LINE
  8
DETAIL
  6
CONTINUOUS
 62
     5
 10
22.43380999999999
 20
182.0
 30
0.0
 11
-22.433808999999879
 21
182.0
 31
0.0
  0
ARC
  8
DETAIL
  6
CONTINUOUS
 62
     5
 10
22.43380999999999
 20
181.0
 30
0.0
 40
1.0
 50
30.96375700000857
 51
90.0
  0
ARC
  8
DETAIL
  6
CONTINUOUS
 62
     5
 10
-22.433808999999879
 20
181.0
 30
0.0
 40
1.0
 50
90.0
 51
149.0362429999914
  0
ARC
  8
DETAIL
  6
CONTINUOUS
 62
     5
 10
-28.0
 20
171.723016
 30
0.0
 40
1.0
 50
149.0362429999914
 51
180.0
  0
ARC
  8
DETAIL
  6
CONTINUOUS
 62
     5
 10
28.0
 20
171.723016
 30
0.0
 40
1.0
 50
0.0
 51
30.96375700000857
  0
LINE
  8
DETAIL
  6
CONTINUOUS
 62
     5
 10
-21.301427999999991
 20
179.0
 30
0.0
 11
21.301429000000098
 21
179.0
 31
0.0
  0
LINE
  8
DETAIL
  6
CONTINUOUS
 62
     5
 10
21.301429000000098
 20
179.0
 30
0.0
 11
26.0
 21
171.16904800000009
 31
0.0
  0
LINE
  8
DETAIL
  6
CONTINUOUS
 62
     5
 10
-21.301427999999991
 20
179.0
 30
0.0
 11
-26.0
 21
171.16904800000009
 31
0.0
  0
LINE
  8
DETAIL
  6
CONTINUOUS
 62
     5
 10
145.20077900000021
 20
175.6996
 30
0.0
 11
148.26763399999999
 21
-0.0004000000000133
 31
0.0
  0
LINE
  8
DETAIL
  6
CONTINUOUS
 62
     5
 10
118.0020500000001
 20
182.6996
 30
0.0
 11
146.03128899999999
 21
182.6996
 31
0.0
  0
ARC
  8
DETAIL
  6
CONTINUOUS
 62
     5
 10
118.0020500000001
 20
181.9496
 30
0.0
 40
0.75
 50
90.0
 51
178.0000000000029
  0
LINE
  8
DETAIL
  6
CONTINUOUS
 62
     5
 10
117.0514069999999
 20
176.217049
 30
0.0
 11
117.25250700000019
 21
181.97577400000009
 31
0.0
  0
ARC
  8
DETAIL
  6
CONTINUOUS
 62
     5
 10
117.551103
 20
176.1996
 30
0.0
 40
0.5
 50
178.0000000000029
 51
270.0
  0
LINE
  8
DETAIL
  6
CONTINUOUS
 62
     5
 10
117.551103
 20
175.6996
 30
0.0
 11
145.20077900000021
 21
175.6996
 31
0.0
  0
ARC
  8
DETAIL
  6
CONTINUOUS
 62
     5
 10
146.03128899999999
 20
181.9496
 30
0.0
 40
0.75
 50
1.999999999997103
 51
90.0
  0
LINE
  8
DETAIL
  6
CONTINUOUS
 62
     5
 10
146.930159
 20
177.6996
 30
0.0
 11
146.78083199999989
 21
181.97577400000009
 31
0.0
  0
LINE
  8
DETAIL
  6
CONTINUOUS
 62
     5
 10
151.0334800000002
 20
177.6996
 30
0.0
 11
146.930159
 21
177.6996
 31
0.0
  0
ARC
  8
DETAIL
  6
CONTINUOUS
 62
     5
 10
151.0334800000002
 20
175.6996
 30
0.0
 40
2.0
 50
0.9671979999977837
 51
90.0
  0
ARC
  8
DETAIL
  6
CONTINUOUS
 62
     5
 10
154.23008500000009
 20
164.07937000000001
 30
0.0
 40
1.0
 50
180.96719699999721
 51
268.26560799999032
  0
LINE
  8
DETAIL
  6
CONTINUOUS
 62
     5
 10
195.88469400000011
 20
161.8176050000001
 30
0.0
 11
154.19981899999991
 21
163.07982799999999
 31
0.0
  0
ARC
  8
DETAIL
  6
CONTINUOUS
 62
     5
 10
196.429486
 20
179.809359
 30
0.0
 40
18.0
 50
268.2656070000063
 51
268.99999999999818
  0
LINE
  8
DETAIL
  6
CONTINUOUS
 62
     5
 10
213.68387400000009
 20
161.50544099999999
 30
0.0
 11
196.11534299999991
 21
161.81209999999999
 31
0.0
  0
ARC
  8
DETAIL
  6
CONTINUOUS
 62
     5
 10
213.64896900000011
 20
159.50574499999991
 30
0.0
 40
2.0
 50
69.999999999982933
 51
88.999999999998238
  0
LINE
  8
DETAIL
  6
CONTINUOUS
 62
     5
 10
222.57706300000021
 20
158.38453999999999
 30
0.0
 11
214.33300899999989
 21
161.38513
 31
0.0
  0
ARC
  8
DETAIL
  6
CONTINUOUS
 62
     5
 10
223.26110299999999
 20
160.263926
 30
0.0
 40
2.0
 50
249.99999999998289
 51
269.50000000000853
  0
LINE
  8
DETAIL
  6
CONTINUOUS
 62
     5
 10
264.5043639999999
 20
157.90392499999999
 30
0.0
 11
223.24365000000009
 21
158.264002
 31
0.0
  0
ARC
  8
DETAIL
  6
CONTINUOUS
 62
     5
 10
264.5
 20
157.403944
 30
0.0
 40
0.5
 50
0.0
 51
89.500000000008455
  0
LINE
  8
DETAIL
  6
CONTINUOUS
 62
     5
 10
265.0
 20
157.403944
 30
0.0
 11
265.0
 21
60.595255000000073
 31
0.0
  0
LINE
  8
DETAIL
  6
CONTINUOUS
 62
     5
 10
264.5043639999999
 20
60.095274000000018
 30
0.0
 11
223.24365000000009
 21
59.735197000000078
 31
0.0
  0
ARC
  8
DETAIL
  6
CONTINUOUS
 62
     5
 10
264.5
 20
60.595255000000073
 30
0.0
 40
0.5
 50
270.49999999999147
 51
0.0
  0
ARC
  8
DETAIL
  6
CONTINUOUS
 62
     5
 10
223.26110299999999
 20
57.735273999999997
 30
0.0
 40
2.0
 50
90.500000000017607
 51
110.0000000000171
  0
LINE
  8
DETAIL
  6
CONTINUOUS
 62
     5
 10
222.57706300000021
 20
59.614658999999961
 30
0.0
 11
214.33300899999989
 21
56.614069000000093
 31
0.0
  0
ARC
  8
DETAIL
  6
CONTINUOUS
 62
     5
 10
213.64896900000011
 20
58.493454000000042
 30
0.0
 40
2.0
 50
271.00000000000182
 51
290.00000000001711
  0
LINE
  8
DETAIL
  6
CONTINUOUS
 62
     5
 10
213.68387400000009
 20
56.493759000000068
 30
0.0
 11
196.67868300000009
 21
56.196931999999947
 31
0.0
  0
LINE
  8
DETAIL
  6
CONTINUOUS
 62
     5
 10
156.0385160000001
 20
52.464436000000092
 30
0.0
 11
195.32413799999989
 21
56.122159000000011
 31
0.0
  0
ARC
  8
DETAIL
  6
CONTINUOUS
 62
     5
 10
196.99282600000021
 20
38.199672999999962
 30
0.0
 40
18.0
 50
91.000000000001776
 51
95.319238999997324
  0
ARC
  8
DETAIL
  6
CONTINUOUS
 62
     5
 10
156.1312210000001
 20
51.468743000000018
 30
0.0
 40
1.0
 50
95.31923799999511
 51
180.96719799999781
  0
LINE
  8
DETAIL
  6
CONTINUOUS
 62
     5
 10
156.0
 20
-0.0004000000000133
 30
0.0
 11
153.03319500000001
 21
175.73336000000009
 31
0.0
  0
LINE
  8
DETAIL
  6
CONTINUOUS
 62
     5
 10
222.90000000000009
 20
59.702404999999999
 30
0.0
 11
222.90000000000009
 21
158.29679400000001
 31
0.0
  0
LINE
  8
DETAIL
  6
CONTINUOUS
 62
     5
 10
214.01850800000011
 20
56.527889999999957
 30
0.0
 11
214.01850800000011
 21
161.47130899999999
 31
0.0
  0
LINE
  8
DETAIL
  6
CONTINUOUS
 62
     5
 10
196.0
 20
161.81448399999999
 30
0.0
 11
196.0
 21
56.172272000000021
 31
0.0
  0
ARC
  8
DETAIL
  6
CONTINUOUS
 62
     5
 10
-48.5
 20
194.50003000000001
 30
0.0
 40
5.5
 50
90.0
 51
180.0
  0
ARC
  8
DETAIL
  6
CONTINUOUS
 62
     5
 10
22.0
 20
194.50003000000001
 30
0.0
 40
5.5
 50
0.0
 51
90.0
  0
LINE
  8
DETAIL
  6
CONTINUOUS
 62
     5
 10
27.5
 20
174.5
 30
0.0
 11
27.5
 21
194.50003000000001
 31
0.0
  0
LINE
  8
DETAIL
  6
CONTINUOUS
 62
     5
 10
-48.5
 20
200.00003000000001
 30
0.0
 11
22.0
 21
200.00003000000001
 31
0.0
  0
LINE
  8
DETAIL
  6
CONTINUOUS
 62
     5
 10
-54.0
 20
168.0
 30
0.0
 11
-54.0
 21
194.50003000000001
 31
0.0
  0
ARC
  8
DETAIL
  6
CONTINUOUS
 62
     5
 10
0.0
 20
34982.499999999993
 30
0.0
 40
35000.0
 50
269.69226700000257
 51
270.30773299999743
  0
LINE
  8
DETAIL
  6
CONTINUOUS
 62
     5
 10
-195.0
 20
0.0
 30
0.0
 11
194.47310999999991
 21
0.0
 31
0.0
  0
LINE
  8
DETAIL
  6
CONTINUOUS
 62
     5
 10
-195.0
 20
0.0
 30
0.0
 11
-194.4297819999999
 21
-10.880402
 31
0.0
  0
LINE
  8
DETAIL
  6
CONTINUOUS
 62
     5
 10
-194.33660499999999
 20
-11.082402
 30
0.0
 11
-188.187242
 21
-16.912882999999969
 31
0.0
  0
ARC
  8
DETAIL
  6
CONTINUOUS
 62
     5
 10
-194.13019299999999
 20
-10.86470099999997
 30
0.0
 40
0.3
 50
182.99999999999909
 51
226.52475600000531
  0
ARC
  8
DETAIL
  6
CONTINUOUS
 62
     5
 10
-187.98083
 20
-16.695180999999931
 30
0.0
 40
0.3
 50
226.52475600000531
 51
269.69226700000257
  0
LINE
  8
DETAIL
  6
CONTINUOUS
 62
     5
 10
194.9724249999999
 20
-0.5261679999999842
 30
0.0
 11
194.42978299999999
 21
-10.880402
 31
0.0
  0
LINE
  8
DETAIL
  6
CONTINUOUS
 62
     5
 10
194.3366060000001
 20
-11.082402
 30
0.0
 11
188.18724300000011
 21
-16.912882999999969
 31
0.0
  0
ARC
  8
DETAIL
  6
CONTINUOUS
 62
     5
 10
194.1301940000001
 20
-10.86470099999997
 30
0.0
 40
0.3
 50
313.47524399999469
 51
357.00000000000091
  0
ARC
  8
DETAIL
  6
CONTINUOUS
 62
     5
 10
194.47310999999991
 20
-0.5
 30
0.0
 40
0.5
 50
357.00000000000091
 51
90.0
  0
ARC
  8
DETAIL
  6
CONTINUOUS
 62
     5
 10
187.98083100000011
 20
-16.695180999999931
 30
0.0
 40
0.3
 50
270.30773299999743
 51
313.47524399999469
  0
LINE
  8
DETAIL
  6
CONTINUOUS
 62
     5
 10
-137.58726699999991
 20
165.0
 30
0.0
 11
-137.22353100000009
 21
185.83839500000011
 31
0.0
  0
ARC
  8
DETAIL
  6
CONTINUOUS
 62
     5
 10
-134.2463459999999
 20
185.8000000000001
 30
0.0
 40
2.2000000000000002
 50
30.434235999996449
 51
90.0
  0
ARC
  8
DETAIL
  6
CONTINUOUS
 62
     5
 10
-135.023866
 20
185.8000000000001
 30
0.0
 40
2.2000000000000002
 50
90.0
 51
179.0077060000032
  0
LINE
  8
DETAIL
  6
CONTINUOUS
 62
     5
 10
-134.2463459999999
 20
188.0
 30
0.0
 11
-135.023866
 21
188.0
 31
0.0
  0
LINE
  8
DETAIL
  6
CONTINUOUS
 62
     5
 10
-123.7131939999999
 20
172.21434300000001
 30
0.0
 11
-132.34948199999999
 21
186.91440700000001
 31
0.0
  0
LINE
  8
DETAIL
  6
CONTINUOUS
 62
     5
 10
-123.5872669999999
 20
165.0
 30
0.0
 11
-123.7131939999999
 21
172.21434300000001
 31
0.0
  0
LINE
  8
DETAIL
  6
CONTINUOUS
 62
     5
 10
-154.737267
 20
0.0
 30
0.0
 11
-151.90863300000001
 21
162.052357
 31
0.0
  0
ARC
  8
DETAIL
  6
CONTINUOUS
 62
     5
 10
-148.90908899999999
 20
162.0
 30
0.0
 40
3.0
 50
90.0
 51
178.99999999999829
  0
LINE
  8
DETAIL
  6
CONTINUOUS
 62
     5
 10
-148.90908899999999
 20
165.0
 30
0.0
 11
-42.0
 21
165.0
 31
0.0
  0
ARC
  8
DETAIL
  6
CONTINUOUS
 62
     5
 10
-94.355560999999852
 20
167.5
 30
0.0
 40
0.5
 50
90.0
 51
177.00000000000091
  0
LINE
  8
DETAIL
  6
CONTINUOUS
 62
     5
 10
-94.987266999999974
 20
165.0
 30
0.0
 11
-94.854875999999877
 21
167.52616800000001
 31
0.0
  0
ARC
  8
DETAIL
  6
CONTINUOUS
 62
     5
 10
-22.094451999999819
 20
187.49999500000001
 30
0.0
 40
0.5
 50
90.0
 51
178.99943499999819
  0
ARC
  8
DETAIL
  6
CONTINUOUS
 62
     5
 10
-21.880081999999899
 20
187.49999500000001
 30
0.0
 40
0.5
 50
1.000558999996968
 51
90.0
  0
LINE
  8
DETAIL
  6
CONTINUOUS
 62
     5
 10
-22.094451999999819
 20
188.0
 30
0.0
 11
-21.880081999999899
 21
188.0
 31
0.0
  0
LINE
  8
DETAIL
  6
CONTINUOUS
 62
     5
 10
-22.690530999999961
 20
182.0
 30
0.0
 11
-22.594376000000011
 21
187.508726
 31
0.0
  0
LINE
  8
DETAIL
  6
CONTINUOUS
 62
     5
 10
-21.284002999999981
 20
182.0
 30
0.0
 11
-21.380157999999941
 21
187.508726
 31
0.0
  0
LINE
  8
DETAIL
  6
CONTINUOUS
 62
     5
 10
22.619842000000059
 20
187.508726
 30
0.0
 11
22.715997000000019
 21
182.0
 31
0.0
  0
ARC
  8
DETAIL
  6
CONTINUOUS
 62
     5
 10
22.119918000000101
 20
187.49999500000001
 30
0.0
 40
0.5
 50
1.000488999999974
 51
90.0
  0
ARC
  8
DETAIL
  6
CONTINUOUS
 62
     5
 10
21.905548000000181
 20
187.49999500000001
 30
0.0
 40
0.5
 50
90.0
 51
178.99952799999701
  0
LINE
  8
DETAIL
  6
CONTINUOUS
 62
     5
 10
21.905548000000181
 20
188.0
 30
0.0
 11
22.119918000000101
 21
188.0
 31
0.0
  0
LINE
  8
DETAIL
  6
CONTINUOUS
 62
     5
 10
21.405623999999989
 20
187.508726
 30
0.0
 11
21.309469000000039
 21
182.0
 31
0.0
  0
LINE
  8
DETAIL
  6
CONTINUOUS
 62
     5
 10
-94.355560999999852
 20
168.0
 30
0.0
 11
-40.0
 21
168.0
 31
0.0
  0
LINE
  8
DETAIL
  6
CONTINUOUS
 62
     5
 10
125.14077
 20
182.5
 30
0.0
 11
125.2868600000002
 21
184.1698110000001
 31
0.0
  0
ARC
  8
DETAIL
  6
CONTINUOUS
 62
     5
 10
139.13943999999989
 20
192.5
 30
0.0
 40
0.5
 50
24.227744999998901
 51
90.0
  0
ARC
  8
DETAIL
  6
CONTINUOUS
 62
     5
 10
132.66983999999999
 20
192.5
 30
0.0
 40
0.5
 50
90.0
 51
135.0
  0
ARC
  8
DETAIL
  6
CONTINUOUS
 62
     5
 10
130.26783300000011
 20
183.7340320000001
 30
0.0
 40
5.0
 50
135.0
 51
175.00093499999869
  0
LINE
  8
DETAIL
  6
CONTINUOUS
 62
     5
 10
132.66983999999999
 20
193.0
 30
0.0
 11
139.13943999999989
 21
193.0
 31
0.0
  0
LINE
  8
DETAIL
  6
CONTINUOUS
 62
     5
 10
126.732299
 20
187.26956600000011
 30
0.0
 11
132.31628599999999
 21
192.85355300000001
 31
0.0
  0
LINE
  8
DETAIL
  6
CONTINUOUS
 62
     5
 10
124.0058199999999
 20
169.52746200000001
 30
0.0
 11
124.52835
 21
175.5
 31
0.0
  0
LINE
  8
DETAIL
  6
CONTINUOUS
 62
     5
 10
64.0
 20
165.0
 30
0.0
 11
145.3875410000002
 21
165.0
 31
0.0
  0
LINE
  8
DETAIL
  6
CONTINUOUS
 62
     5
 10
123.4101009999999
 20
165.0
 30
0.0
 11
124.0058199999999
 21
169.52746200000001
 31
0.0
  0
LINE
  8
DETAIL
  6
CONTINUOUS
 62
     5
 10
139.59540100000001
 20
192.70518200000001
 30
0.0
 11
143.77074799999991
 21
183.42663300000001
 31
0.0
  0
LINE
  8
DETAIL
  6
CONTINUOUS
 62
     5
 10
143.81471099999999
 20
183.230177
 30
0.0
 11
143.82745600000001
 21
182.5
 31
0.0
  0
ARC
  8
DETAIL
  6
CONTINUOUS
 62
     5
 10
143.31478700000031
 20
183.221451
 30
0.0
 40
0.5
 50
1.0000000000017619
 51
24.227744999998901
  0
LINE
  8
DETAIL
  6
CONTINUOUS
 62
     5
 10
62.0
 20
168.0
 30
0.0
 11
29.0
 21
168.0
 31
0.0
  0
LINE
  8
DETAIL
  6
CONTINUOUS
 62
     5
 10
62.0
 20
168.0
 30
0.0
 11
123.804838
 21
168.0
 31
0.0
  0
LINE
  8
NOTE
  6
CENTER
 62
     4
 10
-165.0
 20
-7.160033999999996
 30
0.0
 11
-165.0
 21
7.5171460000000252
 31
0.0
  0
LINE
  8
NOTE
  6
CENTER
 62
     4
 10
-100.0
 20
-7.160033999999996
 30
0.0
 11
-100.0
 21
7.5171460000000252
 31
0.0
  0
LINE
  8
NOTE
  6
CENTER
 62
     4
 10
100.0
 20
-7.160033999999996
 30
0.0
 11
100.0
 21
7.5171460000000252
 31
0.0
  0
LINE
  8
NOTE
  6
CENTER
 62
     4
 10
165.0
 20
-7.160033999999996
 30
0.0
 11
165.0
 21
7.5171460000000252
 31
0.0
  0
LINE
  8
DETAIL
  6
CONTINUOUS
 62
     5
 10
-194.39795000000001
 20
-11.0
 30
0.0
 11
194.39795099999989
 21
-11.0
 31
0.0
  0
LINE
  8
NOTE
  6
CENTER
 62
     4
 10
85.0
 20
154.251428
 30
0.0
 11
85.0
 21
176.69253599999999
 31
0.0
  0
TEXT
  8
ETC
  6
CONTINUOUS
 62
    61
 10
542.58711335642465
 20
674.87526213789351
 30
0.0
 40
64.0
  1
VD-18ZSVC6_5
 41
0.9
  0
TEXT
  8
ETC
  6
CONTINUOUS
 62
    61
 10
538.40111935642426
 20
556.91995212306233
 30
0.0
 40
64.0
  1
換気扇
 41
0.9
  0
TEXT
  8
ETC
  6
CONTINUOUS
 62
    61
 10
589.10251760498022
 20
448.77117923683687
 30
0.0
 40
40.0
  1
VD-18ZSVC6
 41
0.9
  0
TEXT
  8
ETC
  6
CONTINUOUS
 62
    61
 10
589.10251760498022
 20
382.77117923683687
 30
0.0
 40
40.0
  1
VD-18ZLSC13-S
 41
0.9
  0
TEXT
  8
NOTE
  6
CONTINUOUS
 62
     4
 10
-653.44004707741237
 20
298.12119712468137
 30
0.0
 40
63.999999999999993
  1
8-φ5
 41
0.9
  0
LINE
  8
NOTE
  6
CONTINUOUS
 62
     4
 10
-400.2835679845864
 20
264.81163647897858
 30
0.0
 11
-681.8657600957215
 21
264.81166595795719
 31
0.0
  0
ENDSEC
  0
EOF
