  0
SECTION
  2
HEADER
  9
$ACADVER
  1
AC1009
  9
$DWGCODEPAGE
  3
dos932
  9
$INSBASE
 10
0.0
 20
0.0
 30
0.0
  9
$EXTMIN
 10
-859.69389240454802
 20
-746.29210290300216
 30
-0.0015258207003583
  9
$EXTMAX
 10
1175.5645869364539
 20
958.74024282528626
 30
0.0000000349246037
  9
$LIMMIN
 10
-2970.0
 20
-2100.0
  9
$LIMMAX
 10
2970.0
 20
2100.0
  9
$ORTHOMODE
 70
     1
  9
$REGENMODE
 70
     1
  9
$FILLMODE
 70
     1
  9
$QTEXTMODE
 70
     0
  9
$MIRRTEXT
 70
     0
  9
$LTSCALE
 40
20.0
  9
$ATTMODE
 70
     1
  9
$TEXTSIZE
 40
64.0
  9
$TRACEWID
 40
0.05
  9
$TEXTSTYLE
  7
STANDARD
  9
$CLAYER
  8
SIZE
  9
$CELTYPE
  6
CONTINUOUS
  9
$CECOLOR
 62
     7
  9
$DIMSCALE
 40
1.0
  9
$DIMASZ
 40
12.0
  9
$DIMEXO
 40
20.0
  9
$DIMDLI
 40
200.0
  9
$DIMRND
 40
0.0
  9
$DIMDLE
 40
0.0
  9
$DIMEXE
 40
20.0
  9
$DIMTP
 40
0.0
  9
$DIMTM
 40
0.0
  9
$DIMTXT
 40
64.0
  9
$DIMCEN
 40
0.09
  9
$DIMTSZ
 40
0.0
  9
$DIMTOL
 70
     0
  9
$DIMLIM
 70
     0
  9
$DIMTIH
 70
     0
  9
$DIMTOH
 70
     0
  9
$DIMSE1
 70
     0
  9
$DIMSE2
 70
     0
  9
$DIMTAD
 70
     1
  9
$DIMZIN
 70
     8
  9
$DIMBLK
  1

  9
$DIMASO
 70
     1
  9
$DIMSHO
 70
     0
  9
$DIMPOST
  1

  9
$DIMAPOST
  1

  9
$DIMALT
 70
     0
  9
$DIMALTD
 70
     2
  9
$DIMALTF
 40
25.399999999999999
  9
$DIMLFAC
 40
1.0
  9
$DIMTOFL
 70
     1
  9
$DIMTVP
 40
0.0
  9
$DIMTIX
 70
     1
  9
$DIMSOXD
 70
     0
  9
$DIMSAH
 70
     0
  9
$DIMBLK1
  1

  9
$DIMBLK2
  1

  9
$DIMSTYLE
  2
STANDARD
  9
$DIMCLRD
 70
     7
  9
$DIMCLRE
 70
     7
  9
$DIMCLRT
 70
     7
  9
$DIMTFAC
 40
1.0
  9
$DIMGAP
 40
25.0
  9
$LUNITS
 70
     2
  9
$LUPREC
 70
     4
  9
$SKETCHINC
 40
0.1
  9
$FILLETRAD
 40
3.0
  9
$AUNITS
 70
     1
  9
$AUPREC
 70
     3
  9
$MENU
  1
ACAD
  9
$ELEVATION
 40
0.0
  9
$PELEVATION
 40
0.0
  9
$THICKNESS
 40
0.0
  9
$LIMCHECK
 70
     0
  9
$CHAMFERA
 40
0.0
  9
$CHAMFERB
 40
0.0
  9
$SKPOLY
 70
     0
  9
$TDCREATE
 40
2453019.62301037
  9
$TDUPDATE
 40
2459025.509955475
  9
$TDINDWG
 40
1.7137081134
  9
$TDUSRTIMER
 40
1.7137081134
  9
$USRTIMER
 70
     1
  9
$ANGBASE
 50
0.0
  9
$ANGDIR
 70
     0
  9
$PDMODE
 70
     3
  9
$PDSIZE
 40
-2.0
  9
$PLINEWID
 40
0.0
  9
$SPLFRAME
 70
     0
  9
$SPLINETYPE
 70
     6
  9
$SPLINESEGS
 70
     8
  9
$SURFTAB1
 70
     6
  9
$SURFTAB2
 70
     6
  9
$SURFTYPE
 70
     6
  9
$SURFU
 70
     6
  9
$SURFV
 70
     6
  9
$UCSNAME
  2

  9
$UCSORG
 10
0.0
 20
0.0
 30
0.0
  9
$UCSXDIR
 10
1.0
 20
0.0
 30
0.0
  9
$UCSYDIR
 10
0.0
 20
1.0
 30
0.0
  9
$PUCSNAME
  2

  9
$PUCSORG
 10
0.0
 20
0.0
 30
0.0
  9
$PUCSXDIR
 10
1.0
 20
0.0
 30
0.0
  9
$PUCSYDIR
 10
0.0
 20
1.0
 30
0.0
  9
$USERI1
 70
     0
  9
$USERI2
 70
     0
  9
$USERI3
 70
     0
  9
$USERI4
 70
     0
  9
$USERI5
 70
     0
  9
$USERR1
 40
20.0
  9
$USERR2
 40
0.0
  9
$USERR3
 40
0.0
  9
$USERR4
 40
0.0
  9
$USERR5
 40
0.0
  9
$WORLDVIEW
 70
     1
  9
$SHADEDGE
 70
     3
  9
$SHADEDIF
 70
    70
  9
$TILEMODE
 70
     1
  9
$MAXACTVP
 70
    48
  9
$PINSBASE
 10
0.0
 20
0.0
 30
0.0
  9
$PLIMCHECK
 70
     0
  9
$PEXTMIN
 10
-100000000000000000000.0
 20
-100000000000000000000.0
 30
-100000000000000000000.0
  9
$PEXTMAX
 10
100000000000000000000.0
 20
100000000000000000000.0
 30
100000000000000000000.0
  9
$PLIMMIN
 10
0.0
 20
0.0
  9
$PLIMMAX
 10
12.0
 20
9.0
  9
$UNITMODE
 70
     0
  9
$VISRETAIN
 70
     0
  9
$PLINEGEN
 70
     0
  9
$PSLTSCALE
 70
     0
  9
$TREEDEPTH
 70
  3020
  9
$ATTDIA
 70
     0
  9
$ATTREQ
 70
     1
  9
$BLIPMODE
 70
     1
  9
$COORDS
 70
     1
  9
$DRAGMODE
 70
     2
  9
$OSMODE
 70
     0
  9
$HANDLING
 70
     0
  9
$HANDSEED
  5
EECA
  0
ENDSEC
  0
SECTION
  2
TABLES
  0
TABLE
  2
LTYPE
 70
     3
  0
LTYPE
  2
CONTINUOUS
 70
     0
  3
実線
 72
    65
 73
     0
 40
0.0
  0
LTYPE
  2
DASHDOT
 70
     0
  3
____ _ ____ _ ____ _ ____ _ ____ _ ____ _ ____
 72
    65
 73
     4
 40
5.5
 49
4.0
 49
-0.6
 49
0.3
 49
-0.6
  0
LTYPE
  2
CENTER
 70
     0
  3
Center ____ _ ____ _ ____ _ ____ _ ____ _ ____
 72
    65
 73
     4
 40
1.0
 49
0.5
 49
-0.25
 49
0.0
 49
-0.25
  0
ENDTAB
  0
TABLE
  2
LAYER
 70
    12
  0
LAYER
  2
0
 70
     0
 62
     7
  6
CONTINUOUS
  0
LAYER
  2
BASIS
 70
     0
 62
     6
  6
DASHDOT
  0
LAYER
  2
OUTLINE
 70
     0
 62
     3
  6
CONTINUOUS
  0
LAYER
  2
DETAIL
 70
     0
 62
     5
  6
CONTINUOUS
  0
LAYER
  2
SIZE
 70
     0
 62
    30
  6
CONTINUOUS
  0
LAYER
  2
ARRANGE
 70
     0
 62
     1
  6
CONTINUOUS
  0
LAYER
  2
DEFPOINTS
 70
     0
 62
     7
  6
CONTINUOUS
  0
LAYER
  2
ETC
 70
     0
 62
    61
  6
CONTINUOUS
  0
LAYER
  2
FIX
 70
     0
 62
    11
  6
CONTINUOUS
  0
LAYER
  2
NOTE
 70
     0
 62
     4
  6
CONTINUOUS
  0
LAYER
  2
SERVICESPACE
 70
    64
 62
     2
  6
DASHDOT
  0
LAYER
  2
SYMBOLLINE
 70
    64
 62
    15
  6
CONTINUOUS
  0
ENDTAB
  0
TABLE
  2
STYLE
 70
     1
  0
STYLE
  2
STANDARD
 70
     0
 40
64.0
 41
0.9
 50
0.0
 71
     0
 42
64.0
  3
SIMPLEX.shx
  4
BIGFONT.shx
  0
ENDTAB
  0
TABLE
  2
APPID
 70
    19
  0
APPID
  2
ACAD
 70
     0
  0
APPID
  2
AUTOCAD_POSTSCRIPT_FIGURE
 70
     0
  0
APPID
  2
ACAD_EXEMPT_FROM_CAD_STANDARDS
 70
     0
  0
APPID
  2
ACAD_PSEXT
 70
     0
  0
APPID
  2
ACAUTHENVIRON
 70
     0
  0
APPID
  2
GENIUS_GENOENT_13
 70
     0
  0
APPID
  2
GENIUS_GENCFG_13
 70
     0
  0
APPID
  2
GENIUS_GENCFG0_13
 70
     0
  0
APPID
  2
GENIUS_GENCFG1_13
 70
     0
  0
APPID
  2
GENIUS_GENCFG2_13
 70
     0
  0
APPID
  2
GENIUS_GENCFG3_13
 70
     0
  0
APPID
  2
GENIUS_GENCFG4_13
 70
     0
  0
APPID
  2
GENIUS_GEVCFG0_13
 70
     0
  0
APPID
  2
CONTENTBLOCKICON
 70
     0
  0
APPID
  2
CONTENTBLOCKDESCRIPTION
 70
     0
  0
APPID
  2
ACAD_NAV_VCDISPLAY
 70
     0
  0
APPID
  2
ACAD_MLEADERVER
 70
     0
  0
APPID
  2
ACDBDYNAMICBLOCKTRUENAME
 70
     0
  0
APPID
  2
ACDBDYNAMICBLOCKGUID
 70
     0
  0
ENDTAB
  0
TABLE
  2
DIMSTYLE
 70
     1
  0
DIMSTYLE
  2
STANDARD
 70
     0
  3

  4

  5
_ORIGIN
  6

  7

 40
1.0
 41
12.0
 42
20.0
 43
200.0
 44
20.0
 45
0.0
 46
0.0
 47
0.0
 48
0.0
140
64.0
141
0.09
142
0.0
143
25.399999999999999
144
1.0
145
0.0
146
1.0
147
25.0
 71
     0
 72
     0
 73
     0
 74
     0
 75
     0
 76
     0
 77
     1
 78
     8
170
     0
171
     2
172
     1
173
     0
174
     1
175
     0
176
     7
177
     7
178
     7
  0
ENDTAB
  0
TABLE
  2
VIEW
 70
     1
  0
VIEW
  2
ALL
 70
     0
 40
4282.6198079999986
 10
0.0
 20
41.309904000000003
 41
5940.0
 11
0.0
 21
0.0
 31
1.0
 12
0.0
 22
0.0
 32
0.0
 42
50.0
 43
0.0
 44
0.0
 50
0.0
 71
     0
  0
ENDTAB
  0
TABLE
  2
UCS
 70
     0
  0
ENDTAB
  0
TABLE
  2
VPORT
 70
     1
  0
VPORT
  2
*ACTIVE
 70
     0
 10
0.0
 20
0.0
 11
1.0
 21
1.0
 12
157.93534726595331
 22
106.22406996114201
 13
0.0
 23
0.0
 14
1.0
 24
1.0
 15
0.0
 25
0.0
 16
0.0
 26
0.0
 36
1.0
 17
0.0
 27
0.0
 37
0.0
 40
1716.3364275784211
 41
1.747787610619469
 42
50.0
 43
0.0
 44
0.0
 50
0.0
 51
0.0
 71
     0
 72
  1000
 73
     1
 74
     3
 75
     0
 76
     0
 77
     0
 78
     0
  0
ENDTAB
  0
ENDSEC
  0
SECTION
  2
BLOCKS
  0
BLOCK
  8
0
  2
_ORIGIN
 70
     0
 10
0.0
 20
0.0
 30
0.0
  3
_ORIGIN
  1
_ORIGIN
  0
CIRCLE
  8
0
  6
CONTINUOUS
 62
     7
 10
0.0
 20
0.0
 30
0.0
 40
0.5
  0
LINE
  8
0
  6
CONTINUOUS
 62
     7
 10
0.0
 20
0.0
 30
0.0
 11
-1.0
 21
0.0
 31
0.0
  0
ENDBLK
  8
0
  0
ENDSEC
  0
SECTION
  2
ENTITIES
  0
TEXT
  8
NOTE
  6
CONTINUOUS
 62
     4
 10
409.70938000289561
 20
409.44222566802819
 30
0.0
 40
63.999999999999993
  1
8-φ5×8
 41
0.9
  0
LINE
  8
NOTE
  6
CONTINUOUS
 62
     4
 10
804.73621781679685
 20
379.81169999999997
 30
0.0
 11
381.28366698458649
 21
379.81173997897872
 31
0.0
  0
LINE
  8
NOTE
  6
CONTINUOUS
 62
     4
 10
146.00009899999989
 20
115.00010349999999
 30
0.0
 11
381.28366698458649
 21
379.81173997897872
 31
0.0
  0
LINE
  8
NOTE
  6
CONTINUOUS
 62
     4
 10
146.00009899999989
 20
115.00010349999999
 30
0.0
 11
177.3128443475789
 21
137.6835259188833
 31
0.0
  0
LINE
  8
NOTE
  6
CONTINUOUS
 62
     4
 10
164.9953736940233
 20
150.19939983376119
 30
0.0
 11
146.00009899999989
 21
115.00010349999999
 31
0.0
  0
TEXT
  8
NOTE
  6
CONTINUOUS
 62
     4
 10
-108.27067418363001
 20
-381.13219966604902
 30
0.0
 40
64.0
  1
EA
 41
0.9
  0
TEXT
  8
NOTE
  6
CONTINUOUS
 62
     4
 10
391.37442339379498
 20
-498.726947852884
 30
0.0
 40
64.0
  1
EL
 41
0.9
  0
LINE
  8
NOTE
  6
CONTINUOUS
 62
     4
 10
514.51748115482178
 20
-532.59689220116047
 30
0.0
 11
345.99298962840288
 21
-532.59689220111807
 31
0.0
  0
LINE
  8
NOTE
  6
CONTINUOUS
 62
     4
 10
111.40008450000001
 20
-99.400061000000051
 30
0.0
 11
345.99298962840288
 21
-532.59689220111807
 31
0.0
  0
LINE
  8
NOTE
  6
CONTINUOUS
 62
     4
 10
111.40008450000001
 20
-99.400061000000051
 30
0.0
 11
139.4734585441129
 21
-126.0440101874501
 31
0.0
  0
LINE
  8
NOTE
  6
CONTINUOUS
 62
     4
 10
118.70264689457871
 20
-138.65811070384549
 30
0.0
 11
111.40008450000001
 21
-99.400061000000051
 31
0.0
  0
CIRCLE
  8
ARRANGE
  6
CONTINUOUS
 62
     1
 10
0.0
 20
0.0
 30
0.0
 40
40.0
  0
POINT
  8
ARRANGE
  6
CONTINUOUS
 62
     1
 10
0.0
 20
0.0
 30
0.0
 50
90.0
  0
LINE
  8
BASIS
  6
DASHDOT
 62
     6
 10
0.0
 20
-328.40469645841222
 30
0.0
 11
0.0
 21
247.4478729999997
 31
0.0
  0
CIRCLE
  8
FIX
  6
CONTINUOUS
 62
    11
 10
-115.0000774999999
 20
146.00009700000001
 30
0.0
 40
10.0
  0
CIRCLE
  8
FIX
  6
CONTINUOUS
 62
    11
 10
-146.00009899999989
 20
115.0000770000001
 30
0.0
 40
10.0
  0
CIRCLE
  8
FIX
  6
CONTINUOUS
 62
    11
 10
-146.00009899999989
 20
-115.000078
 30
0.0
 40
10.0
  0
LINE
  8
SIZE
  6
CONTINUOUS
 62
    30
 10
-115.000078
 20
172.52101800000011
 30
0.0
 11
-115.000078
 21
319.27599934220888
 31
0.0
  0
LINE
  8
SIZE
  6
CONTINUOUS
 62
    30
 10
115.000078
 20
172.52101800000011
 30
0.0
 11
115.000078
 21
319.27599934220888
 31
0.0
  0
LINE
  8
SIZE
  6
CONTINUOUS
 62
    30
 10
-103.000078
 20
299.27599934220888
 30
0.0
 11
103.000078
 21
299.27599934220888
 31
0.0
  0
CIRCLE
  8
SIZE
  6
CONTINUOUS
 62
    30
 10
-115.000078
 20
299.27599934220888
 30
0.0
 40
6.0
  0
LINE
  8
SIZE
  6
CONTINUOUS
 62
    30
 10
-115.000078
 20
299.27599934220888
 30
0.0
 11
-103.000078
 21
299.27599934220888
 31
0.0
  0
CIRCLE
  8
SIZE
  6
CONTINUOUS
 62
    30
 10
115.000078
 20
299.27599934220888
 30
0.0
 40
6.0
  0
LINE
  8
SIZE
  6
CONTINUOUS
 62
    30
 10
115.000078
 20
299.27599934220888
 30
0.0
 11
103.000078
 21
299.27599934220888
 31
0.0
  0
TEXT
  8
SIZE
  6
CONTINUOUS
 62
    30
 10
-74.057142857142864
 20
324.27599934220888
 30
0.0
 40
64.0
  1
230
 41
0.9
 72
     1
 11
0.0
 21
324.27599934220888
 31
0.0
  0
POINT
  8
DEFPOINTS
  6
CONTINUOUS
 62
    30
 10
-115.000078
 20
152.52101800000011
 30
0.0
  0
POINT
  8
DEFPOINTS
  6
CONTINUOUS
 62
    30
 10
115.000078
 20
152.52101800000011
 30
0.0
  0
POINT
  8
DEFPOINTS
  6
CONTINUOUS
 62
    30
 10
115.000078
 20
299.27599934220888
 30
0.0
  0
LINE
  8
SIZE
  6
CONTINUOUS
 62
    30
 10
-146.00009899999989
 20
142.50007900000011
 30
0.0
 11
-146.00009899999989
 21
668.19380887304578
 31
0.0
  0
LINE
  8
SIZE
  6
CONTINUOUS
 62
    30
 10
146.00009899999989
 20
142.50007900000011
 30
0.0
 11
146.00009899999989
 21
668.19380887304578
 31
0.0
  0
LINE
  8
SIZE
  6
CONTINUOUS
 62
    30
 10
-134.00009899999989
 20
648.19380887304578
 30
0.0
 11
134.00009899999989
 21
648.19380887304578
 31
0.0
  0
CIRCLE
  8
SIZE
  6
CONTINUOUS
 62
    30
 10
-146.00009899999989
 20
648.19380887304578
 30
0.0
 40
6.0
  0
LINE
  8
SIZE
  6
CONTINUOUS
 62
    30
 10
-146.00009899999989
 20
648.19380887304578
 30
0.0
 11
-134.00009899999989
 21
648.19380887304578
 31
0.0
  0
CIRCLE
  8
SIZE
  6
CONTINUOUS
 62
    30
 10
146.00009899999989
 20
648.19380887304578
 30
0.0
 40
6.0
  0
LINE
  8
SIZE
  6
CONTINUOUS
 62
    30
 10
146.00009899999989
 20
648.19380887304578
 30
0.0
 11
134.00009899999989
 21
648.19380887304578
 31
0.0
  0
TEXT
  8
SIZE
  6
CONTINUOUS
 62
    30
 10
-74.05714285714285
 20
673.19380887304578
 30
0.0
 40
64.0
  1
292
 41
0.9
 72
     1
 11
0.0
 21
673.19380887304578
 31
0.0
  0
POINT
  8
DEFPOINTS
  6
CONTINUOUS
 62
    30
 10
-146.00009899999989
 20
122.5000790000001
 30
0.0
  0
POINT
  8
DEFPOINTS
  6
CONTINUOUS
 62
    30
 10
146.00009899999989
 20
122.5000790000001
 30
0.0
  0
POINT
  8
DEFPOINTS
  6
CONTINUOUS
 62
    30
 10
146.00009899999989
 20
648.19380887304578
 30
0.0
  0
LINE
  8
SIZE
  6
CONTINUOUS
 62
    30
 10
-156.0000979999995
 20
137.21251782492851
 30
0.0
 11
-156.0000979999995
 21
777.16215228720921
 31
0.0
  0
LINE
  8
SIZE
  6
CONTINUOUS
 62
    30
 10
156.00009800000001
 20
137.21251782492891
 30
0.0
 11
156.00009800000001
 21
777.16215228720921
 31
0.0
  0
LINE
  8
SIZE
  6
CONTINUOUS
 62
    30
 10
-144.0000979999995
 20
757.16215228720921
 30
0.0
 11
144.00009800000001
 21
757.16215228720921
 31
0.0
  0
CIRCLE
  8
SIZE
  6
CONTINUOUS
 62
    30
 10
-156.0000979999995
 20
757.16215228720921
 30
0.0
 40
6.0
  0
LINE
  8
SIZE
  6
CONTINUOUS
 62
    30
 10
-156.0000979999995
 20
757.16215228720921
 30
0.0
 11
-144.0000979999995
 21
757.16215228720921
 31
0.0
  0
CIRCLE
  8
SIZE
  6
CONTINUOUS
 62
    30
 10
156.00009800000001
 20
757.16215228720921
 30
0.0
 40
6.0
  0
LINE
  8
SIZE
  6
CONTINUOUS
 62
    30
 10
156.00009800000001
 20
757.16215228720921
 30
0.0
 11
144.00009800000001
 21
757.16215228720921
 31
0.0
  0
TEXT
  8
SIZE
  6
CONTINUOUS
 62
    30
 10
-68.571428571428569
 20
782.16215228720921
 30
0.0
 40
64.0
  1
312
 41
0.9
 72
     1
 11
0.0
 21
782.16215228720921
 31
0.0
  0
POINT
  8
DEFPOINTS
  6
CONTINUOUS
 62
    30
 10
-156.0000979999995
 20
117.2125178249285
 30
0.0
  0
POINT
  8
DEFPOINTS
  6
CONTINUOUS
 62
    30
 10
156.00009800000001
 20
117.2125178249289
 30
0.0
  0
POINT
  8
DEFPOINTS
  6
CONTINUOUS
 62
    30
 10
156.00009800000001
 20
757.16215228720921
 30
0.0
  0
LINE
  8
SIZE
  6
CONTINUOUS
 62
    30
 10
-167.00011300000011
 20
175.00010399999999
 30
0.0
 11
-167.00011300000011
 21
889.70322581784876
 31
0.0
  0
LINE
  8
SIZE
  6
CONTINUOUS
 62
    30
 10
167.00011299999909
 20
175.00010023008639
 30
0.0
 11
167.00011299999909
 21
889.70322581784876
 31
0.0
  0
LINE
  8
SIZE
  6
CONTINUOUS
 62
    30
 10
-155.00011300000011
 20
869.70322581784876
 30
0.0
 11
155.0001129999996
 21
869.70322581784876
 31
0.0
  0
CIRCLE
  8
SIZE
  6
CONTINUOUS
 62
    30
 10
-167.00011300000011
 20
869.70322581784876
 30
0.0
 40
6.0
  0
LINE
  8
SIZE
  6
CONTINUOUS
 62
    30
 10
-167.00011300000011
 20
869.70322581784876
 30
0.0
 11
-155.00011300000011
 21
869.70322581784876
 31
0.0
  0
CIRCLE
  8
SIZE
  6
CONTINUOUS
 62
    30
 10
167.00011299999909
 20
869.70322581784876
 30
0.0
 40
6.0
  0
LINE
  8
SIZE
  6
CONTINUOUS
 62
    30
 10
167.00011299999909
 20
869.70322581784876
 30
0.0
 11
155.0001129999996
 21
869.70322581784876
 31
0.0
  0
TEXT
  8
SIZE
  6
CONTINUOUS
 62
    30
 10
-111.90857142857141
 20
894.70322581784876
 30
0.0
 40
64.0
  1
□334
 41
0.9
 72
     1
 11
0.0
 21
894.70322581784876
 31
0.0
  0
POINT
  8
DEFPOINTS
  6
CONTINUOUS
 62
    30
 10
-167.00011300000011
 20
155.00010399999999
 30
0.0
  0
POINT
  8
DEFPOINTS
  6
CONTINUOUS
 62
    30
 10
167.00011299999909
 20
155.00010023008639
 30
0.0
  0
POINT
  8
DEFPOINTS
  6
CONTINUOUS
 62
    30
 10
167.00011299999909
 20
869.70322581784876
 30
0.0
  0
LINE
  8
SIZE
  6
CONTINUOUS
 62
    30
 10
-135.0
 20
153.99999999999989
 30
0.0
 11
-135.0
 21
443.7112448095495
 31
0.0
  0
LINE
  8
SIZE
  6
CONTINUOUS
 62
    30
 10
135.0
 20
153.99999999999989
 30
0.0
 11
135.0
 21
443.7112448095495
 31
0.0
  0
LINE
  8
SIZE
  6
CONTINUOUS
 62
    30
 10
-123.0
 20
423.7112448095495
 30
0.0
 11
123.0
 21
423.7112448095495
 31
0.0
  0
CIRCLE
  8
SIZE
  6
CONTINUOUS
 62
    30
 10
-135.0
 20
423.7112448095495
 30
0.0
 40
6.0
  0
LINE
  8
SIZE
  6
CONTINUOUS
 62
    30
 10
-135.0
 20
423.7112448095495
 30
0.0
 11
-123.0
 21
423.7112448095495
 31
0.0
  0
CIRCLE
  8
SIZE
  6
CONTINUOUS
 62
    30
 10
135.0
 20
423.7112448095495
 30
0.0
 40
6.0
  0
LINE
  8
SIZE
  6
CONTINUOUS
 62
    30
 10
135.0
 20
423.7112448095495
 30
0.0
 11
123.0
 21
423.7112448095495
 31
0.0
  0
TEXT
  8
SIZE
  6
CONTINUOUS
 62
    30
 10
-110.5371428571429
 20
448.7112448095495
 30
0.0
 40
64.0
  1
□270
 41
0.9
 72
     1
 11
0.0
 21
448.7112448095495
 31
0.0
  0
POINT
  8
DEFPOINTS
  6
CONTINUOUS
 62
    30
 10
-135.0
 20
133.99999999999989
 30
0.0
  0
POINT
  8
DEFPOINTS
  6
CONTINUOUS
 62
    30
 10
135.0
 20
133.99999999999989
 30
0.0
  0
POINT
  8
DEFPOINTS
  6
CONTINUOUS
 62
    30
 10
135.0
 20
423.7112448095495
 30
0.0
  0
LINE
  8
SIZE
  6
CONTINUOUS
 62
    30
 10
142.5000790000004
 20
146.00009700000001
 30
0.0
 11
642.16408589744879
 21
146.0000969999999
 31
0.0
  0
LINE
  8
SIZE
  6
CONTINUOUS
 62
    30
 10
142.5000790000004
 20
-146.00009800000001
 30
0.0
 11
642.16408589744879
 21
-146.00009800000021
 31
0.0
  0
LINE
  8
SIZE
  6
CONTINUOUS
 62
    30
 10
622.16408589744879
 20
134.0000969999999
 30
0.0
 11
622.16408589744879
 21
-134.00009800000021
 31
0.0
  0
CIRCLE
  8
SIZE
  6
CONTINUOUS
 62
    30
 10
622.16408589744879
 20
146.0000969999999
 30
0.0
 40
6.0
  0
LINE
  8
SIZE
  6
CONTINUOUS
 62
    30
 10
622.16408589744879
 20
146.0000969999999
 30
0.0
 11
622.16408589744879
 21
134.0000969999999
 31
0.0
  0
CIRCLE
  8
SIZE
  6
CONTINUOUS
 62
    30
 10
622.16408589744879
 20
-146.00009800000021
 30
0.0
 40
6.0
  0
LINE
  8
SIZE
  6
CONTINUOUS
 62
    30
 10
622.16408589744879
 20
-146.00009800000021
 30
0.0
 11
622.16408589744879
 21
-134.00009800000021
 31
0.0
  0
TEXT
  8
SIZE
  6
CONTINUOUS
 62
    30
 10
597.16408589744879
 20
-74.057143357142905
 30
0.0
 40
64.0
  1
292
 50
90.0
 41
0.9
 72
     1
 11
597.16408589744879
 21
-0.0000005000000556
 31
0.0
  0
POINT
  8
DEFPOINTS
  6
CONTINUOUS
 62
    30
 10
122.5000790000004
 20
146.00009700000001
 30
0.0
  0
POINT
  8
DEFPOINTS
  6
CONTINUOUS
 62
    30
 10
122.5000790000004
 20
-146.00009800000001
 30
0.0
  0
POINT
  8
DEFPOINTS
  6
CONTINUOUS
 62
    30
 10
622.16408589744879
 20
-146.00009800000021
 30
0.0
  0
LINE
  8
SIZE
  6
CONTINUOUS
 62
    30
 10
173.56361199999989
 20
115.0000770000001
 30
0.0
 11
530.89670562393258
 21
115.000077
 31
0.0
  0
LINE
  8
SIZE
  6
CONTINUOUS
 62
    30
 10
173.56361199999989
 20
-115.000078
 30
0.0
 11
530.89670562393258
 21
-115.0000780000001
 31
0.0
  0
LINE
  8
SIZE
  6
CONTINUOUS
 62
    30
 10
510.89670562393258
 20
103.000077
 30
0.0
 11
510.89670562393258
 21
-103.0000780000001
 31
0.0
  0
CIRCLE
  8
SIZE
  6
CONTINUOUS
 62
    30
 10
510.89670562393258
 20
115.000077
 30
0.0
 40
6.0
  0
LINE
  8
SIZE
  6
CONTINUOUS
 62
    30
 10
510.89670562393258
 20
115.000077
 30
0.0
 11
510.89670562393258
 21
103.000077
 31
0.0
  0
CIRCLE
  8
SIZE
  6
CONTINUOUS
 62
    30
 10
510.89670562393258
 20
-115.0000780000001
 30
0.0
 40
6.0
  0
LINE
  8
SIZE
  6
CONTINUOUS
 62
    30
 10
510.89670562393258
 20
-115.0000780000001
 30
0.0
 11
510.89670562393258
 21
-103.0000780000001
 31
0.0
  0
TEXT
  8
SIZE
  6
CONTINUOUS
 62
    30
 10
485.89670562393258
 20
-74.057143357142806
 30
0.0
 40
64.0
  1
230
 50
90.0
 41
0.9
 72
     1
 11
485.89670562393258
 21
-0.0000004999999419
 31
0.0
  0
POINT
  8
DEFPOINTS
  6
CONTINUOUS
 62
    30
 10
153.56361199999989
 20
115.0000770000001
 30
0.0
  0
POINT
  8
DEFPOINTS
  6
CONTINUOUS
 62
    30
 10
153.56361199999989
 20
-115.000078
 30
0.0
  0
POINT
  8
DEFPOINTS
  6
CONTINUOUS
 62
    30
 10
510.89670562393258
 20
-115.0000780000001
 30
0.0
  0
LINE
  8
SIZE
  6
CONTINUOUS
 62
    30
 10
137.212513046552
 20
156.00003200000009
 30
0.0
 11
762.83435068986819
 21
156.00003199999989
 31
0.0
  0
LINE
  8
SIZE
  6
CONTINUOUS
 62
    30
 10
137.2125148249288
 20
-156.0000329999998
 30
0.0
 11
762.83435068986819
 21
-156.000033
 31
0.0
  0
LINE
  8
SIZE
  6
CONTINUOUS
 62
    30
 10
742.83435068986819
 20
144.00003199999989
 30
0.0
 11
742.83435068986819
 21
-144.000033
 31
0.0
  0
CIRCLE
  8
SIZE
  6
CONTINUOUS
 62
    30
 10
742.83435068986819
 20
156.00003199999989
 30
0.0
 40
6.0
  0
LINE
  8
SIZE
  6
CONTINUOUS
 62
    30
 10
742.83435068986819
 20
156.00003199999989
 30
0.0
 11
742.83435068986819
 21
144.00003199999989
 31
0.0
  0
CIRCLE
  8
SIZE
  6
CONTINUOUS
 62
    30
 10
742.83435068986819
 20
-156.000033
 30
0.0
 40
6.0
  0
LINE
  8
SIZE
  6
CONTINUOUS
 62
    30
 10
742.83435068986819
 20
-156.000033
 30
0.0
 11
742.83435068986819
 21
-144.000033
 31
0.0
  0
TEXT
  8
SIZE
  6
CONTINUOUS
 62
    30
 10
717.83435068986819
 20
-68.571429071428511
 30
0.0
 40
64.0
  1
312
 50
90.0
 41
0.9
 72
     1
 11
717.83435068986819
 21
-0.0000004999999419
 31
0.0
  0
POINT
  8
DEFPOINTS
  6
CONTINUOUS
 62
    30
 10
117.212513046552
 20
156.00003200000009
 30
0.0
  0
POINT
  8
DEFPOINTS
  6
CONTINUOUS
 62
    30
 10
117.2125148249288
 20
-156.0000329999998
 30
0.0
  0
POINT
  8
DEFPOINTS
  6
CONTINUOUS
 62
    30
 10
742.83435068986819
 20
-156.000033
 30
0.0
  0
LINE
  8
SIZE
  6
CONTINUOUS
 62
    30
 10
-138.99971000000011
 20
-297.00270399999988
 30
0.0
 11
-138.99971000000011
 21
-610.7359973628345
 31
0.0
  0
LINE
  8
SIZE
  6
CONTINUOUS
 62
    30
 10
4.9997100000000501
 20
-297.00270399999988
 30
0.0
 11
4.9997100000000501
 21
-610.7359973628345
 31
0.0
  0
LINE
  8
SIZE
  6
CONTINUOUS
 62
    30
 10
-126.99971000000011
 20
-590.7359973628345
 30
0.0
 11
-7.0002899999999499
 21
-590.7359973628345
 31
0.0
  0
LINE
  8
SIZE
  6
CONTINUOUS
 62
    30
 10
4.9997100000000501
 20
-590.7359973628345
 30
0.0
 11
309.96736401699542
 21
-590.7359973628345
 31
0.0
  0
CIRCLE
  8
SIZE
  6
CONTINUOUS
 62
    30
 10
-138.99971000000011
 20
-590.7359973628345
 30
0.0
 40
6.0
  0
LINE
  8
SIZE
  6
CONTINUOUS
 62
    30
 10
-138.99971000000011
 20
-590.7359973628345
 30
0.0
 11
-126.99971000000011
 21
-590.7359973628345
 31
0.0
  0
CIRCLE
  8
SIZE
  6
CONTINUOUS
 62
    30
 10
4.9997100000000501
 20
-590.7359973628345
 30
0.0
 40
6.0
  0
LINE
  8
SIZE
  6
CONTINUOUS
 62
    30
 10
4.9997100000000501
 20
-590.7359973628345
 30
0.0
 11
-7.0002899999999499
 21
-590.7359973628345
 31
0.0
  0
TEXT
  8
SIZE
  6
CONTINUOUS
 62
    30
 10
74.590221159852817
 20
-555.06933069616787
 30
0.0
 40
64.0
  1
φ144
 41
0.9
 72
     1
 11
184.85307830270989
 21
-555.06933069616787
 31
0.0
  0
POINT
  8
DEFPOINTS
  6
CONTINUOUS
 62
    30
 10
-138.99971000000011
 20
-277.00270399999988
 30
0.0
  0
POINT
  8
DEFPOINTS
  6
CONTINUOUS
 62
    30
 10
4.9997100000000501
 20
-277.00270399999988
 30
0.0
  0
POINT
  8
DEFPOINTS
  6
CONTINUOUS
 62
    30
 10
4.9997100000000501
 20
-590.7359973628345
 30
0.0
  0
LINE
  8
SIZE
  6
CONTINUOUS
 62
    30
 10
-143.0
 20
-266.00241399999999
 30
0.0
 11
-143.0
 21
-746.20456449113863
 31
0.0
  0
LINE
  8
SIZE
  6
CONTINUOUS
 62
    30
 10
9.0
 20
-266.00241399999999
 30
0.0
 11
9.0
 21
-746.20456449113863
 31
0.0
  0
LINE
  8
SIZE
  6
CONTINUOUS
 62
    30
 10
-131.0
 20
-726.20456449113863
 30
0.0
 11
-3.0
 21
-726.20456449113863
 31
0.0
  0
LINE
  8
SIZE
  6
CONTINUOUS
 62
    30
 10
9.0
 20
-726.20456449113863
 30
0.0
 11
313.16484885714272
 21
-726.20456449113863
 31
0.0
  0
CIRCLE
  8
SIZE
  6
CONTINUOUS
 62
    30
 10
-143.0
 20
-726.20456449113863
 30
0.0
 40
6.0
  0
LINE
  8
SIZE
  6
CONTINUOUS
 62
    30
 10
-143.0
 20
-726.20456449113863
 30
0.0
 11
-131.0
 21
-726.20456449113863
 31
0.0
  0
CIRCLE
  8
SIZE
  6
CONTINUOUS
 62
    30
 10
9.0
 20
-726.20456449113863
 30
0.0
 40
6.0
  0
LINE
  8
SIZE
  6
CONTINUOUS
 62
    30
 10
9.0
 20
-726.20456449113863
 30
0.0
 11
-3.0
 21
-726.20456449113863
 31
0.0
  0
TEXT
  8
SIZE
  6
CONTINUOUS
 62
    30
 10
80.530563142856906
 20
-690.53789782447211
 30
0.0
 40
64.0
  1
φ152
 41
0.9
 72
     1
 11
189.4219917142855
 21
-690.53789782447211
 31
0.0
  0
POINT
  8
DEFPOINTS
  6
CONTINUOUS
 62
    30
 10
-143.0
 20
-246.00241399999999
 30
0.0
  0
POINT
  8
DEFPOINTS
  6
CONTINUOUS
 62
    30
 10
9.0
 20
-246.00241399999999
 30
0.0
  0
POINT
  8
DEFPOINTS
  6
CONTINUOUS
 62
    30
 10
9.0
 20
-726.20456449113863
 30
0.0
  0
LINE
  8
SIZE
  6
CONTINUOUS
 62
    30
 10
-158.99971000000011
 20
-250.00270399999999
 30
0.0
 11
-298.34626624962311
 21
-250.00270399999999
 31
0.0
  0
LINE
  8
SIZE
  6
CONTINUOUS
 62
    30
 10
-158.99971000000011
 20
-277.00270399999988
 30
0.0
 11
-298.34626624962311
 21
-277.00270399999988
 31
0.0
  0
LINE
  8
SIZE
  6
CONTINUOUS
 62
    30
 10
-278.34626624962311
 20
-238.00270399999999
 30
0.0
 11
-278.34626624962311
 21
-226.00270399999999
 31
0.0
  0
LINE
  8
SIZE
  6
CONTINUOUS
 62
    30
 10
-278.34626624962311
 20
-289.00270399999988
 30
0.0
 11
-278.34626624962362
 21
-444.25984685714258
 31
0.0
  0
LINE
  8
SIZE
  6
CONTINUOUS
 62
    30
 10
-278.34626624962311
 20
-250.00270399999999
 30
0.0
 11
-278.34626624962311
 21
-277.00270399999988
 31
0.0
  0
CIRCLE
  8
SIZE
  6
CONTINUOUS
 62
    30
 10
-278.34626624962311
 20
-250.00270399999999
 30
0.0
 40
6.0
  0
LINE
  8
SIZE
  6
CONTINUOUS
 62
    30
 10
-278.34626624962311
 20
-250.00270399999999
 30
0.0
 11
-278.34626624962311
 21
-238.00270399999999
 31
0.0
  0
CIRCLE
  8
SIZE
  6
CONTINUOUS
 62
    30
 10
-278.34626624962311
 20
-277.00270399999988
 30
0.0
 40
6.0
  0
LINE
  8
SIZE
  6
CONTINUOUS
 62
    30
 10
-278.34626624962311
 20
-277.00270399999988
 30
0.0
 11
-278.34626624962311
 21
-289.00270399999988
 31
0.0
  0
TEXT
  8
SIZE
  6
CONTINUOUS
 62
    30
 10
-303.34626624962311
 20
-419.2598468571428
 30
0.0
 40
64.0
  1
27
 50
90.0
 41
0.9
 72
     1
 11
-303.34626624962311
 21
-372.63127542857143
 31
0.0
  0
POINT
  8
DEFPOINTS
  6
CONTINUOUS
 62
    30
 10
-138.99971000000011
 20
-250.00270399999999
 30
0.0
  0
POINT
  8
DEFPOINTS
  6
CONTINUOUS
 62
    30
 10
-138.99971000000011
 20
-277.00270399999988
 30
0.0
  0
POINT
  8
DEFPOINTS
  6
CONTINUOUS
 62
    30
 10
-278.34626624962311
 20
-277.00270399999988
 30
0.0
  0
LINE
  8
SIZE
  6
CONTINUOUS
 62
    30
 10
-162.5
 20
-220.00270399999999
 30
0.0
 11
-412.71160697561709
 21
-220.00270399999999
 31
0.0
  0
LINE
  8
SIZE
  6
CONTINUOUS
 62
    30
 10
-158.99971000000011
 20
-277.00270399999988
 30
0.0
 11
-412.71160697561709
 21
-277.00270399999988
 31
0.0
  0
LINE
  8
SIZE
  6
CONTINUOUS
 62
    30
 10
-392.71160697561709
 20
-208.00270399999999
 30
0.0
 11
-392.71160697561709
 21
-196.00270399999999
 31
0.0
  0
LINE
  8
SIZE
  6
CONTINUOUS
 62
    30
 10
-392.71160697561709
 20
-289.00270399999988
 30
0.0
 11
-392.71160697561709
 21
-444.25984685714252
 31
0.0
  0
LINE
  8
SIZE
  6
CONTINUOUS
 62
    30
 10
-392.71160697561709
 20
-220.00270399999999
 30
0.0
 11
-392.71160697561709
 21
-277.00270399999988
 31
0.0
  0
CIRCLE
  8
SIZE
  6
CONTINUOUS
 62
    30
 10
-392.71160697561709
 20
-220.00270399999999
 30
0.0
 40
6.0
  0
LINE
  8
SIZE
  6
CONTINUOUS
 62
    30
 10
-392.71160697561709
 20
-220.00270399999999
 30
0.0
 11
-392.71160697561709
 21
-208.00270399999999
 31
0.0
  0
CIRCLE
  8
SIZE
  6
CONTINUOUS
 62
    30
 10
-392.71160697561709
 20
-277.00270399999988
 30
0.0
 40
6.0
  0
LINE
  8
SIZE
  6
CONTINUOUS
 62
    30
 10
-392.71160697561709
 20
-277.00270399999988
 30
0.0
 11
-392.71160697561709
 21
-289.00270399999988
 31
0.0
  0
TEXT
  8
SIZE
  6
CONTINUOUS
 62
    30
 10
-417.71160697561709
 20
-419.2598468571428
 30
0.0
 40
64.0
  1
57
 50
90.0
 41
0.9
 72
     1
 11
-417.71160697561709
 21
-372.63127542857143
 31
0.0
  0
POINT
  8
DEFPOINTS
  6
CONTINUOUS
 62
    30
 10
-142.5
 20
-220.00270399999999
 30
0.0
  0
POINT
  8
DEFPOINTS
  6
CONTINUOUS
 62
    30
 10
-138.99971000000011
 20
-277.00270399999988
 30
0.0
  0
POINT
  8
DEFPOINTS
  6
CONTINUOUS
 62
    30
 10
-392.71160697561709
 20
-277.00270399999988
 30
0.0
  0
LINE
  8
SIZE
  6
CONTINUOUS
 62
    30
 10
-180.39999999999961
 20
-135.00314399999999
 30
0.0
 11
-526.95713930599686
 21
-135.00314399999979
 31
0.0
  0
LINE
  8
SIZE
  6
CONTINUOUS
 62
    30
 10
-158.99971000000011
 20
-277.00270399999988
 30
0.0
 11
-526.95713930599732
 21
-277.00270399999988
 31
0.0
  0
LINE
  8
SIZE
  6
CONTINUOUS
 62
    30
 10
-506.95713930599692
 20
-123.00314399999981
 30
0.0
 11
-506.95713930599692
 21
-111.00314399999981
 31
0.0
  0
LINE
  8
SIZE
  6
CONTINUOUS
 62
    30
 10
-506.95713930599692
 20
-289.00270399999988
 30
0.0
 11
-506.95713930599692
 21
-301.00270399999988
 31
0.0
  0
LINE
  8
SIZE
  6
CONTINUOUS
 62
    30
 10
-506.95713930599692
 20
-135.00314399999979
 30
0.0
 11
-506.95713930599692
 21
-277.00270399999988
 31
0.0
  0
CIRCLE
  8
SIZE
  6
CONTINUOUS
 62
    30
 10
-506.95713930599692
 20
-135.00314399999979
 30
0.0
 40
6.0
  0
LINE
  8
SIZE
  6
CONTINUOUS
 62
    30
 10
-506.95713930599692
 20
-135.00314399999979
 30
0.0
 11
-506.95713930599692
 21
-123.00314399999981
 31
0.0
  0
CIRCLE
  8
SIZE
  6
CONTINUOUS
 62
    30
 10
-506.95713930599692
 20
-277.00270399999988
 30
0.0
 40
6.0
  0
LINE
  8
SIZE
  6
CONTINUOUS
 62
    30
 10
-506.95713930599692
 20
-277.00270399999988
 30
0.0
 11
-506.95713930599692
 21
-289.00270399999988
 31
0.0
  0
TEXT
  8
SIZE
  6
CONTINUOUS
 62
    30
 10
-531.95713930599686
 20
-274.57435257142862
 30
0.0
 40
64.0
  1
142
 50
90.0
 41
0.9
 72
     1
 11
-531.95713930599686
 21
-206.00292400000001
 31
0.0
  0
POINT
  8
DEFPOINTS
  6
CONTINUOUS
 62
    30
 10
-160.39999999999961
 20
-135.00314399999999
 30
0.0
  0
POINT
  8
DEFPOINTS
  6
CONTINUOUS
 62
    30
 10
-138.99971000000011
 20
-277.00270399999988
 30
0.0
  0
POINT
  8
DEFPOINTS
  6
CONTINUOUS
 62
    30
 10
-506.95713930599692
 20
-277.00270399999988
 30
0.0
  0
CIRCLE
  8
FIX
  6
CONTINUOUS
 62
    11
 10
115.000078
 20
146.00009700000001
 30
0.0
 40
10.0
  0
CIRCLE
  8
FIX
  6
CONTINUOUS
 62
    11
 10
146.00009899999989
 20
115.0000775
 30
0.0
 40
10.0
  0
CIRCLE
  8
FIX
  6
CONTINUOUS
 62
    11
 10
146.00009899999989
 20
-115.000078
 30
0.0
 40
10.0
  0
CIRCLE
  8
FIX
  6
CONTINUOUS
 62
    11
 10
115.000078
 20
-146.00009800000001
 30
0.0
 40
10.0
  0
TEXT
  8
ETC
  6
CONTINUOUS
 62
    61
 10
648.59106536950594
 20
839.21111798663605
 30
0.0
 40
64.0
  1
VD-18ZV6_1
 41
0.9
  0
TEXT
  8
ETC
  6
CONTINUOUS
 62
    61
 10
644.40507136950555
 20
721.25580797180464
 30
0.0
 40
64.0
  1
換気扇
 41
0.9
  0
TEXT
  8
ETC
  6
CONTINUOUS
 62
    61
 10
695.10646961806151
 20
613.10703508557958
 30
0.0
 40
40.0
  1
VD-18ZV6
 41
0.9
  0
LINE
  8
DETAIL
  6
CONTINUOUS
 62
     5
 10
-159.25
 20
-136.10300000000009
 30
0.0
 11
-159.25
 21
-135.59999999999999
 31
0.0
  0
LINE
  8
DETAIL
  6
CONTINUOUS
 62
     5
 10
9.0
 20
-220.00270399999999
 30
0.0
 11
-142.5
 21
-220.00270399999999
 31
0.0
  0
LINE
  8
DETAIL
  6
CONTINUOUS
 62
     5
 10
25.25
 20
-136.10300000000009
 30
0.0
 11
-159.25
 21
-136.10300000000009
 31
0.0
  0
LINE
  8
DETAIL
  6
CONTINUOUS
 62
     5
 10
-134.0
 20
-135.00314399999999
 30
0.0
 11
-160.39999999999961
 21
-135.00314399999999
 31
0.0
  0
LINE
  8
DETAIL
  6
CONTINUOUS
 62
     5
 10
-136.19999999999979
 20
-134.40314399999991
 30
0.0
 11
-160.39999999999961
 21
-134.40314399999991
 31
0.0
  0
LINE
  8
DETAIL
  6
CONTINUOUS
 62
     5
 10
5.1793509999997704
 20
-250.00270399999999
 30
0.0
 11
-139.1793509999998
 21
-250.00270399999999
 31
0.0
  0
LINE
  8
DETAIL
  6
CONTINUOUS
 62
     5
 10
8.7754489999997531
 20
-246.00241399999999
 30
0.0
 11
-142.77544899999981
 21
-246.00241399999999
 31
0.0
  0
LINE
  8
DETAIL
  6
CONTINUOUS
 62
     5
 10
-135.59999999999991
 20
-124.9999999999999
 30
0.0
 11
-135.59999999999991
 21
-133.803144
 31
0.0
  0
ARC
  8
DETAIL
  6
CONTINUOUS
 62
     5
 10
-136.19999999999979
 20
-133.803144
 30
0.0
 40
0.6
 50
270.0
 51
0.0
  0
ARC
  8
DETAIL
  6
CONTINUOUS
 62
     5
 10
-136.19999999999979
 20
-133.803144
 30
0.0
 40
1.2
 50
270.0
 51
0.0
  0
ARC
  8
DETAIL
  6
CONTINUOUS
 62
     5
 10
-160.39999999999961
 20
-135.00314399999999
 30
0.0
 40
0.6
 50
90.0
 51
270.0
  0
ARC
  8
DETAIL
  6
CONTINUOUS
 62
     5
 10
-148.0
 20
-137.10300000000009
 30
0.0
 40
1.0
 50
0.0
 51
90.0
  0
ARC
  8
DETAIL
  6
CONTINUOUS
 62
     5
 10
14.0
 20
-137.10300000000009
 30
0.0
 40
1.0
 50
90.0
 51
180.0
  0
LINE
  8
DETAIL
  6
CONTINUOUS
 62
     5
 10
25.25
 20
-136.10300000000009
 30
0.0
 11
25.25
 21
-135.59999999999999
 31
0.0
  0
LINE
  8
DETAIL
  6
CONTINUOUS
 62
     5
 10
-107.0
 20
-135.6031439999999
 30
0.0
 11
-107.0
 21
-123.603144
 31
0.0
  0
LINE
  8
DETAIL
  6
CONTINUOUS
 62
     5
 10
-7.0
 20
-135.6031439999999
 30
0.0
 11
-7.0
 21
-123.603144
 31
0.0
  0
LINE
  8
DETAIL
  6
CONTINUOUS
 62
     5
 10
-7.0
 20
-130.00314399999999
 30
0.0
 11
-107.0
 21
-130.00314399999999
 31
0.0
  0
LINE
  8
DETAIL
  6
CONTINUOUS
 62
     5
 10
-10.0
 20
-120.603144
 30
0.0
 11
-104.0
 21
-120.603144
 31
0.0
  0
ARC
  8
DETAIL
  6
CONTINUOUS
 62
     5
 10
-10.0
 20
-123.603144
 30
0.0
 40
3.0
 50
0.0
 51
90.0
  0
ARC
  8
DETAIL
  6
CONTINUOUS
 62
     5
 10
-104.0
 20
-123.603144
 30
0.0
 40
3.0
 50
90.0
 51
180.0
  0
LINE
  8
DETAIL
  6
CONTINUOUS
 62
     5
 10
36.0
 20
-135.6031439999999
 30
0.0
 11
-160.39999999999961
 21
-135.6031439999999
 31
0.0
  0
LINE
  8
DETAIL
  6
CONTINUOUS
 62
     5
 10
36.0
 20
-134.99999999999989
 30
0.0
 11
36.0
 21
-135.6031439999999
 31
0.0
  0
CIRCLE
  8
DETAIL
  6
CONTINUOUS
 62
     5
 10
21.0
 20
1.0
 30
0.0
 40
41.0
  0
LINE
  8
DETAIL
  6
CONTINUOUS
 62
     5
 10
135.0
 20
-133.99999999999989
 30
0.0
 11
135.0
 21
133.99999999999989
 31
0.0
  0
LINE
  8
DETAIL
  6
CONTINUOUS
 62
     5
 10
-135.0
 20
133.99999999999989
 30
0.0
 11
-135.0
 21
-133.99999999999989
 31
0.0
  0
LINE
  8
DETAIL
  6
CONTINUOUS
 62
     5
 10
-7.0
 20
-134.99999999999989
 30
0.0
 11
134.0
 21
-134.99999999999989
 31
0.0
  0
LINE
  8
DETAIL
  6
CONTINUOUS
 62
     5
 10
134.0
 20
134.99999999999989
 30
0.0
 11
-134.0
 21
134.99999999999989
 31
0.0
  0
ARC
  8
DETAIL
  6
CONTINUOUS
 62
     5
 10
134.0
 20
133.99999999999989
 30
0.0
 40
1.0
 50
0.0000539999976182
 51
90.0
  0
ARC
  8
DETAIL
  6
CONTINUOUS
 62
     5
 10
-134.0
 20
-133.99999999999989
 30
0.0
 40
1.0
 50
180.00007299999169
 51
270.0
  0
LINE
  8
DETAIL
  6
CONTINUOUS
 62
     5
 10
-134.0
 20
-134.99999999999989
 30
0.0
 11
-107.0
 21
-134.99999999999989
 31
0.0
  0
ARC
  8
DETAIL
  6
CONTINUOUS
 62
     5
 10
134.0
 20
-133.99999999999989
 30
0.0
 40
1.0
 50
270.00007199999681
 51
359.9999989999921
  0
ARC
  8
DETAIL
  6
CONTINUOUS
 62
     5
 10
-134.0
 20
133.99999999999989
 30
0.0
 40
1.0
 50
90.0
 51
179.9999269999953
  0
ARC
  8
DETAIL
  6
CONTINUOUS
 62
     5
 10
147.50009899999989
 20
115.0000770000001
 30
0.0
 40
2.5000019999999998
 50
270.0
 51
90.0
  0
LINE
  8
DETAIL
  6
CONTINUOUS
 62
     5
 10
156.00009800000001
 20
117.2125178249289
 30
0.0
 11
152.90152599999959
 21
128.77654400000009
 31
0.0
  0
ARC
  8
DETAIL
  6
CONTINUOUS
 62
     5
 10
150.00374699999969
 20
128.00008600000001
 30
0.0
 40
3.0000019999999998
 50
14.999999999994451
 51
90.0
  0
ARC
  8
DETAIL
  6
CONTINUOUS
 62
     5
 10
142.33911199999969
 20
133.23419100000001
 30
0.0
 40
10.000007
 50
0.0
 51
45.556491999990982
  0
LINE
  8
DETAIL
  6
CONTINUOUS
 62
     5
 10
152.33911900000021
 20
129.88318100000001
 30
0.0
 11
152.33911900000021
 21
133.23419100000001
 31
0.0
  0
LINE
  8
DETAIL
  6
CONTINUOUS
 62
     5
 10
147.50009899999989
 20
112.50007600000001
 30
0.0
 11
144.5000970000001
 21
112.50007600000001
 31
0.0
  0
ARC
  8
DETAIL
  6
CONTINUOUS
 62
     5
 10
144.5000970000001
 20
115.0000770000001
 30
0.0
 40
2.5000019999999998
 50
90.0
 51
270.0
  0
LINE
  8
DETAIL
  6
CONTINUOUS
 62
     5
 10
147.50009899999989
 20
117.5000790000001
 30
0.0
 11
144.5000970000001
 21
117.5000790000001
 31
0.0
  0
LINE
  8
DETAIL
  6
CONTINUOUS
 62
     5
 10
112.50007600000031
 20
144.50009700000001
 30
0.0
 11
112.50007600000031
 21
147.50009900000001
 31
0.0
  0
ARC
  8
DETAIL
  6
CONTINUOUS
 62
     5
 10
115.000078
 20
144.50009700000001
 30
0.0
 40
2.5000019999999998
 50
179.99998200000081
 51
0.0
  0
LINE
  8
DETAIL
  6
CONTINUOUS
 62
     5
 10
117.5000790000004
 20
144.50009700000001
 30
0.0
 11
117.5000790000004
 21
147.50009900000001
 31
0.0
  0
ARC
  8
DETAIL
  6
CONTINUOUS
 62
     5
 10
115.000078
 20
147.50009900000001
 30
0.0
 40
2.5000019999999998
 50
0.0
 51
179.99998200000081
  0
LINE
  8
DETAIL
  6
CONTINUOUS
 62
     5
 10
117.212513046552
 20
156.00003200000009
 30
0.0
 11
128.77654100000021
 21
152.90146100000021
 31
0.0
  0
ARC
  8
DETAIL
  6
CONTINUOUS
 62
     5
 10
128.00008400000019
 20
150.00368100000011
 30
0.0
 40
3.0000019999999998
 50
0.0
 51
75.000000000005542
  0
ARC
  8
DETAIL
  6
CONTINUOUS
 62
     5
 10
133.23418899999979
 20
142.33911499999991
 30
0.0
 40
10.000007
 50
44.443507999995198
 51
90.0
  0
LINE
  8
DETAIL
  6
CONTINUOUS
 62
     5
 10
140.3736049999998
 20
149.34117699999999
 30
0.0
 11
144.8138390000004
 21
144.81384199999999
 31
0.0
  0
LINE
  8
DETAIL
  6
CONTINUOUS
 62
     5
 10
149.34117400000011
 20
140.37360799999999
 30
0.0
 11
144.8138390000004
 21
144.81384199999999
 31
0.0
  0
LINE
  8
DETAIL
  6
CONTINUOUS
 62
     5
 10
129.88309500000011
 20
152.339122
 30
0.0
 11
133.23418899999979
 21
152.339122
 31
0.0
  0
LINE
  8
DETAIL
  6
CONTINUOUS
 62
     5
 10
0.0
 20
156.00003200000009
 30
0.0
 11
117.212513046552
 21
156.00003200000009
 31
0.0
  0
LINE
  8
DETAIL
  6
CONTINUOUS
 62
     5
 10
156.00009800000001
 20
0.0
 30
0.0
 11
156.00009800000001
 21
117.2125178249289
 31
0.0
  0
LINE
  8
DETAIL
  6
CONTINUOUS
 62
     5
 10
150.00374699999969
 20
131.00008799999989
 30
0.0
 11
135.0
 21
131.00008799999989
 31
0.0
  0
LINE
  8
DETAIL
  6
CONTINUOUS
 62
     5
 10
131.00008600000001
 20
150.00368100000011
 30
0.0
 11
131.00008600000001
 21
134.99999999999989
 31
0.0
  0
LINE
  8
NOTE
  6
CENTER
 62
     4
 10
146.00009899999989
 20
122.5000790000001
 30
0.0
 11
146.00009899999989
 21
107.50007600000001
 31
0.0
  0
LINE
  8
NOTE
  6
CENTER
 62
     4
 10
122.5000790000004
 20
146.00009700000001
 30
0.0
 11
107.50007600000031
 21
146.00009700000001
 31
0.0
  0
LINE
  8
NOTE
  6
CENTER
 62
     4
 10
153.56361199999989
 20
115.0000770000001
 30
0.0
 11
138.77757199999999
 21
115.0000770000001
 31
0.0
  0
LINE
  8
NOTE
  6
CENTER
 62
     4
 10
115.000078
 20
152.52101800000011
 30
0.0
 11
115.000078
 21
138.75470500000009
 31
0.0
  0
CIRCLE
  8
DETAIL
  6
CONTINUOUS
 62
     5
 10
111.40008399999989
 20
-99.400061000000051
 30
0.0
 40
9.5000060000000008
  0
LINE
  8
NOTE
  6
CENTER
 62
     4
 10
111.40008399999989
 20
-84.900055000000066
 30
0.0
 11
111.40008399999989
 21
-113.900068
 31
0.0
  0
LINE
  8
NOTE
  6
CENTER
 62
     4
 10
125.900091
 20
-99.400061000000051
 30
0.0
 11
96.900077999999667
 21
-99.400061000000051
 31
0.0
  0
LINE
  8
DETAIL
  6
CONTINUOUS
 62
     5
 10
-112.50007600000031
 20
144.50009700000001
 30
0.0
 11
-112.50007600000031
 21
147.50009900000001
 31
0.0
  0
ARC
  8
DETAIL
  6
CONTINUOUS
 62
     5
 10
-115.000078
 20
144.50009700000001
 30
0.0
 40
2.5000019999999998
 50
180.0
 51
0.0000179999992061
  0
LINE
  8
DETAIL
  6
CONTINUOUS
 62
     5
 10
-117.5000789999999
 20
144.50009700000001
 30
0.0
 11
-117.5000789999999
 21
147.50009900000001
 31
0.0
  0
ARC
  8
DETAIL
  6
CONTINUOUS
 62
     5
 10
-115.000078
 20
147.50009900000001
 30
0.0
 40
2.5000019999999998
 50
0.0000179999992061
 51
180.0
  0
LINE
  8
DETAIL
  6
CONTINUOUS
 62
     5
 10
-117.212513046552
 20
156.00003200000009
 30
0.0
 11
-128.77654100000021
 21
152.90146100000021
 31
0.0
  0
ARC
  8
DETAIL
  6
CONTINUOUS
 62
     5
 10
-128.00008400000019
 20
150.00368100000011
 30
0.0
 40
3.0000019999999998
 50
104.9999999999945
 51
180.0
  0
LINE
  8
DETAIL
  6
CONTINUOUS
 62
     5
 10
-129.88309500000011
 20
152.339122
 30
0.0
 11
-133.23418899999979
 21
152.339122
 31
0.0
  0
LINE
  8
DETAIL
  6
CONTINUOUS
 62
     5
 10
0.0
 20
156.00003200000009
 30
0.0
 11
-117.212513046552
 21
156.00003200000009
 31
0.0
  0
LINE
  8
DETAIL
  6
CONTINUOUS
 62
     5
 10
-131.00008600000001
 20
150.00368100000011
 30
0.0
 11
-131.00008600000001
 21
134.99999999999989
 31
0.0
  0
LINE
  8
NOTE
  6
CENTER
 62
     4
 10
-122.5000789999999
 20
146.00009700000001
 30
0.0
 11
-107.50007600000031
 21
146.00009700000001
 31
0.0
  0
LINE
  8
NOTE
  6
CENTER
 62
     4
 10
-115.000078
 20
152.52101800000011
 30
0.0
 11
-115.000078
 21
138.75470500000009
 31
0.0
  0
ARC
  8
DETAIL
  6
CONTINUOUS
 62
     5
 10
-147.50009899999989
 20
115.0000770000001
 30
0.0
 40
2.5000019999999998
 50
90.0
 51
270.0
  0
LINE
  8
DETAIL
  6
CONTINUOUS
 62
     5
 10
-156.0000979999995
 20
117.2125178249285
 30
0.0
 11
-152.90152599999959
 21
128.77654400000009
 31
0.0
  0
ARC
  8
DETAIL
  6
CONTINUOUS
 62
     5
 10
-150.00374699999969
 20
128.00008600000001
 30
0.0
 40
3.0000019999999998
 50
90.0
 51
165.0000000000056
  0
ARC
  8
DETAIL
  6
CONTINUOUS
 62
     5
 10
-142.33911199999969
 20
133.23419100000001
 30
0.0
 40
10.000007
 50
134.44350800000899
 51
180.0
  0
LINE
  8
DETAIL
  6
CONTINUOUS
 62
     5
 10
-152.33911900000021
 20
129.88318100000001
 30
0.0
 11
-152.33911900000021
 21
133.23419100000001
 31
0.0
  0
LINE
  8
DETAIL
  6
CONTINUOUS
 62
     5
 10
-147.50009899999989
 20
112.50007600000001
 30
0.0
 11
-144.5000970000001
 21
112.50007600000001
 31
0.0
  0
ARC
  8
DETAIL
  6
CONTINUOUS
 62
     5
 10
-144.5000970000001
 20
115.0000770000001
 30
0.0
 40
2.5000019999999998
 50
270.0
 51
90.0
  0
LINE
  8
DETAIL
  6
CONTINUOUS
 62
     5
 10
-147.50009899999989
 20
117.5000790000001
 30
0.0
 11
-144.5000970000001
 21
117.5000790000001
 31
0.0
  0
ARC
  8
DETAIL
  6
CONTINUOUS
 62
     5
 10
-133.23418899999979
 20
142.33911499999991
 30
0.0
 40
10.000007
 50
90.0
 51
135.55649200000479
  0
LINE
  8
DETAIL
  6
CONTINUOUS
 62
     5
 10
-140.3736049999998
 20
149.34117699999999
 30
0.0
 11
-144.81383899999989
 21
144.81384199999999
 31
0.0
  0
LINE
  8
DETAIL
  6
CONTINUOUS
 62
     5
 10
-149.34117400000011
 20
140.37360799999999
 30
0.0
 11
-144.81383899999989
 21
144.81384199999999
 31
0.0
  0
LINE
  8
DETAIL
  6
CONTINUOUS
 62
     5
 10
-156.0000979999995
 20
0.0
 30
0.0
 11
-156.0000979999995
 21
117.2125178249285
 31
0.0
  0
LINE
  8
DETAIL
  6
CONTINUOUS
 62
     5
 10
-150.00374699999969
 20
131.00008799999989
 30
0.0
 11
-135.0
 21
131.00008799999989
 31
0.0
  0
LINE
  8
NOTE
  6
CENTER
 62
     4
 10
-146.00009899999989
 20
122.5000790000001
 30
0.0
 11
-146.00009899999989
 21
107.50007600000001
 31
0.0
  0
LINE
  8
NOTE
  6
CENTER
 62
     4
 10
-153.56361199999989
 20
115.0000770000001
 30
0.0
 11
-138.77757199999999
 21
115.0000770000001
 31
0.0
  0
ARC
  8
DETAIL
  6
CONTINUOUS
 62
     5
 10
-147.50009899999989
 20
-115.000078
 30
0.0
 40
2.5000019999999998
 50
90.0
 51
270.0
  0
LINE
  8
DETAIL
  6
CONTINUOUS
 62
     5
 10
-156.0000979999995
 20
-117.2125178249283
 30
0.0
 11
-152.90152599999959
 21
-128.77654400000009
 31
0.0
  0
ARC
  8
DETAIL
  6
CONTINUOUS
 62
     5
 10
-150.00374699999969
 20
-128.00008700000001
 30
0.0
 40
3.0000019999999998
 50
194.9999999999944
 51
270.0
  0
LINE
  8
DETAIL
  6
CONTINUOUS
 62
     5
 10
-152.33911900000021
 20
-129.88318200000001
 30
0.0
 11
-152.33911900000021
 21
-133.23419200000001
 31
0.0
  0
LINE
  8
DETAIL
  6
CONTINUOUS
 62
     5
 10
-147.50009899999989
 20
-112.50007600000001
 30
0.0
 11
-144.5000970000001
 21
-112.50007600000001
 31
0.0
  0
ARC
  8
DETAIL
  6
CONTINUOUS
 62
     5
 10
-144.5000970000001
 20
-115.000078
 30
0.0
 40
2.5000019999999998
 50
270.0
 51
90.0
  0
LINE
  8
DETAIL
  6
CONTINUOUS
 62
     5
 10
-147.50009899999989
 20
-117.50008
 30
0.0
 11
-144.5000970000001
 21
-117.50008
 31
0.0
  0
LINE
  8
DETAIL
  6
CONTINUOUS
 62
     5
 10
-156.0000979999995
 20
0.0
 30
0.0
 11
-156.0000979999995
 21
-117.2125178249283
 31
0.0
  0
LINE
  8
DETAIL
  6
CONTINUOUS
 62
     5
 10
-150.00374699999969
 20
-131.00008899999989
 30
0.0
 11
-135.0
 21
-131.00008899999989
 31
0.0
  0
LINE
  8
NOTE
  6
CENTER
 62
     4
 10
-146.00009899999989
 20
-122.50008
 30
0.0
 11
-146.00009899999989
 21
-107.50007600000001
 31
0.0
  0
LINE
  8
NOTE
  6
CENTER
 62
     4
 10
-153.56361199999989
 20
-115.000078
 30
0.0
 11
-138.77757199999999
 21
-115.000078
 31
0.0
  0
LINE
  8
DETAIL
  6
CONTINUOUS
 62
     5
 10
112.50007600000031
 20
-144.50009800000001
 30
0.0
 11
112.50007600000031
 21
-147.5001
 31
0.0
  0
ARC
  8
DETAIL
  6
CONTINUOUS
 62
     5
 10
115.000078
 20
-144.50009800000001
 30
0.0
 40
2.5000019999999998
 50
0.0
 51
180.00001799999919
  0
LINE
  8
DETAIL
  6
CONTINUOUS
 62
     5
 10
117.5000790000004
 20
-144.50009800000001
 30
0.0
 11
117.5000790000004
 21
-147.5001
 31
0.0
  0
ARC
  8
DETAIL
  6
CONTINUOUS
 62
     5
 10
115.000078
 20
-147.5001
 30
0.0
 40
2.5000019999999998
 50
180.00001799999919
 51
0.0
  0
LINE
  8
DETAIL
  6
CONTINUOUS
 62
     5
 10
117.2125148249288
 20
-156.0000329999998
 30
0.0
 11
128.77654100000021
 21
-152.90146100000001
 31
0.0
  0
ARC
  8
DETAIL
  6
CONTINUOUS
 62
     5
 10
128.00008400000019
 20
-150.003682
 30
0.0
 40
3.0000019999999998
 50
284.99999999999437
 51
0.0
  0
LINE
  8
DETAIL
  6
CONTINUOUS
 62
     5
 10
129.88309500000011
 20
-152.33912199999989
 30
0.0
 11
133.23418899999979
 21
-152.33912199999989
 31
0.0
  0
LINE
  8
DETAIL
  6
CONTINUOUS
 62
     5
 10
131.00008600000001
 20
-150.003682
 30
0.0
 11
131.00008600000001
 21
-134.99999999999989
 31
0.0
  0
LINE
  8
NOTE
  6
CENTER
 62
     4
 10
122.5000790000004
 20
-146.00009800000001
 30
0.0
 11
107.50007600000031
 21
-146.00009800000001
 31
0.0
  0
LINE
  8
NOTE
  6
CENTER
 62
     4
 10
115.000078
 20
-152.521018
 30
0.0
 11
115.000078
 21
-138.75470500000009
 31
0.0
  0
ARC
  8
DETAIL
  6
CONTINUOUS
 62
     5
 10
147.50009899999989
 20
-115.000078
 30
0.0
 40
2.5000019999999998
 50
270.0
 51
90.0
  0
LINE
  8
DETAIL
  6
CONTINUOUS
 62
     5
 10
156.00009800000001
 20
-117.2125178249286
 30
0.0
 11
152.90152599999959
 21
-128.77654400000009
 31
0.0
  0
ARC
  8
DETAIL
  6
CONTINUOUS
 62
     5
 10
150.00374699999969
 20
-128.00008700000001
 30
0.0
 40
3.0000019999999998
 50
270.0
 51
345.00000000000563
  0
ARC
  8
DETAIL
  6
CONTINUOUS
 62
     5
 10
142.33911199999969
 20
-133.23419200000001
 30
0.0
 40
10.000007
 50
314.44350800000899
 51
0.0
  0
LINE
  8
DETAIL
  6
CONTINUOUS
 62
     5
 10
152.33911900000021
 20
-129.88318200000001
 30
0.0
 11
152.33911900000021
 21
-133.23419200000001
 31
0.0
  0
LINE
  8
DETAIL
  6
CONTINUOUS
 62
     5
 10
147.50009899999989
 20
-112.50007600000001
 30
0.0
 11
144.5000970000001
 21
-112.50007600000001
 31
0.0
  0
ARC
  8
DETAIL
  6
CONTINUOUS
 62
     5
 10
144.5000970000001
 20
-115.000078
 30
0.0
 40
2.5000019999999998
 50
90.0
 51
270.0
  0
LINE
  8
DETAIL
  6
CONTINUOUS
 62
     5
 10
147.50009899999989
 20
-117.50008
 30
0.0
 11
144.5000970000001
 21
-117.50008
 31
0.0
  0
ARC
  8
DETAIL
  6
CONTINUOUS
 62
     5
 10
133.23418899999979
 20
-142.3391159999999
 30
0.0
 40
10.000007
 50
270.0
 51
315.55649200000482
  0
LINE
  8
DETAIL
  6
CONTINUOUS
 62
     5
 10
140.3736049999998
 20
-149.34117699999999
 30
0.0
 11
144.8138390000004
 21
-144.81384199999999
 31
0.0
  0
LINE
  8
DETAIL
  6
CONTINUOUS
 62
     5
 10
149.34117400000011
 20
-140.3736079999999
 30
0.0
 11
144.8138390000004
 21
-144.81384199999999
 31
0.0
  0
LINE
  8
DETAIL
  6
CONTINUOUS
 62
     5
 10
156.00009800000001
 20
0.0
 30
0.0
 11
156.00009800000001
 21
-117.2125178249286
 31
0.0
  0
LINE
  8
DETAIL
  6
CONTINUOUS
 62
     5
 10
150.00374699999969
 20
-131.00008899999989
 30
0.0
 11
135.0
 21
-131.00008899999989
 31
0.0
  0
LINE
  8
NOTE
  6
CENTER
 62
     4
 10
146.00009899999989
 20
-122.50008
 30
0.0
 11
146.00009899999989
 21
-107.50007600000001
 31
0.0
  0
LINE
  8
NOTE
  6
CENTER
 62
     4
 10
153.56361199999989
 20
-115.000078
 30
0.0
 11
138.77757199999999
 21
-115.000078
 31
0.0
  0
LINE
  8
DETAIL
  6
CONTINUOUS
 62
     5
 10
14.0
 20
-156.000033
 30
0.0
 11
117.2125148249288
 21
-156.0000329999998
 31
0.0
  0
LINE
  8
BASIS
  6
DASHDOT
 62
     6
 10
-67.0
 20
-295.07680199999999
 30
0.0
 11
-67.0
 21
-93.078281000000061
 31
0.0
  0
LINE
  8
DETAIL
  6
CONTINUOUS
 62
     5
 10
13.0
 20
-137.10300000000009
 30
0.0
 11
13.0
 21
-211.32435599999999
 31
0.0
  0
LINE
  8
DETAIL
  6
CONTINUOUS
 62
     5
 10
9.0
 20
-219.16112200000001
 30
0.0
 11
13.0
 21
-211.32435599999999
 31
0.0
  0
LINE
  8
DETAIL
  6
CONTINUOUS
 62
     5
 10
9.0
 20
-246.00241399999999
 30
0.0
 11
9.0
 21
-219.16112200000001
 31
0.0
  0
LINE
  8
DETAIL
  6
CONTINUOUS
 62
     5
 10
4.9997100000000501
 20
-250.00270399999999
 30
0.0
 11
9.0
 21
-246.00241399999999
 31
0.0
  0
LINE
  8
DETAIL
  6
CONTINUOUS
 62
     5
 10
4.9997100000000501
 20
-250.00270399999999
 30
0.0
 11
4.9997100000000501
 21
-277.00270399999988
 31
0.0
  0
LINE
  8
DETAIL
  6
CONTINUOUS
 62
     5
 10
4.9997100000000501
 20
-277.00270399999988
 30
0.0
 11
-138.99971000000011
 21
-277.00270399999988
 31
0.0
  0
LINE
  8
DETAIL
  6
CONTINUOUS
 62
     5
 10
-138.99971000000011
 20
-250.00270399999999
 30
0.0
 11
-138.99971000000011
 21
-277.00270399999988
 31
0.0
  0
LINE
  8
DETAIL
  6
CONTINUOUS
 62
     5
 10
-138.99971000000011
 20
-250.00270399999999
 30
0.0
 11
-143.0
 21
-246.00241399999999
 31
0.0
  0
LINE
  8
DETAIL
  6
CONTINUOUS
 62
     5
 10
-143.0
 20
-246.00241399999999
 30
0.0
 11
-143.0
 21
-219.16112200000001
 31
0.0
  0
LINE
  8
DETAIL
  6
CONTINUOUS
 62
     5
 10
-147.0
 20
-137.10300000000009
 30
0.0
 11
-147.0
 21
-211.32435599999999
 31
0.0
  0
LINE
  8
DETAIL
  6
CONTINUOUS
 62
     5
 10
-143.0
 20
-219.16112200000001
 30
0.0
 11
-147.0
 21
-211.32435599999999
 31
0.0
  0
ARC
  8
DETAIL
  6
CONTINUOUS
 62
     5
 10
-155.0001050000001
 20
-155.00010499999999
 30
0.0
 40
12.000007999999999
 50
179.99998200000081
 51
270.00001899998108
  0
LINE
  8
DETAIL
  6
CONTINUOUS
 62
     5
 10
-167.00011300000011
 20
-155.00010499999999
 30
0.0
 11
-167.00011300000011
 21
155.00010399999999
 31
0.0
  0
ARC
  8
DETAIL
  6
CONTINUOUS
 62
     5
 10
-155.0001050000001
 20
155.00010399999999
 30
0.0
 40
12.000007999999999
 50
89.999980999992871
 51
180.00001799999919
  0
LINE
  8
DETAIL
  6
CONTINUOUS
 62
     5
 10
-155.0001050000001
 20
-167.0001130000002
 30
0.0
 11
0.0
 21
-167.0001130000002
 31
0.0
  0
LINE
  8
DETAIL
  6
CONTINUOUS
 62
     5
 10
-155.0001050000001
 20
167.00011200000009
 30
0.0
 11
0.0
 21
167.00011200000009
 31
0.0
  0
LINE
  8
DETAIL
  6
CONTINUOUS
 62
     5
 10
155.0001050000001
 20
-167.0001130000002
 30
0.0
 11
0.0
 21
-167.0001130000002
 31
0.0
  0
ARC
  8
DETAIL
  6
CONTINUOUS
 62
     5
 10
155.0001050000001
 20
-155.00010499999999
 30
0.0
 40
12.000007999999999
 50
269.99998099999289
 51
0.0000179999992061
  0
LINE
  8
DETAIL
  6
CONTINUOUS
 62
     5
 10
167.00011300000011
 20
-155.00010499999999
 30
0.0
 11
167.00011300000011
 21
155.00010399999999
 31
0.0
  0
ARC
  8
DETAIL
  6
CONTINUOUS
 62
     5
 10
155.0001050000001
 20
155.00010399999999
 30
0.0
 40
12.000007999999999
 50
359.99998200000078
 51
90.000018999981066
  0
LINE
  8
DETAIL
  6
CONTINUOUS
 62
     5
 10
155.0001050000001
 20
167.00011200000009
 30
0.0
 11
0.0
 21
167.00011200000009
 31
0.0
  0
ARC
  8
DETAIL
  6
CONTINUOUS
 62
     5
 10
-142.33911199999969
 20
-133.23419200000001
 30
0.0
 40
10.000007
 50
180.0
 51
186.7129430000011
  0
LINE
  8
OUTLINE
  6
CONTINUOUS
 62
     3
 10
9.0
 20
-219.16112199999989
 30
0.0
 11
13.0
 21
-211.32435599999999
 31
0.0
  0
LINE
  8
OUTLINE
  6
CONTINUOUS
 62
     3
 10
9.0
 20
-246.00241399999999
 30
0.0
 11
9.0
 21
-219.16112199999989
 31
0.0
  0
LINE
  8
OUTLINE
  6
CONTINUOUS
 62
     3
 10
4.9997100000000501
 20
-250.00270399999999
 30
0.0
 11
9.0
 21
-246.00241399999999
 31
0.0
  0
LINE
  8
OUTLINE
  6
CONTINUOUS
 62
     3
 10
4.9997100000000501
 20
-250.00270399999999
 30
0.0
 11
4.9997100000000501
 21
-277.00270399999988
 31
0.0
  0
LINE
  8
OUTLINE
  6
CONTINUOUS
 62
     3
 10
4.9997100000000501
 20
-277.00270399999988
 30
0.0
 11
-138.99971000000011
 21
-277.00270399999988
 31
0.0
  0
LINE
  8
OUTLINE
  6
CONTINUOUS
 62
     3
 10
-138.99971000000011
 20
-250.00270399999999
 30
0.0
 11
-138.99971000000011
 21
-277.00270399999988
 31
0.0
  0
LINE
  8
OUTLINE
  6
CONTINUOUS
 62
     3
 10
-138.99971000000011
 20
-250.00270399999999
 30
0.0
 11
-143.0
 21
-246.00241399999999
 31
0.0
  0
LINE
  8
OUTLINE
  6
CONTINUOUS
 62
     3
 10
-143.0
 20
-246.00241399999999
 30
0.0
 11
-143.0
 21
-219.16112199999989
 31
0.0
  0
LINE
  8
OUTLINE
  6
CONTINUOUS
 62
     3
 10
-143.0
 20
-219.16112199999989
 30
0.0
 11
-147.0
 21
-211.32435599999999
 31
0.0
  0
ARC
  8
OUTLINE
  6
CONTINUOUS
 62
     3
 10
-155.0001050000001
 20
-155.00010499999979
 30
0.0
 40
12.000007999999999
 50
179.99998200000081
 51
270.00001899998108
  0
LINE
  8
OUTLINE
  6
CONTINUOUS
 62
     3
 10
-167.00011300000011
 20
-155.00010499999979
 30
0.0
 11
-167.00011300000011
 21
155.00010399999999
 31
0.0
  0
ARC
  8
OUTLINE
  6
CONTINUOUS
 62
     3
 10
-155.0001050000001
 20
155.00010399999999
 30
0.0
 40
12.000007999999999
 50
89.999980999992871
 51
180.00001799999919
  0
LINE
  8
OUTLINE
  6
CONTINUOUS
 62
     3
 10
-155.0001050000001
 20
167.0001119999998
 30
0.0
 11
0.0
 21
167.0001119999998
 31
0.0
  0
ARC
  8
OUTLINE
  6
CONTINUOUS
 62
     3
 10
155.0001050000001
 20
-155.00010499999979
 30
0.0
 40
12.000007999999999
 50
269.99998099999289
 51
0.0000179999992061
  0
LINE
  8
OUTLINE
  6
CONTINUOUS
 62
     3
 10
167.00011300000011
 20
-155.00010499999979
 30
0.0
 11
167.00011300000011
 21
155.00010399999999
 31
0.0
  0
ARC
  8
OUTLINE
  6
CONTINUOUS
 62
     3
 10
155.0001050000001
 20
155.00010399999999
 30
0.0
 40
12.000007999999999
 50
359.99998200000078
 51
90.000018999981066
  0
LINE
  8
OUTLINE
  6
CONTINUOUS
 62
     3
 10
155.0001050000001
 20
167.0001119999998
 30
0.0
 11
0.0
 21
167.0001119999998
 31
0.0
  0
LINE
  8
OUTLINE
  6
CONTINUOUS
 62
     3
 10
-155.0001050000001
 20
-167.00011299999991
 30
0.0
 11
-147.0
 21
-167.00011299999991
 31
0.0
  0
LINE
  8
OUTLINE
  6
CONTINUOUS
 62
     3
 10
-147.0
 20
-167.00011299999991
 30
0.0
 11
-147.0
 21
-211.32435599999999
 31
0.0
  0
LINE
  8
OUTLINE
  6
CONTINUOUS
 62
     3
 10
155.0001050000001
 20
-167.00011299999991
 30
0.0
 11
13.0
 21
-167.00011299999991
 31
0.0
  0
LINE
  8
OUTLINE
  6
CONTINUOUS
 62
     3
 10
13.0
 20
-167.00011299999991
 30
0.0
 11
13.0
 21
-211.32435599999999
 31
0.0
  0
LINE
  8
SIZE
  6
CONTINUOUS
 62
    30
 10
0.0
 20
-348.40469645841222
 30
0.0
 11
0.0
 21
-467.34912080198319
 31
0.0
  0
LINE
  8
SIZE
  6
CONTINUOUS
 62
    30
 10
-67.0
 20
-315.07680199999999
 30
0.0
 11
-67.0
 21
-467.34912080198319
 31
0.0
  0
LINE
  8
SIZE
  6
CONTINUOUS
 62
    30
 10
-79.0
 20
-447.34912080198319
 30
0.0
 11
-91.0
 21
-447.34912080198319
 31
0.0
  0
LINE
  8
SIZE
  6
CONTINUOUS
 62
    30
 10
12.0
 20
-447.34912080198319
 30
0.0
 11
187.4613250326947
 21
-447.34912080198319
 31
0.0
  0
LINE
  8
SIZE
  6
CONTINUOUS
 62
    30
 10
-67.0
 20
-447.34912080198319
 30
0.0
 11
0.0
 21
-447.34912080198319
 31
0.0
  0
CIRCLE
  8
SIZE
  6
CONTINUOUS
 62
    30
 10
-67.0
 20
-447.34912080198319
 30
0.0
 40
6.0
  0
LINE
  8
SIZE
  6
CONTINUOUS
 62
    30
 10
-67.0
 20
-447.34912080198319
 30
0.0
 11
-79.0
 21
-447.34912080198319
 31
0.0
  0
CIRCLE
  8
SIZE
  6
CONTINUOUS
 62
    30
 10
0.0
 20
-447.34912080198319
 30
0.0
 40
6.0
  0
LINE
  8
SIZE
  6
CONTINUOUS
 62
    30
 10
0.0
 20
-447.34912080198319
 30
0.0
 11
12.0
 21
-447.34912080198319
 31
0.0
  0
TEXT
  8
SIZE
  6
CONTINUOUS
 62
    30
 10
69.204182175551935
 20
-422.34912080198319
 30
0.0
 40
64.0
  1
67
 41
0.9
 72
     1
 11
115.8327536041234
 21
-422.34912080198319
 31
0.0
  0
POINT
  8
DEFPOINTS
  6
CONTINUOUS
 62
    30
 10
0.0
 20
-328.40469645841222
 30
0.0
  0
POINT
  8
DEFPOINTS
  6
CONTINUOUS
 62
    30
 10
-67.0
 20
-295.07680199999999
 30
0.0
  0
POINT
  8
DEFPOINTS
  6
CONTINUOUS
 62
    30
 10
-67.0
 20
-447.34912080198319
 30
0.0
  0
LINE
  8
NOTE
  6
CENTER
 62
     4
 10
162.65340451792869
 20
-54.5
 30
0.0
 11
112.1639546937013
 21
-54.5
 31
0.0
  0
LINE
  8
BASIS
  6
DASHDOT
 62
     6
 10
215.49974900000049
 20
0.0
 30
0.0
 11
-310.32284217941918
 21
0.0
 31
0.0
  0
LINE
  8
DETAIL
  6
CONTINUOUS
 62
     5
 10
138.0
 20
74.5
 30
0.0
 11
138.0
 21
33.5
 31
0.0
  0
LINE
  8
NOTE
  6
CENTER
 62
     4
 10
162.65340451792869
 20
54.5
 30
0.0
 11
112.1639546937013
 21
54.5
 31
0.0
  0
LINE
  8
DETAIL
  6
CONTINUOUS
 62
     5
 10
138.0
 20
74.5
 30
0.0
 11
135.0
 21
74.5
 31
0.0
  0
LINE
  8
DETAIL
  6
CONTINUOUS
 62
     5
 10
138.0
 20
33.5
 30
0.0
 11
135.0
 21
33.5
 31
0.0
  0
LINE
  8
NOTE
  6
CENTER
 62
     4
 10
-162.65340451792869
 20
-54.5
 30
0.0
 11
-112.1639546937013
 21
-54.5
 31
0.0
  0
LINE
  8
NOTE
  6
CENTER
 62
     4
 10
-162.65340451792869
 20
54.5
 30
0.0
 11
-112.1639546937013
 21
54.5
 31
0.0
  0
LINE
  8
SIZE
  6
CONTINUOUS
 62
    30
 10
-138.0
 20
94.5
 30
0.0
 11
-138.0
 21
549.99240814878158
 31
0.0
  0
LINE
  8
SIZE
  6
CONTINUOUS
 62
    30
 10
138.0
 20
94.5
 30
0.0
 11
138.0
 21
549.99240814878158
 31
0.0
  0
LINE
  8
SIZE
  6
CONTINUOUS
 62
    30
 10
-126.0
 20
529.99240814878158
 30
0.0
 11
126.0
 21
529.99240814878158
 31
0.0
  0
CIRCLE
  8
SIZE
  6
CONTINUOUS
 62
    30
 10
-138.0
 20
529.99240814878158
 30
0.0
 40
6.0
  0
LINE
  8
SIZE
  6
CONTINUOUS
 62
    30
 10
-138.0
 20
529.99240814878158
 30
0.0
 11
-126.0
 21
529.99240814878158
 31
0.0
  0
CIRCLE
  8
SIZE
  6
CONTINUOUS
 62
    30
 10
138.0
 20
529.99240814878158
 30
0.0
 40
6.0
  0
LINE
  8
SIZE
  6
CONTINUOUS
 62
    30
 10
138.0
 20
529.99240814878158
 30
0.0
 11
126.0
 21
529.99240814878158
 31
0.0
  0
TEXT
  8
SIZE
  6
CONTINUOUS
 62
    30
 10
-72.685714285714283
 20
554.99240814878158
 30
0.0
 40
64.0
  1
276
 41
0.9
 72
     1
 11
0.0
 21
554.99240814878158
 31
0.0
  0
POINT
  8
DEFPOINTS
  6
CONTINUOUS
 62
    30
 10
-138.0
 20
74.5
 30
0.0
  0
POINT
  8
DEFPOINTS
  6
CONTINUOUS
 62
    30
 10
138.0
 20
74.5
 30
0.0
  0
POINT
  8
DEFPOINTS
  6
CONTINUOUS
 62
    30
 10
138.0
 20
529.99240814878158
 30
0.0
  0
LINE
  8
DETAIL
  6
CONTINUOUS
 62
     5
 10
138.0
 20
-74.5
 30
0.0
 11
138.0
 21
-33.5
 31
0.0
  0
LINE
  8
DETAIL
  6
CONTINUOUS
 62
     5
 10
138.0
 20
-74.5
 30
0.0
 11
135.0
 21
-74.5
 31
0.0
  0
LINE
  8
DETAIL
  6
CONTINUOUS
 62
     5
 10
138.0
 20
-33.5
 30
0.0
 11
135.0
 21
-33.5
 31
0.0
  0
LINE
  8
DETAIL
  6
CONTINUOUS
 62
     5
 10
-138.0
 20
74.5
 30
0.0
 11
-138.0
 21
33.5
 31
0.0
  0
LINE
  8
DETAIL
  6
CONTINUOUS
 62
     5
 10
-138.0
 20
74.5
 30
0.0
 11
-135.0
 21
74.5
 31
0.0
  0
LINE
  8
DETAIL
  6
CONTINUOUS
 62
     5
 10
-138.0
 20
33.5
 30
0.0
 11
-135.0
 21
33.5
 31
0.0
  0
LINE
  8
DETAIL
  6
CONTINUOUS
 62
     5
 10
-138.0
 20
-74.5
 30
0.0
 11
-138.0
 21
-33.5
 31
0.0
  0
LINE
  8
DETAIL
  6
CONTINUOUS
 62
     5
 10
-138.0
 20
-74.5
 30
0.0
 11
-135.0
 21
-74.5
 31
0.0
  0
LINE
  8
DETAIL
  6
CONTINUOUS
 62
     5
 10
-138.0
 20
-33.5
 30
0.0
 11
-135.0
 21
-33.5
 31
0.0
  0
LINE
  8
SIZE
  6
CONTINUOUS
 62
    30
 10
-158.0
 20
-74.5
 30
0.0
 11
-661.66316721933981
 21
-74.499999999999886
 31
0.0
  0
LINE
  8
SIZE
  6
CONTINUOUS
 62
    30
 10
-158.0
 20
-33.5
 30
0.0
 11
-661.66316721933981
 21
-33.499999999999893
 31
0.0
  0
LINE
  8
SIZE
  6
CONTINUOUS
 62
    30
 10
-641.66316721933981
 20
-21.49999999999989
 30
0.0
 11
-641.66316721933981
 21
-9.4999999999998863
 31
0.0
  0
LINE
  8
SIZE
  6
CONTINUOUS
 62
    30
 10
-641.66316721933981
 20
-86.499999999999886
 30
0.0
 11
-641.66316721933981
 21
-217.07142857142841
 31
0.0
  0
LINE
  8
SIZE
  6
CONTINUOUS
 62
    30
 10
-641.66316721933981
 20
-33.499999999999893
 30
0.0
 11
-641.66316721933981
 21
-74.499999999999886
 31
0.0
  0
CIRCLE
  8
SIZE
  6
CONTINUOUS
 62
    30
 10
-641.66316721933981
 20
-33.499999999999893
 30
0.0
 40
6.0
  0
LINE
  8
SIZE
  6
CONTINUOUS
 62
    30
 10
-641.66316721933981
 20
-33.499999999999893
 30
0.0
 11
-641.66316721933981
 21
-21.49999999999989
 31
0.0
  0
CIRCLE
  8
SIZE
  6
CONTINUOUS
 62
    30
 10
-641.66316721933981
 20
-74.499999999999886
 30
0.0
 40
6.0
  0
LINE
  8
SIZE
  6
CONTINUOUS
 62
    30
 10
-641.66316721933981
 20
-74.499999999999886
 30
0.0
 11
-641.66316721933981
 21
-86.499999999999886
 31
0.0
  0
TEXT
  8
SIZE
  6
CONTINUOUS
 62
    30
 10
-666.66316721933981
 20
-192.0714285714285
 30
0.0
 40
64.0
  1
41
 50
90.0
 41
0.9
 72
     1
 11
-666.66316721933981
 21
-157.78571428571419
 31
0.0
  0
POINT
  8
DEFPOINTS
  6
CONTINUOUS
 62
    30
 10
-138.0
 20
-74.5
 30
0.0
  0
POINT
  8
DEFPOINTS
  6
CONTINUOUS
 62
    30
 10
-138.0
 20
-33.5
 30
0.0
  0
POINT
  8
DEFPOINTS
  6
CONTINUOUS
 62
    30
 10
-641.66316721933981
 20
-33.499999999999893
 30
0.0
  0
LINE
  8
SIZE
  6
CONTINUOUS
 62
    30
 10
-182.65340451792869
 20
-54.5
 30
0.0
 11
-790.2975007404068
 21
-54.499999999999773
 31
0.0
  0
LINE
  8
SIZE
  6
CONTINUOUS
 62
    30
 10
-182.65340451792869
 20
54.5
 30
0.0
 11
-790.2975007404068
 21
54.500000000000227
 31
0.0
  0
LINE
  8
SIZE
  6
CONTINUOUS
 62
    30
 10
-770.2975007404068
 20
-42.499999999999773
 30
0.0
 11
-770.2975007404068
 21
42.500000000000227
 31
0.0
  0
CIRCLE
  8
SIZE
  6
CONTINUOUS
 62
    30
 10
-770.2975007404068
 20
-54.499999999999773
 30
0.0
 40
6.0
  0
LINE
  8
SIZE
  6
CONTINUOUS
 62
    30
 10
-770.2975007404068
 20
-54.499999999999773
 30
0.0
 11
-770.2975007404068
 21
-42.499999999999773
 31
0.0
  0
CIRCLE
  8
SIZE
  6
CONTINUOUS
 62
    30
 10
-770.2975007404068
 20
54.500000000000227
 30
0.0
 40
6.0
  0
LINE
  8
SIZE
  6
CONTINUOUS
 62
    30
 10
-770.2975007404068
 20
54.500000000000227
 30
0.0
 11
-770.2975007404068
 21
42.500000000000227
 31
0.0
  0
TEXT
  8
SIZE
  6
CONTINUOUS
 62
    30
 10
-795.2975007404068
 20
-67.199999999999989
 30
0.0
 40
64.0
  1
109
 50
90.0
 41
0.9
 72
     1
 11
-795.2975007404068
 21
0.0
 31
0.0
  0
POINT
  8
DEFPOINTS
  6
CONTINUOUS
 62
    30
 10
-162.65340451792869
 20
-54.5
 30
0.0
  0
POINT
  8
DEFPOINTS
  6
CONTINUOUS
 62
    30
 10
-162.65340451792869
 20
54.5
 30
0.0
  0
POINT
  8
DEFPOINTS
  6
CONTINUOUS
 62
    30
 10
-770.2975007404068
 20
54.500000000000227
 30
0.0
  0
LINE
  8
SIZE
  6
CONTINUOUS
 62
    30
 10
-161.0
 20
-115.00314400000001
 30
0.0
 11
-161.0
 21
242.19897707088879
 31
0.0
  0
LINE
  8
SIZE
  6
CONTINUOUS
 62
    30
 10
-135.0
 20
153.99999999999989
 30
0.0
 11
-135.0
 21
242.19897707088879
 31
0.0
  0
LINE
  8
SIZE
  6
CONTINUOUS
 62
    30
 10
-123.0
 20
222.19897707088879
 30
0.0
 11
-111.0
 21
222.19897707088879
 31
0.0
  0
LINE
  8
SIZE
  6
CONTINUOUS
 62
    30
 10
-173.0
 20
222.19897707088879
 30
0.0
 11
-325.51428571428551
 21
222.19897707088879
 31
0.0
  0
LINE
  8
SIZE
  6
CONTINUOUS
 62
    30
 10
-135.0
 20
222.19897707088879
 30
0.0
 11
-161.0
 21
222.19897707088879
 31
0.0
  0
CIRCLE
  8
SIZE
  6
CONTINUOUS
 62
    30
 10
-135.0
 20
222.19897707088879
 30
0.0
 40
6.0
  0
LINE
  8
SIZE
  6
CONTINUOUS
 62
    30
 10
-135.0
 20
222.19897707088879
 30
0.0
 11
-123.0
 21
222.19897707088879
 31
0.0
  0
CIRCLE
  8
SIZE
  6
CONTINUOUS
 62
    30
 10
-161.0
 20
222.19897707088879
 30
0.0
 40
6.0
  0
LINE
  8
SIZE
  6
CONTINUOUS
 62
    30
 10
-161.0
 20
222.19897707088879
 30
0.0
 11
-173.0
 21
222.19897707088879
 31
0.0
  0
TEXT
  8
SIZE
  6
CONTINUOUS
 62
    30
 10
-300.51428571428562
 20
247.19897707088879
 30
0.0
 40
64.0
  1
26
 41
0.9
 72
     1
 11
-255.25714285714281
 21
247.19897707088879
 31
0.0
  0
POINT
  8
DEFPOINTS
  6
CONTINUOUS
 62
    30
 10
-161.0
 20
-135.00314399999999
 30
0.0
  0
POINT
  8
DEFPOINTS
  6
CONTINUOUS
 62
    30
 10
-135.0
 20
133.99999999999989
 30
0.0
  0
POINT
  8
DEFPOINTS
  6
CONTINUOUS
 62
    30
 10
-135.0
 20
222.19897707088879
 30
0.0
  0
ENDSEC
  0
EOF
