  0
SECTION
  2
HEADER
  9
$ACADVER
  1
AC1009
  9
$DWGCODEPAGE
  3
dos932
  9
$INSBASE
 10
0.0
 20
0.0
 30
0.0
  9
$EXTMIN
 10
-868.75761311822316
 20
-773.84947598195868
 30
-0.0015258207003583
  9
$EXTMAX
 10
1039.608776231305
 20
883.75855328486978
 30
0.0000000349246037
  9
$LIMMIN
 10
-2970.0
 20
-2100.0
  9
$LIMMAX
 10
2970.0
 20
2100.0
  9
$ORTHOMODE
 70
     1
  9
$REGENMODE
 70
     1
  9
$FILLMODE
 70
     1
  9
$QTEXTMODE
 70
     0
  9
$MIRRTEXT
 70
     0
  9
$LTSCALE
 40
20.0
  9
$ATTMODE
 70
     1
  9
$TEXTSIZE
 40
64.0
  9
$TRACEWID
 40
0.05
  9
$TEXTSTYLE
  7
STANDARD
  9
$CLAYER
  8
SIZE
  9
$CELTYPE
  6
CONTINUOUS
  9
$CECOLOR
 62
     7
  9
$DIMSCALE
 40
1.0
  9
$DIMASZ
 40
12.0
  9
$DIMEXO
 40
20.0
  9
$DIMDLI
 40
200.0
  9
$DIMRND
 40
0.0
  9
$DIMDLE
 40
0.0
  9
$DIMEXE
 40
20.0
  9
$DIMTP
 40
0.0
  9
$DIMTM
 40
0.0
  9
$DIMTXT
 40
64.0
  9
$DIMCEN
 40
0.09
  9
$DIMTSZ
 40
0.0
  9
$DIMTOL
 70
     0
  9
$DIMLIM
 70
     0
  9
$DIMTIH
 70
     0
  9
$DIMTOH
 70
     0
  9
$DIMSE1
 70
     0
  9
$DIMSE2
 70
     0
  9
$DIMTAD
 70
     1
  9
$DIMZIN
 70
     8
  9
$DIMBLK
  1

  9
$DIMASO
 70
     1
  9
$DIMSHO
 70
     0
  9
$DIMPOST
  1

  9
$DIMAPOST
  1

  9
$DIMALT
 70
     0
  9
$DIMALTD
 70
     2
  9
$DIMALTF
 40
25.399999999999999
  9
$DIMLFAC
 40
1.0
  9
$DIMTOFL
 70
     1
  9
$DIMTVP
 40
0.0
  9
$DIMTIX
 70
     1
  9
$DIMSOXD
 70
     0
  9
$DIMSAH
 70
     0
  9
$DIMBLK1
  1

  9
$DIMBLK2
  1

  9
$DIMSTYLE
  2
STANDARD
  9
$DIMCLRD
 70
     7
  9
$DIMCLRE
 70
     7
  9
$DIMCLRT
 70
     7
  9
$DIMTFAC
 40
1.0
  9
$DIMGAP
 40
25.0
  9
$LUNITS
 70
     2
  9
$LUPREC
 70
     4
  9
$SKETCHINC
 40
0.1
  9
$FILLETRAD
 40
3.0
  9
$AUNITS
 70
     1
  9
$AUPREC
 70
     3
  9
$MENU
  1
ACAD
  9
$ELEVATION
 40
0.0
  9
$PELEVATION
 40
0.0
  9
$THICKNESS
 40
0.0
  9
$LIMCHECK
 70
     0
  9
$CHAMFERA
 40
0.0
  9
$CHAMFERB
 40
0.0
  9
$SKPOLY
 70
     0
  9
$TDCREATE
 40
2453019.62301037
  9
$TDUPDATE
 40
2459025.510131157
  9
$TDINDWG
 40
1.7144488542
  9
$TDUSRTIMER
 40
1.7144488542
  9
$USRTIMER
 70
     1
  9
$ANGBASE
 50
0.0
  9
$ANGDIR
 70
     0
  9
$PDMODE
 70
     3
  9
$PDSIZE
 40
-2.0
  9
$PLINEWID
 40
0.0
  9
$SPLFRAME
 70
     0
  9
$SPLINETYPE
 70
     6
  9
$SPLINESEGS
 70
     8
  9
$SURFTAB1
 70
     6
  9
$SURFTAB2
 70
     6
  9
$SURFTYPE
 70
     6
  9
$SURFU
 70
     6
  9
$SURFV
 70
     6
  9
$UCSNAME
  2

  9
$UCSORG
 10
0.0
 20
0.0
 30
0.0
  9
$UCSXDIR
 10
1.0
 20
0.0
 30
0.0
  9
$UCSYDIR
 10
0.0
 20
1.0
 30
0.0
  9
$PUCSNAME
  2

  9
$PUCSORG
 10
0.0
 20
0.0
 30
0.0
  9
$PUCSXDIR
 10
1.0
 20
0.0
 30
0.0
  9
$PUCSYDIR
 10
0.0
 20
1.0
 30
0.0
  9
$USERI1
 70
     0
  9
$USERI2
 70
     0
  9
$USERI3
 70
     0
  9
$USERI4
 70
     0
  9
$USERI5
 70
     0
  9
$USERR1
 40
20.0
  9
$USERR2
 40
0.0
  9
$USERR3
 40
0.0
  9
$USERR4
 40
0.0
  9
$USERR5
 40
0.0
  9
$WORLDVIEW
 70
     1
  9
$SHADEDGE
 70
     3
  9
$SHADEDIF
 70
    70
  9
$TILEMODE
 70
     1
  9
$MAXACTVP
 70
    48
  9
$PINSBASE
 10
0.0
 20
0.0
 30
0.0
  9
$PLIMCHECK
 70
     0
  9
$PEXTMIN
 10
-100000000000000000000.0
 20
-100000000000000000000.0
 30
-100000000000000000000.0
  9
$PEXTMAX
 10
100000000000000000000.0
 20
100000000000000000000.0
 30
100000000000000000000.0
  9
$PLIMMIN
 10
0.0
 20
0.0
  9
$PLIMMAX
 10
12.0
 20
9.0
  9
$UNITMODE
 70
     0
  9
$VISRETAIN
 70
     0
  9
$PLINEGEN
 70
     0
  9
$PSLTSCALE
 70
     0
  9
$TREEDEPTH
 70
  3020
  9
$ATTDIA
 70
     0
  9
$ATTREQ
 70
     1
  9
$BLIPMODE
 70
     1
  9
$COORDS
 70
     1
  9
$DRAGMODE
 70
     2
  9
$OSMODE
 70
     0
  9
$HANDLING
 70
     0
  9
$HANDSEED
  5
F6C6
  0
ENDSEC
  0
SECTION
  2
TABLES
  0
TABLE
  2
LTYPE
 70
     3
  0
LTYPE
  2
CONTINUOUS
 70
     0
  3
実線
 72
    65
 73
     0
 40
0.0
  0
LTYPE
  2
DASHDOT
 70
     0
  3
____ _ ____ _ ____ _ ____ _ ____ _ ____ _ ____
 72
    65
 73
     4
 40
5.5
 49
4.0
 49
-0.6
 49
0.3
 49
-0.6
  0
LTYPE
  2
CENTER
 70
     0
  3
Center ____ _ ____ _ ____ _ ____ _ ____ _ ____
 72
    65
 73
     4
 40
1.0
 49
0.5
 49
-0.25
 49
0.0
 49
-0.25
  0
ENDTAB
  0
TABLE
  2
LAYER
 70
    12
  0
LAYER
  2
0
 70
     0
 62
     7
  6
CONTINUOUS
  0
LAYER
  2
BASIS
 70
     0
 62
     6
  6
DASHDOT
  0
LAYER
  2
OUTLINE
 70
     0
 62
     3
  6
CONTINUOUS
  0
LAYER
  2
DETAIL
 70
     0
 62
     5
  6
CONTINUOUS
  0
LAYER
  2
SIZE
 70
     0
 62
    30
  6
CONTINUOUS
  0
LAYER
  2
ARRANGE
 70
     0
 62
     1
  6
CONTINUOUS
  0
LAYER
  2
DEFPOINTS
 70
     0
 62
     7
  6
CONTINUOUS
  0
LAYER
  2
ETC
 70
     0
 62
    61
  6
CONTINUOUS
  0
LAYER
  2
FIX
 70
     0
 62
    11
  6
CONTINUOUS
  0
LAYER
  2
NOTE
 70
     0
 62
     4
  6
CONTINUOUS
  0
LAYER
  2
SERVICESPACE
 70
    64
 62
     2
  6
DASHDOT
  0
LAYER
  2
SYMBOLLINE
 70
    64
 62
    15
  6
CONTINUOUS
  0
ENDTAB
  0
TABLE
  2
STYLE
 70
     1
  0
STYLE
  2
STANDARD
 70
     0
 40
64.0
 41
0.9
 50
0.0
 71
     0
 42
64.0
  3
SIMPLEX.shx
  4
BIGFONT.shx
  0
ENDTAB
  0
TABLE
  2
APPID
 70
    19
  0
APPID
  2
ACAD
 70
     0
  0
APPID
  2
AUTOCAD_POSTSCRIPT_FIGURE
 70
     0
  0
APPID
  2
ACAD_EXEMPT_FROM_CAD_STANDARDS
 70
     0
  0
APPID
  2
ACAD_PSEXT
 70
     0
  0
APPID
  2
ACAUTHENVIRON
 70
     0
  0
APPID
  2
GENIUS_GENOENT_13
 70
     0
  0
APPID
  2
GENIUS_GENCFG_13
 70
     0
  0
APPID
  2
GENIUS_GENCFG0_13
 70
     0
  0
APPID
  2
GENIUS_GENCFG1_13
 70
     0
  0
APPID
  2
GENIUS_GENCFG2_13
 70
     0
  0
APPID
  2
GENIUS_GENCFG3_13
 70
     0
  0
APPID
  2
GENIUS_GENCFG4_13
 70
     0
  0
APPID
  2
GENIUS_GEVCFG0_13
 70
     0
  0
APPID
  2
CONTENTBLOCKICON
 70
     0
  0
APPID
  2
CONTENTBLOCKDESCRIPTION
 70
     0
  0
APPID
  2
ACAD_NAV_VCDISPLAY
 70
     0
  0
APPID
  2
ACAD_MLEADERVER
 70
     0
  0
APPID
  2
ACDBDYNAMICBLOCKTRUENAME
 70
     0
  0
APPID
  2
ACDBDYNAMICBLOCKGUID
 70
     0
  0
ENDTAB
  0
TABLE
  2
DIMSTYLE
 70
     1
  0
DIMSTYLE
  2
STANDARD
 70
     0
  3

  4

  5
_ORIGIN
  6

  7

 40
1.0
 41
12.0
 42
20.0
 43
200.0
 44
20.0
 45
0.0
 46
0.0
 47
0.0
 48
0.0
140
64.0
141
0.09
142
0.0
143
25.399999999999999
144
1.0
145
0.0
146
1.0
147
25.0
 71
     0
 72
     0
 73
     0
 74
     0
 75
     0
 76
     0
 77
     1
 78
     8
170
     0
171
     2
172
     1
173
     0
174
     1
175
     0
176
     7
177
     7
178
     7
  0
ENDTAB
  0
TABLE
  2
VIEW
 70
     1
  0
VIEW
  2
ALL
 70
     0
 40
4282.6198079999986
 10
0.0
 20
41.309904000000003
 41
5940.0
 11
0.0
 21
0.0
 31
1.0
 12
0.0
 22
0.0
 32
0.0
 42
50.0
 43
0.0
 44
0.0
 50
0.0
 71
     0
  0
ENDTAB
  0
TABLE
  2
UCS
 70
     0
  0
ENDTAB
  0
TABLE
  2
VPORT
 70
     1
  0
VPORT
  2
*ACTIVE
 70
     0
 10
0.0
 20
0.0
 11
1.0
 21
1.0
 12
85.425581556541147
 22
54.95453865145555
 13
0.0
 23
0.0
 14
1.0
 24
1.0
 15
0.0
 25
0.0
 16
0.0
 26
0.0
 36
1.0
 17
0.0
 27
0.0
 37
0.0
 40
1668.597695759205
 41
1.747787610619469
 42
50.0
 43
0.0
 44
0.0
 50
0.0
 51
0.0
 71
     0
 72
  1000
 73
     1
 74
     3
 75
     0
 76
     0
 77
     0
 78
     0
  0
ENDTAB
  0
ENDSEC
  0
SECTION
  2
BLOCKS
  0
BLOCK
  8
0
  2
_ORIGIN
 70
     0
 10
0.0
 20
0.0
 30
0.0
  3
_ORIGIN
  1
_ORIGIN
  0
CIRCLE
  8
0
  6
CONTINUOUS
 62
     7
 10
0.0
 20
0.0
 30
0.0
 40
0.5
  0
LINE
  8
0
  6
CONTINUOUS
 62
     7
 10
0.0
 20
0.0
 30
0.0
 11
-1.0
 21
0.0
 31
0.0
  0
ENDBLK
  8
0
  0
ENDSEC
  0
SECTION
  2
ENTITIES
  0
LINE
  8
NOTE
  6
CONTINUOUS
 62
     4
 10
145.99999999999969
 20
0.0000000000001137
 30
0.0
 11
381.2835679845864
 21
264.81163647897893
 31
0.0
  0
LINE
  8
NOTE
  6
CONTINUOUS
 62
     4
 10
145.99999999999969
 20
0.0000000000001137
 30
0.0
 11
177.31274534757881
 21
22.683422418883541
 31
0.0
  0
LINE
  8
NOTE
  6
CONTINUOUS
 62
     4
 10
164.99527469402321
 20
35.199296333761247
 30
0.0
 11
145.99999999999969
 21
0.0000000000001137
 31
0.0
  0
TEXT
  8
NOTE
  6
CONTINUOUS
 62
     4
 10
-406.84241163965942
 20
105.9112070450328
 30
0.0
 40
64.0
  1
EA
 41
0.9
  0
TEXT
  8
NOTE
  6
CONTINUOUS
 62
     4
 10
243.1699212075373
 20
433.00328946539838
 30
0.0
 40
64.0
  1
EL
 41
0.9
  0
LINE
  8
NOTE
  6
CONTINUOUS
 62
     4
 10
366.31297896856398
 20
415.94854460060151
 30
0.0
 11
77.333056303986268
 21
415.94854460052852
 31
0.0
  0
LINE
  8
NOTE
  6
CONTINUOUS
 62
     4
 10
-99.400000000000091
 20
199.35012900000001
 30
0.0
 11
77.333056303986268
 21
415.94854460052852
 31
0.0
  0
LINE
  8
NOTE
  6
CONTINUOUS
 62
     4
 10
-99.400000000000091
 20
199.35012900000001
 30
0.0
 11
-66.840288265110757
 21
220.2757002052258
 31
0.0
  0
LINE
  8
NOTE
  6
CONTINUOUS
 62
     4
 10
-84.886536276681909
 20
236.55068349624699
 30
0.0
 11
-99.400000000000091
 21
199.35012900000001
 31
0.0
  0
CIRCLE
  8
FIX
  6
CONTINUOUS
 62
    11
 10
145.99999999999969
 20
0.0000000000001137
 30
0.0
 40
10.0
  0
LINE
  8
BASIS
  6
DASHDOT
 62
     6
 10
0.0
 20
-61.850934009989032
 30
0.0
 11
0.0
 21
266.82285499999989
 31
0.0
  0
CIRCLE
  8
FIX
  6
CONTINUOUS
 62
    11
 10
114.9999999999998
 20
0.0
 30
0.0
 40
10.0
  0
CIRCLE
  8
FIX
  6
CONTINUOUS
 62
    11
 10
-115.0000000000002
 20
0.0
 30
0.0
 40
10.0
  0
CIRCLE
  8
FIX
  6
CONTINUOUS
 62
    11
 10
-146.0000000000002
 20
0.4999941390386766
 30
0.0
 40
10.0
  0
CIRCLE
  8
ARRANGE
  6
CONTINUOUS
 62
     1
 10
0.0
 20
0.0
 30
0.0
 40
40.0
  0
POINT
  8
ARRANGE
  6
CONTINUOUS
 62
     1
 10
0.0
 20
0.0
 30
0.0
 50
90.0
  0
LINE
  8
SIZE
  6
CONTINUOUS
 62
    30
 10
-115.0000000000002
 20
-24.840848999999931
 30
0.0
 11
-115.0000000000003
 21
-531.42383664408237
 31
0.0
  0
LINE
  8
SIZE
  6
CONTINUOUS
 62
    30
 10
114.9999999999998
 20
-24.840848999999931
 30
0.0
 11
114.9999999999997
 21
-531.42383664408237
 31
0.0
  0
LINE
  8
SIZE
  6
CONTINUOUS
 62
    30
 10
-103.0000000000003
 20
-511.42383664408231
 30
0.0
 11
102.9999999999997
 21
-511.42383664408231
 31
0.0
  0
CIRCLE
  8
SIZE
  6
CONTINUOUS
 62
    30
 10
-115.0000000000003
 20
-511.42383664408231
 30
0.0
 40
6.0
  0
LINE
  8
SIZE
  6
CONTINUOUS
 62
    30
 10
-115.0000000000003
 20
-511.42383664408231
 30
0.0
 11
-103.0000000000003
 21
-511.42383664408231
 31
0.0
  0
CIRCLE
  8
SIZE
  6
CONTINUOUS
 62
    30
 10
114.9999999999997
 20
-511.42383664408231
 30
0.0
 40
6.0
  0
LINE
  8
SIZE
  6
CONTINUOUS
 62
    30
 10
114.9999999999997
 20
-511.42383664408231
 30
0.0
 11
102.9999999999997
 21
-511.42383664408231
 31
0.0
  0
TEXT
  8
SIZE
  6
CONTINUOUS
 62
    30
 10
-74.057142857143091
 20
-486.42383664408231
 30
0.0
 40
64.0
  1
230
 41
0.9
 72
     1
 11
-0.0000000000002274
 21
-486.42383664408231
 31
0.0
  0
POINT
  8
DEFPOINTS
  6
CONTINUOUS
 62
    30
 10
-115.0000000000002
 20
-4.8408489999999347
 30
0.0
  0
POINT
  8
DEFPOINTS
  6
CONTINUOUS
 62
    30
 10
114.9999999999998
 20
-4.8408489999999347
 30
0.0
  0
POINT
  8
DEFPOINTS
  6
CONTINUOUS
 62
    30
 10
114.9999999999997
 20
-511.42383664408231
 30
0.0
  0
LINE
  8
SIZE
  6
CONTINUOUS
 62
    30
 10
-146.0000000000002
 20
-24.840848999999931
 30
0.0
 11
-146.00000000000031
 21
-651.8193693313242
 31
0.0
  0
LINE
  8
SIZE
  6
CONTINUOUS
 62
    30
 10
145.9999999999998
 20
-24.840848999999931
 30
0.0
 11
145.99999999999969
 21
-651.8193693313242
 31
0.0
  0
LINE
  8
SIZE
  6
CONTINUOUS
 62
    30
 10
-134.00000000000031
 20
-631.8193693313242
 30
0.0
 11
133.99999999999969
 21
-631.8193693313242
 31
0.0
  0
CIRCLE
  8
SIZE
  6
CONTINUOUS
 62
    30
 10
-146.00000000000031
 20
-631.8193693313242
 30
0.0
 40
6.0
  0
LINE
  8
SIZE
  6
CONTINUOUS
 62
    30
 10
-146.00000000000031
 20
-631.8193693313242
 30
0.0
 11
-134.00000000000031
 21
-631.8193693313242
 31
0.0
  0
CIRCLE
  8
SIZE
  6
CONTINUOUS
 62
    30
 10
145.99999999999969
 20
-631.8193693313242
 30
0.0
 40
6.0
  0
LINE
  8
SIZE
  6
CONTINUOUS
 62
    30
 10
145.99999999999969
 20
-631.8193693313242
 30
0.0
 11
133.99999999999969
 21
-631.8193693313242
 31
0.0
  0
TEXT
  8
SIZE
  6
CONTINUOUS
 62
    30
 10
-74.057142857143077
 20
-606.8193693313242
 30
0.0
 40
64.0
  1
292
 41
0.9
 72
     1
 11
-0.0000000000002274
 21
-606.8193693313242
 31
0.0
  0
POINT
  8
DEFPOINTS
  6
CONTINUOUS
 62
    30
 10
-146.0000000000002
 20
-4.8408489999999347
 30
0.0
  0
POINT
  8
DEFPOINTS
  6
CONTINUOUS
 62
    30
 10
145.9999999999998
 20
-4.8408489999999347
 30
0.0
  0
POINT
  8
DEFPOINTS
  6
CONTINUOUS
 62
    30
 10
145.99999999999969
 20
-631.8193693313242
 30
0.0
  0
LINE
  8
SIZE
  6
CONTINUOUS
 62
    30
 10
-167.00011300000031
 20
-20.50009799999998
 30
0.0
 11
-167.00011300000031
 21
-773.6313235307307
 31
0.0
  0
LINE
  8
SIZE
  6
CONTINUOUS
 62
    30
 10
167.00011199999989
 20
-20.50009799999998
 30
0.0
 11
167.00011199999989
 21
-773.6313235307307
 31
0.0
  0
LINE
  8
SIZE
  6
CONTINUOUS
 62
    30
 10
-155.00011300000031
 20
-753.6313235307307
 30
0.0
 11
155.0001119999998
 21
-753.6313235307307
 31
0.0
  0
CIRCLE
  8
SIZE
  6
CONTINUOUS
 62
    30
 10
-167.00011300000031
 20
-753.6313235307307
 30
0.0
 40
6.0
  0
LINE
  8
SIZE
  6
CONTINUOUS
 62
    30
 10
-167.00011300000031
 20
-753.6313235307307
 30
0.0
 11
-155.00011300000031
 21
-753.6313235307307
 31
0.0
  0
CIRCLE
  8
SIZE
  6
CONTINUOUS
 62
    30
 10
167.00011199999989
 20
-753.6313235307307
 30
0.0
 40
6.0
  0
LINE
  8
SIZE
  6
CONTINUOUS
 62
    30
 10
167.00011199999989
 20
-753.6313235307307
 30
0.0
 11
155.0001119999998
 21
-753.6313235307307
 31
0.0
  0
TEXT
  8
SIZE
  6
CONTINUOUS
 62
    30
 10
-111.9085719285716
 20
-728.6313235307307
 30
0.0
 40
64.0
  1
□334
 41
0.9
 72
     1
 11
-0.0000005000001693
 21
-728.6313235307307
 31
0.0
  0
POINT
  8
DEFPOINTS
  6
CONTINUOUS
 62
    30
 10
-167.00011300000031
 20
-0.50009799999998
 30
0.0
  0
POINT
  8
DEFPOINTS
  6
CONTINUOUS
 62
    30
 10
167.00011199999989
 20
-0.50009799999998
 30
0.0
  0
POINT
  8
DEFPOINTS
  6
CONTINUOUS
 62
    30
 10
167.00011199999989
 20
-753.6313235307307
 30
0.0
  0
LINE
  8
SIZE
  6
CONTINUOUS
 62
    30
 10
-135.00009100000031
 20
248.50013899999999
 30
0.0
 11
-135.00009100000031
 21
564.17242818242448
 31
0.0
  0
LINE
  8
SIZE
  6
CONTINUOUS
 62
    30
 10
135.0000849999997
 20
210.500123
 30
0.0
 11
135.0000849999997
 21
564.17242818242448
 31
0.0
  0
LINE
  8
SIZE
  6
CONTINUOUS
 62
    30
 10
-123.0000910000003
 20
544.17242818242448
 30
0.0
 11
123.0000849999997
 21
544.17242818242448
 31
0.0
  0
CIRCLE
  8
SIZE
  6
CONTINUOUS
 62
    30
 10
-135.00009100000031
 20
544.17242818242448
 30
0.0
 40
6.0
  0
LINE
  8
SIZE
  6
CONTINUOUS
 62
    30
 10
-135.00009100000031
 20
544.17242818242448
 30
0.0
 11
-123.0000910000003
 21
544.17242818242448
 31
0.0
  0
CIRCLE
  8
SIZE
  6
CONTINUOUS
 62
    30
 10
135.0000849999997
 20
544.17242818242448
 30
0.0
 40
6.0
  0
LINE
  8
SIZE
  6
CONTINUOUS
 62
    30
 10
135.0000849999997
 20
544.17242818242448
 30
0.0
 11
123.0000849999997
 21
544.17242818242448
 31
0.0
  0
TEXT
  8
SIZE
  6
CONTINUOUS
 62
    30
 10
-111.20141348066591
 20
569.17242818242448
 30
0.0
 40
64.0
  1
□270
 41
0.9
 72
     1
 11
-0.6642706235230662
 21
569.17242818242448
 31
0.0
  0
POINT
  8
DEFPOINTS
  6
CONTINUOUS
 62
    30
 10
-135.00009100000031
 20
228.50013899999999
 30
0.0
  0
POINT
  8
DEFPOINTS
  6
CONTINUOUS
 62
    30
 10
135.0000849999997
 20
190.500123
 30
0.0
  0
POINT
  8
DEFPOINTS
  6
CONTINUOUS
 62
    30
 10
135.0000849999997
 20
544.17242818242448
 30
0.0
  0
LINE
  8
SIZE
  6
CONTINUOUS
 62
    30
 10
-135.00009100000031
 20
248.50013899999999
 30
0.0
 11
-135.00009100000031
 21
564.17242818242448
 31
0.0
  0
LINE
  8
SIZE
  6
CONTINUOUS
 62
    30
 10
-276.89989100000003
 20
226.99985000000001
 30
0.0
 11
-276.89989100000003
 21
564.17242818242448
 31
0.0
  0
LINE
  8
SIZE
  6
CONTINUOUS
 62
    30
 10
-147.00009100000031
 20
544.17242818242448
 30
0.0
 11
-264.89989100000003
 21
544.17242818242448
 31
0.0
  0
LINE
  8
SIZE
  6
CONTINUOUS
 62
    30
 10
-276.89989100000003
 20
544.17242818242448
 30
0.0
 11
-476.04274814285708
 21
544.17242818242448
 31
0.0
  0
CIRCLE
  8
SIZE
  6
CONTINUOUS
 62
    30
 10
-135.00009100000031
 20
544.17242818242448
 30
0.0
 40
6.0
  0
LINE
  8
SIZE
  6
CONTINUOUS
 62
    30
 10
-135.00009100000031
 20
544.17242818242448
 30
0.0
 11
-147.00009100000031
 21
544.17242818242448
 31
0.0
  0
CIRCLE
  8
SIZE
  6
CONTINUOUS
 62
    30
 10
-276.89989100000003
 20
544.17242818242448
 30
0.0
 40
6.0
  0
LINE
  8
SIZE
  6
CONTINUOUS
 62
    30
 10
-276.89989100000003
 20
544.17242818242448
 30
0.0
 11
-264.89989100000003
 21
544.17242818242448
 31
0.0
  0
TEXT
  8
SIZE
  6
CONTINUOUS
 62
    30
 10
-451.04274814285708
 20
569.17242818242448
 30
0.0
 40
64.0
  1
142
 41
0.9
 72
     1
 11
-382.47131957142852
 21
569.17242818242448
 31
0.0
  0
POINT
  8
DEFPOINTS
  6
CONTINUOUS
 62
    30
 10
-135.00009100000031
 20
228.50013899999999
 30
0.0
  0
POINT
  8
DEFPOINTS
  6
CONTINUOUS
 62
    30
 10
-276.89989100000003
 20
206.99985000000001
 30
0.0
  0
POINT
  8
DEFPOINTS
  6
CONTINUOUS
 62
    30
 10
-276.89989100000003
 20
544.17242818242448
 30
0.0
  0
LINE
  8
SIZE
  6
CONTINUOUS
 62
    30
 10
-249.8998730000003
 20
226.64109800000011
 30
0.0
 11
-249.8998730000003
 21
304.89993534706628
 31
0.0
  0
LINE
  8
SIZE
  6
CONTINUOUS
 62
    30
 10
-276.89989100000003
 20
226.99985000000001
 30
0.0
 11
-276.89989100000003
 21
304.89993534706628
 31
0.0
  0
LINE
  8
SIZE
  6
CONTINUOUS
 62
    30
 10
-237.8998730000003
 20
284.89993534706628
 30
0.0
 11
-225.8998730000003
 21
284.89993534706628
 31
0.0
  0
LINE
  8
SIZE
  6
CONTINUOUS
 62
    30
 10
-288.89989100000003
 20
284.89993534706628
 30
0.0
 11
-471.01482953586492
 21
284.89993534706628
 31
0.0
  0
LINE
  8
SIZE
  6
CONTINUOUS
 62
    30
 10
-249.8998730000003
 20
284.89993534706628
 30
0.0
 11
-276.89989100000003
 21
284.89993534706628
 31
0.0
  0
CIRCLE
  8
SIZE
  6
CONTINUOUS
 62
    30
 10
-249.8998730000003
 20
284.89993534706628
 30
0.0
 40
6.0
  0
LINE
  8
SIZE
  6
CONTINUOUS
 62
    30
 10
-249.8998730000003
 20
284.89993534706628
 30
0.0
 11
-237.8998730000003
 21
284.89993534706628
 31
0.0
  0
CIRCLE
  8
SIZE
  6
CONTINUOUS
 62
    30
 10
-276.89989100000003
 20
284.89993534706628
 30
0.0
 40
6.0
  0
LINE
  8
SIZE
  6
CONTINUOUS
 62
    30
 10
-276.89989100000003
 20
284.89993534706628
 30
0.0
 11
-288.89989100000003
 21
284.89993534706628
 31
0.0
  0
TEXT
  8
SIZE
  6
CONTINUOUS
 62
    30
 10
-446.01482953586492
 20
309.89993534706628
 30
0.0
 40
64.0
  1
27
 41
0.9
 72
     1
 11
-399.38625810729349
 21
309.89993534706628
 31
0.0
  0
POINT
  8
DEFPOINTS
  6
CONTINUOUS
 62
    30
 10
-249.8998730000003
 20
206.64109800000011
 30
0.0
  0
POINT
  8
DEFPOINTS
  6
CONTINUOUS
 62
    30
 10
-276.89989100000003
 20
206.99985000000001
 30
0.0
  0
POINT
  8
DEFPOINTS
  6
CONTINUOUS
 62
    30
 10
-276.89989100000003
 20
284.89993534706628
 30
0.0
  0
LINE
  8
SIZE
  6
CONTINUOUS
 62
    30
 10
-276.89989100000003
 20
226.99985000000001
 30
0.0
 11
-276.89989100000003
 21
445.33696620043878
 31
0.0
  0
LINE
  8
SIZE
  6
CONTINUOUS
 62
    30
 10
-219.89985300000009
 20
231.00014300000001
 30
0.0
 11
-219.89985300000009
 21
445.33696620043878
 31
0.0
  0
LINE
  8
SIZE
  6
CONTINUOUS
 62
    30
 10
-207.89985300000009
 20
425.33696620043878
 30
0.0
 11
-195.89985300000009
 21
425.33696620043878
 31
0.0
  0
LINE
  8
SIZE
  6
CONTINUOUS
 62
    30
 10
-288.89989100000003
 20
425.33696620043878
 30
0.0
 11
-448.13613869650368
 21
425.33696620043878
 31
0.0
  0
LINE
  8
SIZE
  6
CONTINUOUS
 62
    30
 10
-219.89985300000009
 20
425.33696620043878
 30
0.0
 11
-276.89989100000003
 21
425.33696620043878
 31
0.0
  0
CIRCLE
  8
SIZE
  6
CONTINUOUS
 62
    30
 10
-219.89985300000009
 20
425.33696620043878
 30
0.0
 40
6.0
  0
LINE
  8
SIZE
  6
CONTINUOUS
 62
    30
 10
-219.89985300000009
 20
425.33696620043878
 30
0.0
 11
-207.89985300000009
 21
425.33696620043878
 31
0.0
  0
CIRCLE
  8
SIZE
  6
CONTINUOUS
 62
    30
 10
-276.89989100000003
 20
425.33696620043878
 30
0.0
 40
6.0
  0
LINE
  8
SIZE
  6
CONTINUOUS
 62
    30
 10
-276.89989100000003
 20
425.33696620043878
 30
0.0
 11
-288.89989100000003
 21
425.33696620043878
 31
0.0
  0
TEXT
  8
SIZE
  6
CONTINUOUS
 62
    30
 10
-423.13613869650402
 20
450.33696620043878
 30
0.0
 40
64.0
  1
57
 41
0.9
 72
     1
 11
-376.50756726793247
 21
450.33696620043878
 31
0.0
  0
POINT
  8
DEFPOINTS
  6
CONTINUOUS
 62
    30
 10
-276.89989100000003
 20
206.99985000000001
 30
0.0
  0
POINT
  8
DEFPOINTS
  6
CONTINUOUS
 62
    30
 10
-219.89985300000009
 20
211.00014300000001
 30
0.0
  0
POINT
  8
DEFPOINTS
  6
CONTINUOUS
 62
    30
 10
-219.89985300000009
 20
425.33696620043878
 30
0.0
  0
LINE
  8
SIZE
  6
CONTINUOUS
 62
    30
 10
57.000025000000051
 20
243.00015699999989
 30
0.0
 11
597.97894287643248
 21
243.0001569999998
 31
0.0
  0
LINE
  8
SIZE
  6
CONTINUOUS
 62
    30
 10
187.00011199999989
 20
0.0
 30
0.0
 11
597.97894287643248
 21
-0.0000000000001137
 31
0.0
  0
LINE
  8
SIZE
  6
CONTINUOUS
 62
    30
 10
577.97894287643248
 20
231.0001569999998
 30
0.0
 11
577.97894287643248
 21
11.99999999999989
 31
0.0
  0
CIRCLE
  8
SIZE
  6
CONTINUOUS
 62
    30
 10
577.97894287643248
 20
243.0001569999998
 30
0.0
 40
6.0
  0
LINE
  8
SIZE
  6
CONTINUOUS
 62
    30
 10
577.97894287643248
 20
243.0001569999998
 30
0.0
 11
577.97894287643248
 21
231.0001569999998
 31
0.0
  0
CIRCLE
  8
SIZE
  6
CONTINUOUS
 62
    30
 10
577.97894287643248
 20
-0.0000000000001137
 30
0.0
 40
6.0
  0
LINE
  8
SIZE
  6
CONTINUOUS
 62
    30
 10
577.97894287643248
 20
-0.0000000000001137
 30
0.0
 11
577.97894287643248
 21
11.99999999999989
 31
0.0
  0
TEXT
  8
SIZE
  6
CONTINUOUS
 62
    30
 10
552.97894287643248
 20
47.442935642857123
 30
0.0
 40
64.0
  1
243
 50
90.0
 41
0.9
 72
     1
 11
552.97894287643248
 21
121.5000785
 31
0.0
  0
POINT
  8
DEFPOINTS
  6
CONTINUOUS
 62
    30
 10
37.000025000000051
 20
243.00015699999989
 30
0.0
  0
POINT
  8
DEFPOINTS
  6
CONTINUOUS
 62
    30
 10
167.00011199999989
 20
0.0
 30
0.0
  0
POINT
  8
DEFPOINTS
  6
CONTINUOUS
 62
    30
 10
577.97894287643248
 20
-0.0000000000001137
 30
0.0
  0
LINE
  8
SIZE
  6
CONTINUOUS
 62
    30
 10
155.00009099999991
 20
-15.000009999999969
 30
0.0
 11
597.97894287643248
 21
-15.00001000000009
 31
0.0
  0
LINE
  8
SIZE
  6
CONTINUOUS
 62
    30
 10
187.00011199999969
 20
0.0
 30
0.0
 11
597.97894287643248
 21
-0.0000000000001137
 31
0.0
  0
LINE
  8
SIZE
  6
CONTINUOUS
 62
    30
 10
577.97894287643248
 20
11.99999999999989
 30
0.0
 11
577.97894287643248
 21
23.99999999999989
 31
0.0
  0
LINE
  8
SIZE
  6
CONTINUOUS
 62
    30
 10
577.97894287643248
 20
-27.000010000000088
 30
0.0
 11
577.97894287643248
 21
-192.98470944028909
 31
0.0
  0
LINE
  8
SIZE
  6
CONTINUOUS
 62
    30
 10
577.97894287643248
 20
-0.0000000000001137
 30
0.0
 11
577.97894287643248
 21
-15.00001000000009
 31
0.0
  0
CIRCLE
  8
SIZE
  6
CONTINUOUS
 62
    30
 10
577.97894287643248
 20
-0.0000000000001137
 30
0.0
 40
6.0
  0
LINE
  8
SIZE
  6
CONTINUOUS
 62
    30
 10
577.97894287643248
 20
-0.0000000000001137
 30
0.0
 11
577.97894287643248
 21
11.99999999999989
 31
0.0
  0
CIRCLE
  8
SIZE
  6
CONTINUOUS
 62
    30
 10
577.97894287643248
 20
-15.00001000000009
 30
0.0
 40
6.0
  0
LINE
  8
SIZE
  6
CONTINUOUS
 62
    30
 10
577.97894287643248
 20
-15.00001000000009
 30
0.0
 11
577.97894287643248
 21
-27.000010000000088
 31
0.0
  0
TEXT
  8
SIZE
  6
CONTINUOUS
 62
    30
 10
552.97894287643248
 20
-167.98470944028909
 30
0.0
 40
64.0
  1
15
 50
90.0
 41
0.9
 72
     1
 11
552.97894287643248
 21
-126.841852297432
 31
0.0
  0
POINT
  8
DEFPOINTS
  6
CONTINUOUS
 62
    30
 10
135.00009099999991
 20
-15.000009999999969
 30
0.0
  0
POINT
  8
DEFPOINTS
  6
CONTINUOUS
 62
    30
 10
167.00011199999969
 20
0.0
 30
0.0
  0
POINT
  8
DEFPOINTS
  6
CONTINUOUS
 62
    30
 10
577.97894287643248
 20
-0.0000000000001137
 30
0.0
  0
LINE
  8
SIZE
  6
CONTINUOUS
 62
    30
 10
-231.22149899999999
 20
55.00003700000002
 30
0.0
 11
-429.89008504396583
 21
55.00003700000002
 31
0.0
  0
LINE
  8
SIZE
  6
CONTINUOUS
 62
    30
 10
-187.00011300000011
 20
0.0
 30
0.0
 11
-429.89008504396583
 21
0.0000000000001137
 31
0.0
  0
LINE
  8
SIZE
  6
CONTINUOUS
 62
    30
 10
-409.89008504396583
 20
67.00003700000002
 30
0.0
 11
-409.89008504396583
 21
79.00003700000002
 31
0.0
  0
LINE
  8
SIZE
  6
CONTINUOUS
 62
    30
 10
-409.89008504396583
 20
-11.99999999999989
 30
0.0
 11
-409.89008504396583
 21
-173.99269493341311
 31
0.0
  0
LINE
  8
SIZE
  6
CONTINUOUS
 62
    30
 10
-409.89008504396583
 20
55.00003700000002
 30
0.0
 11
-409.89008504396583
 21
0.0000000000001137
 31
0.0
  0
CIRCLE
  8
SIZE
  6
CONTINUOUS
 62
    30
 10
-409.89008504396583
 20
55.00003700000002
 30
0.0
 40
6.0
  0
LINE
  8
SIZE
  6
CONTINUOUS
 62
    30
 10
-409.89008504396583
 20
55.00003700000002
 30
0.0
 11
-409.89008504396583
 21
67.00003700000002
 31
0.0
  0
CIRCLE
  8
SIZE
  6
CONTINUOUS
 62
    30
 10
-409.89008504396583
 20
0.0000000000001137
 30
0.0
 40
6.0
  0
LINE
  8
SIZE
  6
CONTINUOUS
 62
    30
 10
-409.89008504396583
 20
0.0000000000001137
 30
0.0
 11
-409.89008504396583
 21
-11.99999999999989
 31
0.0
  0
TEXT
  8
SIZE
  6
CONTINUOUS
 62
    30
 10
-434.89008504396583
 20
-148.99269493341311
 30
0.0
 40
64.0
  1
54
 50
90.0
 41
0.9
 72
     1
 11
-434.89008504396583
 21
-100.99269493341311
 31
0.0
  0
POINT
  8
DEFPOINTS
  6
CONTINUOUS
 62
    30
 10
-211.22149899999999
 20
55.00003700000002
 30
0.0
  0
POINT
  8
DEFPOINTS
  6
CONTINUOUS
 62
    30
 10
-167.0001130000002
 20
0.0
 30
0.0
  0
POINT
  8
DEFPOINTS
  6
CONTINUOUS
 62
    30
 10
-409.89008504396583
 20
0.0000000000001137
 30
0.0
  0
LINE
  8
SIZE
  6
CONTINUOUS
 62
    30
 10
-323.83769500000028
 20
135.000091
 30
0.0
 11
-531.22734560351273
 21
135.00009100000011
 31
0.0
  0
LINE
  8
SIZE
  6
CONTINUOUS
 62
    30
 10
-187.00011300000011
 20
0.0
 30
0.0
 11
-531.22734560351273
 21
0.0000000000001137
 31
0.0
  0
LINE
  8
SIZE
  6
CONTINUOUS
 62
    30
 10
-511.22734560351267
 20
123.0000910000001
 30
0.0
 11
-511.22734560351267
 21
12.00000000000011
 31
0.0
  0
LINE
  8
SIZE
  6
CONTINUOUS
 62
    30
 10
-511.22734560351267
 20
0.0000000000001137
 30
0.0
 11
-511.22734560351279
 21
-199.14285714285711
 31
0.0
  0
CIRCLE
  8
SIZE
  6
CONTINUOUS
 62
    30
 10
-511.22734560351267
 20
135.00009100000011
 30
0.0
 40
6.0
  0
LINE
  8
SIZE
  6
CONTINUOUS
 62
    30
 10
-511.22734560351267
 20
135.00009100000011
 30
0.0
 11
-511.22734560351267
 21
123.0000910000001
 31
0.0
  0
CIRCLE
  8
SIZE
  6
CONTINUOUS
 62
    30
 10
-511.22734560351267
 20
0.0000000000001137
 30
0.0
 40
6.0
  0
LINE
  8
SIZE
  6
CONTINUOUS
 62
    30
 10
-511.22734560351267
 20
0.0000000000001137
 30
0.0
 11
-511.22734560351267
 21
12.00000000000011
 31
0.0
  0
TEXT
  8
SIZE
  6
CONTINUOUS
 62
    30
 10
-536.22734560351273
 20
-174.14285714285711
 30
0.0
 40
64.0
  1
135
 50
90.0
 41
0.9
 72
     1
 11
-536.22734560351273
 21
-105.5714285714286
 31
0.0
  0
POINT
  8
DEFPOINTS
  6
CONTINUOUS
 62
    30
 10
-303.83769500000028
 20
135.000091
 30
0.0
  0
POINT
  8
DEFPOINTS
  6
CONTINUOUS
 62
    30
 10
-167.0001130000002
 20
0.0
 30
0.0
  0
POINT
  8
DEFPOINTS
  6
CONTINUOUS
 62
    30
 10
-511.22734560351267
 20
0.0000000000001137
 30
0.0
  0
LINE
  8
SIZE
  6
CONTINUOUS
 62
    30
 10
-296.89989100000003
 20
63.000333000000182
 30
0.0
 11
-644.34652774656251
 21
63.000333000000303
 31
0.0
  0
LINE
  8
SIZE
  6
CONTINUOUS
 62
    30
 10
-296.89989100000003
 20
206.99985000000001
 30
0.0
 11
-644.34652774656251
 21
206.99985000000021
 31
0.0
  0
LINE
  8
SIZE
  6
CONTINUOUS
 62
    30
 10
-624.34652774656251
 20
194.99985000000021
 30
0.0
 11
-624.34652774656251
 21
75.000333000000296
 31
0.0
  0
LINE
  8
SIZE
  6
CONTINUOUS
 62
    30
 10
-624.34652774656251
 20
63.000333000000303
 30
0.0
 11
-624.34652774656251
 21
-219.06631194618109
 31
0.0
  0
CIRCLE
  8
SIZE
  6
CONTINUOUS
 62
    30
 10
-624.34652774656251
 20
206.99985000000021
 30
0.0
 40
6.0
  0
LINE
  8
SIZE
  6
CONTINUOUS
 62
    30
 10
-624.34652774656251
 20
206.99985000000021
 30
0.0
 11
-624.34652774656251
 21
194.99985000000021
 31
0.0
  0
CIRCLE
  8
SIZE
  6
CONTINUOUS
 62
    30
 10
-624.34652774656251
 20
63.000333000000303
 30
0.0
 40
6.0
  0
LINE
  8
SIZE
  6
CONTINUOUS
 62
    30
 10
-624.34652774656251
 20
63.000333000000303
 30
0.0
 11
-624.34652774656251
 21
75.000333000000296
 31
0.0
  0
TEXT
  8
SIZE
  6
CONTINUOUS
 62
    30
 10
-660.01319441322926
 20
-204.2148833747527
 30
0.0
 40
64.0
  1
φ144
 50
90.0
 41
0.9
 72
     1
 11
-660.01319441322926
 21
-93.952026231895616
 31
0.0
  0
POINT
  8
DEFPOINTS
  6
CONTINUOUS
 62
    30
 10
-276.89989100000003
 20
63.000333000000182
 30
0.0
  0
POINT
  8
DEFPOINTS
  6
CONTINUOUS
 62
    30
 10
-276.89989100000003
 20
206.99985000000001
 30
0.0
  0
POINT
  8
DEFPOINTS
  6
CONTINUOUS
 62
    30
 10
-624.34652774656251
 20
206.99985000000021
 30
0.0
  0
LINE
  8
SIZE
  6
CONTINUOUS
 62
    30
 10
-265.89958000000001
 20
59.000040000000133
 30
0.0
 11
-788.87437573950865
 21
59.00004000000024
 31
0.0
  0
LINE
  8
SIZE
  6
CONTINUOUS
 62
    30
 10
-265.89958000000001
 20
211.00014300000001
 30
0.0
 11
-788.87437573950865
 21
211.00014300000009
 31
0.0
  0
LINE
  8
SIZE
  6
CONTINUOUS
 62
    30
 10
-768.87437573950865
 20
199.00014300000009
 30
0.0
 11
-768.87437573950865
 21
71.00004000000024
 31
0.0
  0
LINE
  8
SIZE
  6
CONTINUOUS
 62
    30
 10
-768.87437573950865
 20
59.00004000000024
 30
0.0
 11
-768.87437573950865
 21
-202.99195567602681
 31
0.0
  0
CIRCLE
  8
SIZE
  6
CONTINUOUS
 62
    30
 10
-768.87437573950865
 20
211.00014300000009
 30
0.0
 40
6.0
  0
LINE
  8
SIZE
  6
CONTINUOUS
 62
    30
 10
-768.87437573950865
 20
211.00014300000009
 30
0.0
 11
-768.87437573950865
 21
199.00014300000009
 31
0.0
  0
CIRCLE
  8
SIZE
  6
CONTINUOUS
 62
    30
 10
-768.87437573950865
 20
59.00004000000024
 30
0.0
 40
6.0
  0
LINE
  8
SIZE
  6
CONTINUOUS
 62
    30
 10
-768.87437573950865
 20
59.00004000000024
 30
0.0
 11
-768.87437573950865
 21
71.00004000000024
 31
0.0
  0
TEXT
  8
SIZE
  6
CONTINUOUS
 62
    30
 10
-804.54104240617551
 20
-188.14052710459831
 30
0.0
 40
64.0
  1
φ152
 50
90.0
 41
0.9
 72
     1
 11
-804.54104240617551
 21
-79.249098533169786
 31
0.0
  0
POINT
  8
DEFPOINTS
  6
CONTINUOUS
 62
    30
 10
-245.89957999999999
 20
59.000040000000133
 30
0.0
  0
POINT
  8
DEFPOINTS
  6
CONTINUOUS
 62
    30
 10
-245.89957999999999
 20
211.00014300000001
 30
0.0
  0
POINT
  8
DEFPOINTS
  6
CONTINUOUS
 62
    30
 10
-768.87437573950865
 20
211.00014300000009
 30
0.0
  0
TEXT
  8
ETC
  6
CONTINUOUS
 62
    61
 10
485.33093846360629
 20
819.72080219985492
 30
0.0
 40
64.0
  1
VD-18ZV6_4
 41
0.9
  0
TEXT
  8
ETC
  6
CONTINUOUS
 62
    61
 10
481.14494446360601
 20
701.7654921850235
 30
0.0
 40
64.0
  1
換気扇
 41
0.9
  0
TEXT
  8
ETC
  6
CONTINUOUS
 62
    61
 10
531.84634271216191
 20
593.61671929879822
 30
0.0
 40
40.0
  1
VD-18ZV6
 41
0.9
  0
LINE
  8
DETAIL
  6
CONTINUOUS
 62
     5
 10
-249.8998730000003
 20
206.64109800000011
 30
0.0
 11
-249.8998730000003
 21
63.35908500000005
 31
0.0
  0
LINE
  8
DETAIL
  6
CONTINUOUS
 62
     5
 10
-245.89958000000021
 20
210.211186
 30
0.0
 11
-245.89958000000021
 21
59.788997000000109
 31
0.0
  0
LINE
  8
DETAIL
  6
CONTINUOUS
 62
     5
 10
-219.89985300000009
 20
211.00014300000001
 30
0.0
 11
-219.89985300000009
 21
59.50004100000001
 31
0.0
  0
LINE
  8
DETAIL
  6
CONTINUOUS
 62
     5
 10
-135.00009100000031
 20
228.50013899999999
 30
0.0
 11
-135.00009100000031
 21
201.00012100000001
 31
0.0
  0
LINE
  8
DETAIL
  6
CONTINUOUS
 62
     5
 10
-135.50009200000019
 20
201.00012100000001
 30
0.0
 11
-133.0000900000002
 21
201.00012100000001
 31
0.0
  0
ARC
  8
DETAIL
  6
CONTINUOUS
 62
     5
 10
-133.00009027637731
 20
198.0001183327669
 30
0.0
 40
3.0000026672331011
 50
26.743886414218089
 51
89.999994721594192
  0
LINE
  8
DETAIL
  6
CONTINUOUS
 62
     5
 10
-135.50009200000019
 20
228.50013899999999
 30
0.0
 11
-135.50009200000019
 21
1.100000000000023
 31
0.0
  0
LINE
  8
DETAIL
  6
CONTINUOUS
 62
     5
 10
-249.31408600000029
 20
62.414545999999973
 30
0.0
 11
-246.6318140000003
 21
59.732274000000068
 31
0.0
  0
ARC
  8
DETAIL
  6
CONTINUOUS
 62
     5
 10
-244.86404600000009
 20
61.500042000000008
 30
0.0
 40
2.5000019999999998
 50
225.0000000000002
 51
270.0
  0
LINE
  8
DETAIL
  6
CONTINUOUS
 62
     5
 10
-244.86404600000009
 20
59.000040000000013
 30
0.0
 11
-219.89985300000009
 21
59.000040000000013
 31
0.0
  0
LINE
  8
DETAIL
  6
CONTINUOUS
 62
     5
 10
-152.49136200000021
 20
-0.0000099999999748
 30
0.0
 11
-136.0810500000002
 21
0.0
 31
0.0
  0
LINE
  8
BASIS
  6
DASHDOT
 62
     6
 10
-112.4988280000002
 20
135.000091
 30
0.0
 11
-303.83769500000028
 21
135.000091
 31
0.0
  0
LINE
  8
DETAIL
  6
CONTINUOUS
 62
     5
 10
-249.31408600000029
 20
207.5856370000001
 30
0.0
 11
-246.6318140000003
 21
210.26790899999989
 31
0.0
  0
LINE
  8
DETAIL
  6
CONTINUOUS
 62
     5
 10
-136.00009200000019
 20
227.25015400000009
 30
0.0
 11
-135.50009200000019
 21
227.25015400000009
 31
0.0
  0
LINE
  8
DETAIL
  6
CONTINUOUS
 62
     5
 10
-134.50009100000031
 20
228.50013899999999
 30
0.0
 11
-134.50009100000031
 21
226.00013800000011
 31
0.0
  0
ARC
  8
DETAIL
  6
CONTINUOUS
 62
     5
 10
-135.00009100000031
 20
228.50013899999999
 30
0.0
 40
0.5
 50
90.0
 51
180.0
  0
ARC
  8
DETAIL
  6
CONTINUOUS
 62
     5
 10
-135.00009100000031
 20
228.50013899999999
 30
0.0
 40
0.5
 50
0.0
 51
90.0
  0
ARC
  8
DETAIL
  6
CONTINUOUS
 62
     5
 10
-250.7283010000001
 20
208.99985100000001
 30
0.0
 40
2.0000010000000001
 50
270.0
 51
314.99999999999977
  0
LINE
  8
DETAIL
  6
CONTINUOUS
 62
     5
 10
-135.00009100000031
 20
226.00013800000011
 30
0.0
 11
-134.50009100000031
 21
226.00013800000011
 31
0.0
  0
ARC
  8
DETAIL
  6
CONTINUOUS
 62
     5
 10
-244.86404600000009
 20
208.50014100000001
 30
0.0
 40
2.5000019999999998
 50
90.0
 51
134.9999999999998
  0
LINE
  8
DETAIL
  6
CONTINUOUS
 62
     5
 10
-244.86404600000009
 20
211.00014300000001
 30
0.0
 11
-219.89985300000009
 21
211.00014300000001
 31
0.0
  0
LINE
  8
DETAIL
  6
CONTINUOUS
 62
     5
 10
-139.00009400000039
 20
215.000145
 30
0.0
 11
-210.5001420000003
 21
215.000145
 31
0.0
  0
LINE
  8
DETAIL
  6
CONTINUOUS
 62
     5
 10
-136.00009200000019
 20
227.25015400000009
 30
0.0
 11
-136.00009200000019
 21
42.75002900000004
 31
0.0
  0
ARC
  8
DETAIL
  6
CONTINUOUS
 62
     5
 10
-139.00009400000039
 20
218.000147
 30
0.0
 40
3.0000019999999998
 50
270.0
 51
0.0
  0
ARC
  8
DETAIL
  6
CONTINUOUS
 62
     5
 10
-139.00009400000039
 20
52.000035000000032
 30
0.0
 40
3.0000019999999998
 50
0.0
 51
90.0
  0
LINE
  8
DETAIL
  6
CONTINUOUS
 62
     5
 10
-136.00009200000019
 20
42.75002900000004
 30
0.0
 11
-135.50009200000019
 21
42.75002900000004
 31
0.0
  0
LINE
  8
DETAIL
  6
CONTINUOUS
 62
     5
 10
-250.7283010000001
 20
206.99985000000001
 30
0.0
 11
-276.39989100000031
 21
206.99985000000001
 31
0.0
  0
ARC
  8
DETAIL
  6
CONTINUOUS
 62
     5
 10
-276.39989100000031
 20
206.49985000000001
 30
0.0
 40
0.5
 50
90.0
 51
180.0
  0
LINE
  8
DETAIL
  6
CONTINUOUS
 62
     5
 10
-276.89989100000031
 20
206.49985000000001
 30
0.0
 11
-276.89989100000031
 21
63.500333000000069
 31
0.0
  0
LINE
  8
DETAIL
  6
CONTINUOUS
 62
     5
 10
-250.7283010000001
 20
63.000333000000069
 30
0.0
 11
-276.39989100000031
 21
63.000333000000069
 31
0.0
  0
ARC
  8
DETAIL
  6
CONTINUOUS
 62
     5
 10
-276.39989100000031
 20
63.500333000000069
 30
0.0
 40
0.5
 50
180.0
 51
270.0
  0
LINE
  8
DETAIL
  6
CONTINUOUS
 62
     5
 10
-135.50009200000019
 20
115.000078
 30
0.0
 11
-135.90023900000031
 21
115.000078
 31
0.0
  0
LINE
  8
DETAIL
  6
CONTINUOUS
 62
     5
 10
-135.50009200000019
 20
115.000078
 30
0.0
 11
-135.90023900000031
 21
115.000078
 31
0.0
  0
LINE
  8
DETAIL
  6
CONTINUOUS
 62
     5
 10
-152.99136200000021
 20
0.5
 30
0.0
 11
-152.99136200000021
 21
0.4999680000000808
 31
0.0
  0
ARC
  8
DETAIL
  6
CONTINUOUS
 62
     5
 10
-136.50012300000029
 20
19.929651000000039
 30
0.0
 40
2.0000010000000001
 50
123.6900270000036
 51
180.0000189999941
  0
ARC
  8
DETAIL
  6
CONTINUOUS
 62
     5
 10
-137.50010800000021
 20
24.070390000000089
 30
0.0
 40
2.0000010000000001
 50
303.69015499999318
 51
359.99992800000319
  0
LINE
  8
DETAIL
  6
CONTINUOUS
 62
     5
 10
-136.39070800000039
 20
22.406271000000061
 30
0.0
 11
-137.6095080000002
 21
21.593740000000029
 31
0.0
  0
ARC
  8
DETAIL
  6
CONTINUOUS
 62
     5
 10
-136.50012300000029
 20
16.070405000000051
 30
0.0
 40
2.0000010000000001
 50
179.9999640000016
 51
236.30995599999619
  0
ARC
  8
DETAIL
  6
CONTINUOUS
 62
     5
 10
-137.50010800000021
 20
11.929665
 30
0.0
 40
2.0000010000000001
 50
0.0000549999925078
 51
56.309827999994972
  0
LINE
  8
DETAIL
  6
CONTINUOUS
 62
     5
 10
-136.39070300000029
 20
13.593790000000009
 30
0.0
 11
-137.6095200000004
 21
14.406324000000041
 31
0.0
  0
LINE
  8
DETAIL
  6
CONTINUOUS
 62
     5
 10
-138.50009400000039
 20
19.929651000000039
 30
0.0
 11
-138.50009400000039
 21
16.070405000000051
 31
0.0
  0
ARC
  8
DETAIL
  6
CONTINUOUS
 62
     5
 10
-136.50012300000029
 20
19.929651000000039
 30
0.0
 40
2.0000010000000001
 50
123.6900270000036
 51
180.0000189999941
  0
ARC
  8
DETAIL
  6
CONTINUOUS
 62
     5
 10
-137.50010800000021
 20
24.070390000000089
 30
0.0
 40
2.0000010000000001
 50
303.69015499999318
 51
359.99992800000319
  0
LINE
  8
DETAIL
  6
CONTINUOUS
 62
     5
 10
-136.39070800000039
 20
22.406271000000061
 30
0.0
 11
-137.6095080000002
 21
21.593740000000029
 31
0.0
  0
ARC
  8
DETAIL
  6
CONTINUOUS
 62
     5
 10
-136.50012300000029
 20
16.070405000000051
 30
0.0
 40
2.0000010000000001
 50
179.9999640000016
 51
236.30995599999619
  0
ARC
  8
DETAIL
  6
CONTINUOUS
 62
     5
 10
-137.50010800000021
 20
11.929665
 30
0.0
 40
2.0000010000000001
 50
0.0000549999925078
 51
56.309827999994972
  0
LINE
  8
DETAIL
  6
CONTINUOUS
 62
     5
 10
-136.39070300000029
 20
13.593790000000009
 30
0.0
 11
-137.6095200000004
 21
14.406324000000041
 31
0.0
  0
LINE
  8
DETAIL
  6
CONTINUOUS
 62
     5
 10
-138.50009400000039
 20
19.929651000000039
 30
0.0
 11
-138.50009400000039
 21
16.070405000000051
 31
0.0
  0
ARC
  8
DETAIL
  6
CONTINUOUS
 62
     5
 10
-219.89985300000009
 20
214.500145
 30
0.0
 40
3.5000019999999998
 50
270.0
 51
297.04042999999638
  0
ARC
  8
DETAIL
  6
CONTINUOUS
 62
     5
 10
-210.5001420000003
 20
212.00014300000001
 30
0.0
 40
3.0000019999999998
 50
90.0
 51
117.04042999999641
  0
LINE
  8
DETAIL
  6
CONTINUOUS
 62
     5
 10
-218.30868500000039
 20
211.38274200000001
 30
0.0
 11
-211.8640010000004
 21
214.67220300000011
 31
0.0
  0
LINE
  8
DETAIL
  6
CONTINUOUS
 62
     5
 10
-139.00009400000039
 20
55.00003700000002
 30
0.0
 11
-210.5001420000003
 21
55.00003700000002
 31
0.0
  0
ARC
  8
DETAIL
  6
CONTINUOUS
 62
     5
 10
-219.89985300000009
 20
55.500038000000018
 30
0.0
 40
3.5000019999999998
 50
62.959570000003573
 51
90.0
  0
LINE
  8
DETAIL
  6
CONTINUOUS
 62
     5
 10
-218.30868500000039
 20
58.617441000000099
 30
0.0
 11
-211.8640010000004
 21
55.327980000000032
 31
0.0
  0
ARC
  8
DETAIL
  6
CONTINUOUS
 62
     5
 10
-210.5001420000003
 20
58.000040000000013
 30
0.0
 40
3.0000019999999998
 50
242.95957000000359
 51
270.0
  0
ARC
  8
DETAIL
  6
CONTINUOUS
 62
     5
 10
-250.7283010000001
 20
61.00033099999996
 30
0.0
 40
2.0000010000000001
 50
45.00000000000022
 51
90.0
  0
ARC
  8
DETAIL
  6
CONTINUOUS
 62
     5
 10
-136.1000920000001
 20
1.100000000000023
 30
0.0
 40
0.6
 50
270.0
 51
0.0
  0
LINE
  8
DETAIL
  6
CONTINUOUS
 62
     5
 10
-152.99136200000021
 20
0.4999900000000252
 30
0.0
 11
-136.1000920000001
 21
0.5
 31
0.0
  0
LINE
  8
DETAIL
  6
CONTINUOUS
 62
     5
 10
-152.99136200000021
 20
0.0
 30
0.0
 11
-152.99136200000021
 21
0.4999900000000252
 31
0.0
  0
LINE
  8
DETAIL
  6
CONTINUOUS
 62
     5
 10
-39.500027000000273
 20
237.50015300000001
 30
0.0
 11
-39.500027000000273
 21
206.95013399999991
 31
0.0
  0
ARC
  8
DETAIL
  6
CONTINUOUS
 62
     5
 10
-34.000023000000283
 20
237.50015300000001
 30
0.0
 40
5.5000039999999997
 50
90.0
 51
180.0
  0
ARC
  8
DETAIL
  6
CONTINUOUS
 62
     5
 10
37.000024999999823
 20
237.50015300000001
 30
0.0
 40
5.5000039999999997
 50
0.0
 51
90.0
  0
LINE
  8
DETAIL
  6
CONTINUOUS
 62
     5
 10
42.500028999999813
 20
237.50015300000001
 30
0.0
 11
42.500027999999702
 21
206.95013399999991
 31
0.0
  0
LINE
  8
DETAIL
  6
CONTINUOUS
 62
     5
 10
37.000024999999823
 20
243.00015699999989
 30
0.0
 11
-34.000023000000283
 21
243.00015699999989
 31
0.0
  0
LINE
  8
DETAIL
  6
CONTINUOUS
 62
     5
 10
135.00009099999971
 20
-15.000009999999969
 30
0.0
 11
-135.00009100000031
 21
-15.000009999999969
 31
0.0
  0
ARC
  8
DETAIL
  6
CONTINUOUS
 62
     5
 10
135.00009099999971
 20
55.00003700000002
 30
0.0
 40
70.000046999999995
 50
269.99992800000319
 51
294.31567500000091
  0
ARC
  8
DETAIL
  6
CONTINUOUS
 62
     5
 10
163.00010899999961
 20
-6.967777999999953
 30
0.0
 40
2.0000010000000001
 50
294.31627599999229
 51
0.0000370000063293
  0
LINE
  8
DETAIL
  6
CONTINUOUS
 62
     5
 10
-167.00011300000031
 20
0.0
 30
0.0
 11
167.00011199999969
 21
0.0
 31
0.0
  0
LINE
  8
DETAIL
  6
CONTINUOUS
 62
     5
 10
167.00011199999969
 20
0.0
 30
0.0
 11
167.00011199999969
 21
-0.50009799999998
 31
0.0
  0
LINE
  8
DETAIL
  6
CONTINUOUS
 62
     5
 10
165.00011099999981
 20
-1.5000979999999799
 30
0.0
 11
165.00011099999981
 21
-6.967777999999953
 31
0.0
  0
LINE
  8
DETAIL
  6
CONTINUOUS
 62
     5
 10
167.00011199999969
 20
-0.50009799999998
 30
0.0
 11
-167.00011300000031
 21
-0.50009799999998
 31
0.0
  0
ARC
  8
DETAIL
  6
CONTINUOUS
 62
     5
 10
166.00011199999969
 20
-1.5000979999999799
 30
0.0
 40
1.0000009999999999
 50
90.0
 51
180.0
  0
LINE
  8
DETAIL
  6
CONTINUOUS
 62
     5
 10
-167.00011300000031
 20
0.0
 30
0.0
 11
-167.00011300000031
 21
-0.50009799999998
 31
0.0
  0
ARC
  8
DETAIL
  6
CONTINUOUS
 62
     5
 10
-135.00009100000031
 20
55.00003700000002
 30
0.0
 40
70.000046999999995
 50
245.68432499999921
 51
270.00007199999681
  0
ARC
  8
DETAIL
  6
CONTINUOUS
 62
     5
 10
-163.0001100000004
 20
-6.967777999999953
 30
0.0
 40
2.0000010000000001
 50
179.9999629999937
 51
245.68372400000769
  0
LINE
  8
DETAIL
  6
CONTINUOUS
 62
     5
 10
-165.0001120000002
 20
-1.5000979999999799
 30
0.0
 11
-165.0001120000002
 21
-6.967777999999953
 31
0.0
  0
ARC
  8
DETAIL
  6
CONTINUOUS
 62
     5
 10
-166.0001120000002
 20
-1.5000979999999799
 30
0.0
 40
1.0000009999999999
 50
0.0
 51
90.0
  0
ARC
  8
DETAIL
  6
CONTINUOUS
 62
     5
 10
65.000042999999778
 20
18.000005999999981
 30
0.0
 40
10.000007
 50
270.0
 51
90.0
  0
ARC
  8
DETAIL
  6
CONTINUOUS
 62
     5
 10
44.000028999999813
 20
18.000005999999981
 30
0.0
 40
10.000007
 50
90.0
 51
270.0
  0
LINE
  8
DETAIL
  6
CONTINUOUS
 62
     5
 10
44.000028999999813
 20
8.0
 30
0.0
 11
65.000042999999778
 21
8.0
 31
0.0
  0
LINE
  8
DETAIL
  6
CONTINUOUS
 62
     5
 10
44.000028999999813
 20
28.000013000000081
 30
0.0
 11
65.000042999999778
 21
28.000013000000081
 31
0.0
  0
LINE
  8
NOTE
  6
CENTER
 62
     4
 10
29.240820999999642
 20
18.000005999999981
 30
0.0
 11
80.128463999999667
 21
18.000005999999981
 31
0.0
  0
LINE
  8
NOTE
  6
CENTER
 62
     4
 10
54.500035999999682
 20
1.2811000000000381
 30
0.0
 11
54.500035999999682
 21
35.934852000000092
 31
0.0
  0
LINE
  8
NOTE
  6
CENTER
 62
     4
 10
-29.240822000000211
 20
18.000005999999981
 30
0.0
 11
-80.128465000000233
 21
18.000005999999981
 31
0.0
  0
LINE
  8
DETAIL
  6
CONTINUOUS
 62
     5
 10
-44.000030000000379
 20
28.000013000000081
 30
0.0
 11
-65.000044000000344
 21
28.000013000000081
 31
0.0
  0
LINE
  8
DETAIL
  6
CONTINUOUS
 62
     5
 10
-44.000030000000379
 20
8.0
 30
0.0
 11
-65.000044000000344
 21
8.0
 31
0.0
  0
ARC
  8
DETAIL
  6
CONTINUOUS
 62
     5
 10
-65.000044000000344
 20
18.000005999999981
 30
0.0
 40
10.000007
 50
90.0
 51
270.0
  0
ARC
  8
DETAIL
  6
CONTINUOUS
 62
     5
 10
-44.000030000000379
 20
18.000005999999981
 30
0.0
 40
10.000007
 50
270.0
 51
90.0
  0
LINE
  8
NOTE
  6
CENTER
 62
     4
 10
-54.500037000000248
 20
1.2811000000000381
 30
0.0
 11
-54.500037000000248
 21
35.934852000000092
 31
0.0
  0
ARC
  8
DETAIL
  6
CONTINUOUS
 62
     5
 10
-136.00009200000019
 20
1.000000999999997
 30
0.0
 40
1.0000009999999999
 50
270.0
 51
0.0
  0
ARC
  8
DETAIL
  6
CONTINUOUS
 62
     5
 10
79.827291999999716
 20
201.95012999999989
 30
0.0
 40
5.0000030000000004
 50
43.025065999998013
 51
90.0
  0
LINE
  8
DETAIL
  6
CONTINUOUS
 62
     5
 10
83.48257099999978
 20
205.36172400000009
 30
0.0
 11
89.093392999999651
 21
199.35012900000001
 31
0.0
  0
ARC
  8
DETAIL
  6
CONTINUOUS
 62
     5
 10
134.1000839999997
 20
190.500123
 30
0.0
 40
0.9000010000000001
 50
0.0
 51
90.0
  0
ARC
  8
DETAIL
  6
CONTINUOUS
 62
     5
 10
133.45008299999969
 20
192.65012400000001
 30
0.0
 40
1.2500009999999999
 50
270.0
 51
0.0
  0
ARC
  8
DETAIL
  6
CONTINUOUS
 62
     5
 10
133.45008299999969
 20
198.10022599999999
 30
0.0
 40
1.2500009999999999
 50
0.0
 51
90.0
  0
LINE
  8
DETAIL
  6
CONTINUOUS
 62
     5
 10
134.70008399999961
 20
192.65012400000001
 30
0.0
 11
134.70008399999961
 21
198.10022599999999
 31
0.0
  0
LINE
  8
DETAIL
  6
CONTINUOUS
 62
     5
 10
-80.482570000000351
 20
205.36172400000009
 30
0.0
 11
-86.093392000000222
 21
199.35012900000001
 31
0.0
  0
LINE
  8
DETAIL
  6
CONTINUOUS
 62
     5
 10
133.46570799999969
 20
199.35012900000001
 30
0.0
 11
-130.32100700000021
 21
199.35012900000001
 31
0.0
  0
LINE
  8
DETAIL
  6
CONTINUOUS
 62
     5
 10
-76.827291000000287
 20
206.95013399999991
 30
0.0
 11
79.827291999999716
 21
206.95013399999991
 31
0.0
  0
ARC
  8
DETAIL
  6
CONTINUOUS
 62
     5
 10
-76.827291000000287
 20
201.95012999999989
 30
0.0
 40
5.0000030000000004
 50
90.0
 51
136.97493400000201
  0
ARC
  8
DETAIL
  6
CONTINUOUS
 62
     5
 10
136.00009099999971
 20
1.000000999999997
 30
0.0
 40
1.0000009999999999
 50
180.0
 51
270.0
  0
LINE
  8
DETAIL
  6
CONTINUOUS
 62
     5
 10
-135.00009100000031
 20
1.000000999999997
 30
0.0
 11
-135.00009100000011
 21
201.00012100000001
 31
0.0
  0
LINE
  8
DETAIL
  6
CONTINUOUS
 62
     5
 10
134.1000839999997
 20
191.40012300000009
 30
0.0
 11
-135.50009200000019
 21
191.40012300000009
 31
0.0
  0
LINE
  8
DETAIL
  6
CONTINUOUS
 62
     5
 10
135.00009099999971
 20
1.000000999999997
 30
0.0
 11
135.00009099999971
 21
190.500123
 31
0.0
  0
LINE
  8
NOTE
  6
CENTER
 62
     4
 10
-99.400000000000318
 20
208.890173
 30
0.0
 11
-99.400000000000318
 21
185.42885200000001
 31
0.0
  0
LINE
  8
OUTLINE
  6
CONTINUOUS
 62
     3
 10
-249.8998730000001
 20
206.64109800000011
 30
0.0
 11
-249.8998730000001
 21
63.35908500000005
 31
0.0
  0
LINE
  8
OUTLINE
  6
CONTINUOUS
 62
     3
 10
-245.89957999999999
 20
210.211186
 30
0.0
 11
-245.89957999999999
 21
59.788996999999881
 31
0.0
  0
LINE
  8
OUTLINE
  6
CONTINUOUS
 62
     3
 10
-219.89985300000009
 20
211.00014300000001
 30
0.0
 11
-219.89985300000009
 21
59.50004100000001
 31
0.0
  0
LINE
  8
OUTLINE
  6
CONTINUOUS
 62
     3
 10
-134.50009100000011
 20
228.50013899999999
 30
0.0
 11
-134.50009100000011
 21
226.00013799999999
 31
0.0
  0
ARC
  8
OUTLINE
  6
CONTINUOUS
 62
     3
 10
-135.00009100000011
 20
228.50013899999999
 30
0.0
 40
0.5
 50
90.0
 51
180.0
  0
ARC
  8
OUTLINE
  6
CONTINUOUS
 62
     3
 10
-135.00009100000011
 20
228.50013899999999
 30
0.0
 40
0.5
 50
0.0
 51
90.0
  0
LINE
  8
OUTLINE
  6
CONTINUOUS
 62
     3
 10
-135.500092
 20
115.000078
 30
0.0
 11
-135.9002390000002
 21
115.000078
 31
0.0
  0
LINE
  8
OUTLINE
  6
CONTINUOUS
 62
     3
 10
-135.500092
 20
115.000078
 30
0.0
 11
-135.9002390000002
 21
115.000078
 31
0.0
  0
LINE
  8
OUTLINE
  6
CONTINUOUS
 62
     3
 10
-152.99136200000001
 20
0.5
 30
0.0
 11
-152.99136200000001
 21
0.4999680000000808
 31
0.0
  0
ARC
  8
OUTLINE
  6
CONTINUOUS
 62
     3
 10
-136.1000919999999
 20
1.100000000000136
 30
0.0
 40
0.6
 50
270.0
 51
0.0
  0
LINE
  8
OUTLINE
  6
CONTINUOUS
 62
     3
 10
-152.99136200000001
 20
0.4999900000000252
 30
0.0
 11
-136.1000919999999
 21
0.5
 31
0.0
  0
LINE
  8
OUTLINE
  6
CONTINUOUS
 62
     3
 10
-152.99136200000001
 20
0.0
 30
0.0
 11
-152.99136200000001
 21
0.4999900000000252
 31
0.0
  0
LINE
  8
OUTLINE
  6
CONTINUOUS
 62
     3
 10
-39.500027000000053
 20
237.50015300000001
 30
0.0
 11
-39.500027000000053
 21
206.95013399999991
 31
0.0
  0
ARC
  8
OUTLINE
  6
CONTINUOUS
 62
     3
 10
-34.000023000000063
 20
237.50015300000001
 30
0.0
 40
5.5000039999999997
 50
90.0
 51
180.0
  0
ARC
  8
OUTLINE
  6
CONTINUOUS
 62
     3
 10
37.000025000000051
 20
237.50015300000001
 30
0.0
 40
5.5000039999999997
 50
0.0
 51
90.0
  0
LINE
  8
OUTLINE
  6
CONTINUOUS
 62
     3
 10
42.50002900000004
 20
237.50015300000001
 30
0.0
 11
42.500027999999929
 21
206.95013399999991
 31
0.0
  0
LINE
  8
OUTLINE
  6
CONTINUOUS
 62
     3
 10
37.000025000000051
 20
243.00015699999989
 30
0.0
 11
-34.000023000000063
 21
243.00015699999989
 31
0.0
  0
LINE
  8
OUTLINE
  6
CONTINUOUS
 62
     3
 10
135.00009099999991
 20
-15.000009999999969
 30
0.0
 11
-135.00009100000011
 21
-15.000009999999969
 31
0.0
  0
ARC
  8
OUTLINE
  6
CONTINUOUS
 62
     3
 10
135.00009099999991
 20
55.00003700000002
 30
0.0
 40
70.000046999999995
 50
269.99992800000319
 51
294.31567500000091
  0
ARC
  8
OUTLINE
  6
CONTINUOUS
 62
     3
 10
163.00010899999981
 20
-6.967777999999953
 30
0.0
 40
2.0000010000000001
 50
294.31627599999229
 51
0.0000370000063293
  0
LINE
  8
OUTLINE
  6
CONTINUOUS
 62
     3
 10
167.00011199999989
 20
0.0
 30
0.0
 11
167.00011199999989
 21
-0.50009799999998
 31
0.0
  0
LINE
  8
OUTLINE
  6
CONTINUOUS
 62
     3
 10
165.00011100000009
 20
-1.5000979999999799
 30
0.0
 11
165.00011100000009
 21
-6.967777999999953
 31
0.0
  0
LINE
  8
OUTLINE
  6
CONTINUOUS
 62
     3
 10
-167.0001130000002
 20
0.0
 30
0.0
 11
-167.0001130000002
 21
-0.50009799999998
 31
0.0
  0
ARC
  8
OUTLINE
  6
CONTINUOUS
 62
     3
 10
-135.00009100000011
 20
55.00003700000002
 30
0.0
 40
70.000046999999995
 50
245.68432499999921
 51
270.00007199999681
  0
ARC
  8
OUTLINE
  6
CONTINUOUS
 62
     3
 10
-163.00011000000021
 20
-6.967777999999953
 30
0.0
 40
2.0000010000000001
 50
179.9999629999937
 51
245.68372400000769
  0
LINE
  8
OUTLINE
  6
CONTINUOUS
 62
     3
 10
-165.0001119999998
 20
-1.5000979999999799
 30
0.0
 11
-165.0001119999998
 21
-6.967777999999953
 31
0.0
  0
ARC
  8
OUTLINE
  6
CONTINUOUS
 62
     3
 10
-166.0001119999998
 20
-1.5000979999999799
 30
0.0
 40
1.0000009999999999
 50
0.0
 51
90.0
  0
ARC
  8
OUTLINE
  6
CONTINUOUS
 62
     3
 10
79.827291999999943
 20
201.95012999999989
 30
0.0
 40
5.0000030000000004
 50
43.025065999998013
 51
90.0
  0
LINE
  8
OUTLINE
  6
CONTINUOUS
 62
     3
 10
83.482571000000007
 20
205.36172400000009
 30
0.0
 11
89.093392999999878
 21
199.35012900000001
 31
0.0
  0
ARC
  8
OUTLINE
  6
CONTINUOUS
 62
     3
 10
134.1000839999999
 20
190.500123
 30
0.0
 40
0.9000010000000001
 50
0.0
 51
90.0
  0
ARC
  8
OUTLINE
  6
CONTINUOUS
 62
     3
 10
133.45008299999969
 20
198.10022599999999
 30
0.0
 40
1.2500009999999999
 50
0.0
 51
90.0
  0
LINE
  8
OUTLINE
  6
CONTINUOUS
 62
     3
 10
134.7000839999998
 20
192.65012400000001
 30
0.0
 11
134.7000839999998
 21
198.10022599999999
 31
0.0
  0
LINE
  8
OUTLINE
  6
CONTINUOUS
 62
     3
 10
-80.482570000000123
 20
205.36172400000009
 30
0.0
 11
-86.093391999999994
 21
199.35012900000001
 31
0.0
  0
ARC
  8
OUTLINE
  6
CONTINUOUS
 62
     3
 10
-76.827291000000059
 20
201.95012999999989
 30
0.0
 40
5.0000030000000004
 50
90.0
 51
136.97493400000201
  0
LINE
  8
NOTE
  6
CENTER
 62
     4
 10
-99.400000000000091
 20
208.890173
 30
0.0
 11
-99.400000000000091
 21
185.42885200000001
 31
0.0
  0
LINE
  8
OUTLINE
  6
CONTINUOUS
 62
     3
 10
135.00009099999991
 20
0.0
 30
0.0
 11
167.00011199999989
 21
0.0
 31
0.0
  0
LINE
  8
OUTLINE
  6
CONTINUOUS
 62
     3
 10
135.00009099999991
 20
0.0
 30
0.0
 11
135.00009099999991
 21
190.500123
 31
0.0
  0
LINE
  8
OUTLINE
  6
CONTINUOUS
 62
     3
 10
167.00011199999989
 20
-0.50009799999998
 30
0.0
 11
166.00011199999989
 21
-0.50009799999998
 31
0.0
  0
ARC
  8
OUTLINE
  6
CONTINUOUS
 62
     3
 10
166.00011199999989
 20
-1.5000979999999799
 30
0.0
 40
1.0000009999999999
 50
90.0
 51
180.0
  0
LINE
  8
OUTLINE
  6
CONTINUOUS
 62
     3
 10
134.1000839999999
 20
191.40012300000009
 30
0.0
 11
133.45008299999969
 21
191.40012300000009
 31
0.0
  0
ARC
  8
OUTLINE
  6
CONTINUOUS
 62
     3
 10
133.45008299999969
 20
192.65012400000001
 30
0.0
 40
1.2500009999999999
 50
270.0
 51
0.0
  0
LINE
  8
OUTLINE
  6
CONTINUOUS
 62
     3
 10
133.46570799999969
 20
199.35012900000001
 30
0.0
 11
89.093392999999878
 21
199.35012900000001
 31
0.0
  0
LINE
  8
OUTLINE
  6
CONTINUOUS
 62
     3
 10
-86.093391999999994
 20
199.35012900000001
 30
0.0
 11
-130.32100700000001
 21
199.35012900000001
 31
0.0
  0
LINE
  8
OUTLINE
  6
CONTINUOUS
 62
     3
 10
-76.827291000000059
 20
206.95013399999991
 30
0.0
 11
-39.500027000000053
 21
206.95013399999991
 31
0.0
  0
LINE
  8
OUTLINE
  6
CONTINUOUS
 62
     3
 10
42.500027999999929
 20
206.95013399999991
 30
0.0
 11
79.827291999999943
 21
206.95013399999991
 31
0.0
  0
ARC
  8
OUTLINE
  6
CONTINUOUS
 62
     3
 10
-133.00009
 20
198.00011900000001
 30
0.0
 40
3.0000019999999998
 50
26.743879999998569
 51
90.0
  0
LINE
  8
OUTLINE
  6
CONTINUOUS
 62
     3
 10
-166.0001119999998
 20
-0.50009799999998
 30
0.0
 11
-167.0001130000002
 21
-0.50009799999998
 31
0.0
  0
LINE
  8
OUTLINE
  6
CONTINUOUS
 62
     3
 10
-167.0001130000002
 20
0.0
 30
0.0
 11
-152.99136200000001
 21
0.0
 31
0.0
  0
LINE
  8
OUTLINE
  6
CONTINUOUS
 62
     3
 10
-136.000092
 20
42.75002900000004
 30
0.0
 11
-135.500092
 21
42.75002900000004
 31
0.0
  0
LINE
  8
OUTLINE
  6
CONTINUOUS
 62
     3
 10
-135.500092
 20
42.75002900000004
 30
0.0
 11
-135.500092
 21
1.100000000000136
 31
0.0
  0
ARC
  8
OUTLINE
  6
CONTINUOUS
 62
     3
 10
-139.00009400000019
 20
52.000035000000032
 30
0.0
 40
3.0000019999999998
 50
0.0
 51
90.0
  0
LINE
  8
OUTLINE
  6
CONTINUOUS
 62
     3
 10
-136.000092
 20
52.000035000000032
 30
0.0
 11
-136.000092
 21
42.75002900000004
 31
0.0
  0
LINE
  8
OUTLINE
  6
CONTINUOUS
 62
     3
 10
-136.000092
 20
227.25015400000009
 30
0.0
 11
-136.000092
 21
218.000147
 31
0.0
  0
ARC
  8
OUTLINE
  6
CONTINUOUS
 62
     3
 10
-139.00009400000019
 20
218.000147
 30
0.0
 40
3.0000019999999998
 50
270.0
 51
0.0
  0
LINE
  8
OUTLINE
  6
CONTINUOUS
 62
     3
 10
-136.000092
 20
227.25015400000009
 30
0.0
 11
-135.500092
 21
227.25015400000009
 31
0.0
  0
LINE
  8
OUTLINE
  6
CONTINUOUS
 62
     3
 10
-135.500092
 20
228.50013899999999
 30
0.0
 11
-135.500092
 21
227.25015400000009
 31
0.0
  0
LINE
  8
OUTLINE
  6
CONTINUOUS
 62
     3
 10
-135.00009100000011
 20
226.00013799999999
 30
0.0
 11
-134.50009100000011
 21
226.00013799999999
 31
0.0
  0
LINE
  8
OUTLINE
  6
CONTINUOUS
 62
     3
 10
-135.00009100000011
 20
201.00012100000001
 30
0.0
 11
-133.00009
 21
201.00012100000001
 31
0.0
  0
LINE
  8
OUTLINE
  6
CONTINUOUS
 62
     3
 10
-135.00009100000011
 20
226.00013799999999
 30
0.0
 11
-135.00009100000011
 21
201.00012100000001
 31
0.0
  0
LINE
  8
OUTLINE
  6
CONTINUOUS
 62
     3
 10
-276.89989100000003
 20
206.99985000000001
 30
0.0
 11
-276.89989100000003
 21
63.000333000000182
 31
0.0
  0
LINE
  8
OUTLINE
  6
CONTINUOUS
 62
     3
 10
-249.8998730000001
 20
63.000333000000182
 30
0.0
 11
-276.89989100000003
 21
63.000333000000182
 31
0.0
  0
LINE
  8
OUTLINE
  6
CONTINUOUS
 62
     3
 10
-249.8998730000001
 20
63.000333000000182
 30
0.0
 11
-245.89957999999999
 21
59.000040000000133
 31
0.0
  0
LINE
  8
OUTLINE
  6
CONTINUOUS
 62
     3
 10
-245.89957999999999
 20
59.000040000000133
 30
0.0
 11
-219.05827000000019
 21
59.000040000000133
 31
0.0
  0
LINE
  8
OUTLINE
  6
CONTINUOUS
 62
     3
 10
-219.05827000000019
 20
59.000040000000133
 30
0.0
 11
-211.22149899999999
 21
55.00003700000002
 31
0.0
  0
LINE
  8
OUTLINE
  6
CONTINUOUS
 62
     3
 10
-139.00009400000019
 20
55.00003700000002
 30
0.0
 11
-211.22149899999999
 21
55.00003700000002
 31
0.0
  0
LINE
  8
OUTLINE
  6
CONTINUOUS
 62
     3
 10
-139.00009400000019
 20
215.000145
 30
0.0
 11
-211.22149899999999
 21
215.000145
 31
0.0
  0
LINE
  8
OUTLINE
  6
CONTINUOUS
 62
     3
 10
-219.05827000000019
 20
211.00014300000001
 30
0.0
 11
-211.22149899999999
 21
215.000145
 31
0.0
  0
LINE
  8
OUTLINE
  6
CONTINUOUS
 62
     3
 10
-245.89957999999999
 20
211.00014300000001
 30
0.0
 11
-219.05827000000019
 21
211.00014300000001
 31
0.0
  0
LINE
  8
OUTLINE
  6
CONTINUOUS
 62
     3
 10
-249.8998730000001
 20
206.99985000000001
 30
0.0
 11
-245.89957999999999
 21
211.00014300000001
 31
0.0
  0
LINE
  8
OUTLINE
  6
CONTINUOUS
 62
     3
 10
-249.8998730000001
 20
206.99985000000001
 30
0.0
 11
-276.89989100000003
 21
206.99985000000001
 31
0.0
  0
LINE
  8
NOTE
  6
CENTER
 62
     4
 10
-146.0000000000002
 20
3.613455000000044
 30
0.0
 11
-146.0000000000002
 21
-4.8408489999999347
 31
0.0
  0
LINE
  8
NOTE
  6
CENTER
 62
     4
 10
-115.0000000000002
 20
3.613455000000044
 30
0.0
 11
-115.0000000000002
 21
-4.8408489999999347
 31
0.0
  0
LINE
  8
NOTE
  6
CENTER
 62
     4
 10
114.9999999999998
 20
3.613455000000044
 30
0.0
 11
114.9999999999998
 21
-4.8408489999999347
 31
0.0
  0
LINE
  8
NOTE
  6
CENTER
 62
     4
 10
145.9999999999998
 20
3.613455000000044
 30
0.0
 11
145.9999999999998
 21
-4.8408489999999347
 31
0.0
  0
LINE
  8
SIZE
  6
CONTINUOUS
 62
    30
 10
-155.50009200000019
 20
49.50004899999999
 30
0.0
 11
-325.59539796320507
 21
49.50004899999999
 31
0.0
  0
LINE
  8
SIZE
  6
CONTINUOUS
 62
    30
 10
-187.00011300000011
 20
0.0
 30
0.0
 11
-325.59539796320507
 21
0.0
 31
0.0
  0
LINE
  8
SIZE
  6
CONTINUOUS
 62
    30
 10
-305.59539796320507
 20
61.50004899999999
 30
0.0
 11
-305.59539796320507
 21
73.50004899999999
 31
0.0
  0
LINE
  8
SIZE
  6
CONTINUOUS
 62
    30
 10
-305.59539796320507
 20
-12.0
 30
0.0
 11
-305.59539796320507
 21
-167.25714285714281
 31
0.0
  0
LINE
  8
SIZE
  6
CONTINUOUS
 62
    30
 10
-305.59539796320507
 20
49.50004899999999
 30
0.0
 11
-305.59539796320507
 21
0.0
 31
0.0
  0
CIRCLE
  8
SIZE
  6
CONTINUOUS
 62
    30
 10
-305.59539796320507
 20
49.50004899999999
 30
0.0
 40
6.0
  0
LINE
  8
SIZE
  6
CONTINUOUS
 62
    30
 10
-305.59539796320507
 20
49.50004899999999
 30
0.0
 11
-305.59539796320507
 21
61.50004899999999
 31
0.0
  0
CIRCLE
  8
SIZE
  6
CONTINUOUS
 62
    30
 10
-305.59539796320507
 20
0.0
 30
0.0
 40
6.0
  0
LINE
  8
SIZE
  6
CONTINUOUS
 62
    30
 10
-305.59539796320507
 20
0.0
 30
0.0
 11
-305.59539796320507
 21
-12.0
 31
0.0
  0
TEXT
  8
SIZE
  6
CONTINUOUS
 62
    30
 10
-330.59539796320507
 20
-142.25714285714281
 30
0.0
 40
64.0
  1
50
 50
90.0
 41
0.9
 72
     1
 11
-330.59539796320507
 21
-95.628571428571377
 31
0.0
  0
POINT
  8
DEFPOINTS
  6
CONTINUOUS
 62
    30
 10
-135.50009200000019
 20
49.50004899999999
 30
0.0
  0
POINT
  8
DEFPOINTS
  6
CONTINUOUS
 62
    30
 10
-167.0001130000002
 20
0.0
 30
0.0
  0
POINT
  8
DEFPOINTS
  6
CONTINUOUS
 62
    30
 10
-305.59539796320507
 20
0.0
 30
0.0
  0
LINE
  8
SIZE
  6
CONTINUOUS
 62
    30
 10
100.1284639999997
 20
18.000005999999981
 30
0.0
 11
330.69730430084559
 21
18.000005999999871
 31
0.0
  0
LINE
  8
SIZE
  6
CONTINUOUS
 62
    30
 10
187.00011199999989
 20
0.0
 30
0.0
 11
330.69730430084559
 21
0.0
 31
0.0
  0
LINE
  8
SIZE
  6
CONTINUOUS
 62
    30
 10
310.69730430084559
 20
30.000005999999871
 30
0.0
 11
310.69730430084559
 21
42.000005999999871
 31
0.0
  0
LINE
  8
SIZE
  6
CONTINUOUS
 62
    30
 10
310.69730430084559
 20
-12.0
 30
0.0
 11
310.69730430084559
 21
-183.78889641058529
 31
0.0
  0
LINE
  8
SIZE
  6
CONTINUOUS
 62
    30
 10
310.69730430084559
 20
18.000005999999871
 30
0.0
 11
310.69730430084559
 21
0.0
 31
0.0
  0
CIRCLE
  8
SIZE
  6
CONTINUOUS
 62
    30
 10
310.69730430084559
 20
18.000005999999871
 30
0.0
 40
6.0
  0
LINE
  8
SIZE
  6
CONTINUOUS
 62
    30
 10
310.69730430084559
 20
18.000005999999871
 30
0.0
 11
310.69730430084559
 21
30.000005999999871
 31
0.0
  0
CIRCLE
  8
SIZE
  6
CONTINUOUS
 62
    30
 10
310.69730430084559
 20
0.0
 30
0.0
 40
6.0
  0
LINE
  8
SIZE
  6
CONTINUOUS
 62
    30
 10
310.69730430084559
 20
0.0
 30
0.0
 11
310.69730430084559
 21
-12.0
 31
0.0
  0
TEXT
  8
SIZE
  6
CONTINUOUS
 62
    30
 10
285.69730430084559
 20
-158.78889641058529
 30
0.0
 40
64.0
  1
18
 50
90.0
 41
0.9
 72
     1
 11
285.69730430084559
 21
-117.6460392677282
 31
0.0
  0
POINT
  8
DEFPOINTS
  6
CONTINUOUS
 62
    30
 10
80.128463999999667
 20
18.000005999999981
 30
0.0
  0
POINT
  8
DEFPOINTS
  6
CONTINUOUS
 62
    30
 10
167.00011199999989
 20
0.0
 30
0.0
  0
POINT
  8
DEFPOINTS
  6
CONTINUOUS
 62
    30
 10
310.69730430084559
 20
0.0
 30
0.0
  0
LINE
  8
SIZE
  6
CONTINUOUS
 62
    30
 10
85.000042999999778
 20
8.0
 30
0.0
 11
449.22029162225948
 21
7.9999999999998863
 31
0.0
  0
LINE
  8
SIZE
  6
CONTINUOUS
 62
    30
 10
85.000042999999778
 20
28.000013000000081
 30
0.0
 11
449.22029162225948
 21
28.000012999999971
 31
0.0
  0
LINE
  8
SIZE
  6
CONTINUOUS
 62
    30
 10
429.22029162225948
 20
40.000012999999967
 30
0.0
 11
429.22029162225948
 21
52.000012999999967
 31
0.0
  0
LINE
  8
SIZE
  6
CONTINUOUS
 62
    30
 10
429.22029162225948
 20
-4.0000000000001137
 30
0.0
 11
429.22029162225948
 21
-185.85665237518799
 31
0.0
  0
LINE
  8
SIZE
  6
CONTINUOUS
 62
    30
 10
429.22029162225948
 20
28.000012999999971
 30
0.0
 11
429.22029162225948
 21
7.9999999999998863
 31
0.0
  0
CIRCLE
  8
SIZE
  6
CONTINUOUS
 62
    30
 10
429.22029162225948
 20
28.000012999999971
 30
0.0
 40
6.0
  0
LINE
  8
SIZE
  6
CONTINUOUS
 62
    30
 10
429.22029162225948
 20
28.000012999999971
 30
0.0
 11
429.22029162225948
 21
40.000012999999967
 31
0.0
  0
CIRCLE
  8
SIZE
  6
CONTINUOUS
 62
    30
 10
429.22029162225948
 20
7.9999999999998863
 30
0.0
 40
6.0
  0
LINE
  8
SIZE
  6
CONTINUOUS
 62
    30
 10
429.22029162225948
 20
7.9999999999998863
 30
0.0
 11
429.22029162225948
 21
-4.0000000000001137
 31
0.0
  0
TEXT
  8
SIZE
  6
CONTINUOUS
 62
    30
 10
404.22029162225948
 20
-160.85665237518791
 30
0.0
 40
64.0
  1
20
 50
90.0
 41
0.9
 72
     1
 11
404.22029162225948
 21
-114.2280809466165
 31
0.0
  0
POINT
  8
DEFPOINTS
  6
CONTINUOUS
 62
    30
 10
65.000042999999778
 20
8.0
 30
0.0
  0
POINT
  8
DEFPOINTS
  6
CONTINUOUS
 62
    30
 10
65.000042999999778
 20
28.000013000000081
 30
0.0
  0
POINT
  8
DEFPOINTS
  6
CONTINUOUS
 62
    30
 10
429.22029162225948
 20
28.000012999999971
 30
0.0
  0
LINE
  8
SIZE
  6
CONTINUOUS
 62
    30
 10
-54.500037000000248
 20
-18.718899999999959
 30
0.0
 11
-54.500037000000248
 21
-402.58224417835481
 31
0.0
  0
LINE
  8
SIZE
  6
CONTINUOUS
 62
    30
 10
54.500035999999682
 20
-18.718899999999959
 30
0.0
 11
54.500035999999682
 21
-402.58224417835481
 31
0.0
  0
LINE
  8
SIZE
  6
CONTINUOUS
 62
    30
 10
42.500035999999682
 20
-382.58224417835481
 30
0.0
 11
-42.500037000000248
 21
-382.58224417835481
 31
0.0
  0
LINE
  8
SIZE
  6
CONTINUOUS
 62
    30
 10
-54.500037000000248
 20
-382.58224417835481
 30
0.0
 11
-355.61968262892259
 21
-382.58224417835481
 31
0.0
  0
CIRCLE
  8
SIZE
  6
CONTINUOUS
 62
    30
 10
54.500035999999682
 20
-382.58224417835481
 30
0.0
 40
6.0
  0
LINE
  8
SIZE
  6
CONTINUOUS
 62
    30
 10
54.500035999999682
 20
-382.58224417835481
 30
0.0
 11
42.500035999999682
 21
-382.58224417835481
 31
0.0
  0
CIRCLE
  8
SIZE
  6
CONTINUOUS
 62
    30
 10
-54.500037000000248
 20
-382.58224417835481
 30
0.0
 40
6.0
  0
LINE
  8
SIZE
  6
CONTINUOUS
 62
    30
 10
-54.500037000000248
 20
-382.58224417835481
 30
0.0
 11
-42.500037000000248
 21
-382.58224417835481
 31
0.0
  0
TEXT
  8
SIZE
  6
CONTINUOUS
 62
    30
 10
-330.61968262892259
 20
-357.58224417835481
 30
0.0
 40
64.0
  1
109
 41
0.9
 72
     1
 11
-263.4196826289226
 21
-357.58224417835481
 31
0.0
  0
POINT
  8
DEFPOINTS
  6
CONTINUOUS
 62
    30
 10
-54.500037000000248
 20
1.2811000000000381
 30
0.0
  0
POINT
  8
DEFPOINTS
  6
CONTINUOUS
 62
    30
 10
54.500035999999682
 20
1.2811000000000381
 30
0.0
  0
POINT
  8
DEFPOINTS
  6
CONTINUOUS
 62
    30
 10
54.500035999999682
 20
-382.58224417835481
 30
0.0
  0
LINE
  8
SIZE
  6
CONTINUOUS
 62
    30
 10
-75.000051000000326
 20
-1.9999940000000149
 30
0.0
 11
-75.000051000000326
 21
-288.09009591584532
 31
0.0
  0
LINE
  8
SIZE
  6
CONTINUOUS
 62
    30
 10
-34.000023000000397
 20
-1.9999940000000149
 30
0.0
 11
-34.000023000000397
 21
-288.09009591584532
 31
0.0
  0
LINE
  8
SIZE
  6
CONTINUOUS
 62
    30
 10
-22.0000230000004
 20
-268.09009591584532
 30
0.0
 11
-10.0000230000004
 21
-268.09009591584532
 31
0.0
  0
LINE
  8
SIZE
  6
CONTINUOUS
 62
    30
 10
-87.000051000000326
 20
-268.09009591584532
 30
0.0
 11
-301.53098895124691
 21
-268.09009591584532
 31
0.0
  0
LINE
  8
SIZE
  6
CONTINUOUS
 62
    30
 10
-34.000023000000397
 20
-268.09009591584532
 30
0.0
 11
-75.000051000000326
 21
-268.09009591584532
 31
0.0
  0
CIRCLE
  8
SIZE
  6
CONTINUOUS
 62
    30
 10
-34.000023000000397
 20
-268.09009591584532
 30
0.0
 40
6.0
  0
LINE
  8
SIZE
  6
CONTINUOUS
 62
    30
 10
-34.000023000000397
 20
-268.09009591584532
 30
0.0
 11
-22.0000230000004
 21
-268.09009591584532
 31
0.0
  0
CIRCLE
  8
SIZE
  6
CONTINUOUS
 62
    30
 10
-75.000051000000326
 20
-268.09009591584532
 30
0.0
 40
6.0
  0
LINE
  8
SIZE
  6
CONTINUOUS
 62
    30
 10
-75.000051000000326
 20
-268.09009591584532
 30
0.0
 11
-87.000051000000326
 21
-268.09009591584532
 31
0.0
  0
TEXT
  8
SIZE
  6
CONTINUOUS
 62
    30
 10
-276.53098895124691
 20
-243.0900959158453
 30
0.0
 40
64.0
  1
41
 41
0.9
 72
     1
 11
-242.24527466553261
 21
-243.0900959158453
 31
0.0
  0
POINT
  8
DEFPOINTS
  6
CONTINUOUS
 62
    30
 10
-75.000051000000326
 20
18.000005999999981
 30
0.0
  0
POINT
  8
DEFPOINTS
  6
CONTINUOUS
 62
    30
 10
-34.000023000000397
 20
18.000005999999981
 30
0.0
  0
POINT
  8
DEFPOINTS
  6
CONTINUOUS
 62
    30
 10
-34.000023000000397
 20
-268.09009591584532
 30
0.0
  0
TEXT
  8
NOTE
  6
CONTINUOUS
 62
     4
 10
409.70928510909948
 20
294.44216079743319
 30
0.0
 40
63.999999999999993
  1
8-φ5×8
 41
0.9
  0
LINE
  8
NOTE
  6
CONTINUOUS
 62
     4
 10
804.73612292300049
 20
264.81163512940498
 30
0.0
 11
381.28357209079041
 21
264.81167510838372
 31
0.0
  0
ENDSEC
  0
EOF
