  0
SECTION
  2
HEADER
  9
$ACADVER
  1
AC1009
  9
$DWGCODEPAGE
  3
dos932
  9
$INSBASE
 10
0.0
 20
0.0
 30
0.0
  9
$EXTMIN
 10
-483.09629675128599
 20
-441.55882618105898
 30
-0.0015258207003583
  9
$EXTMAX
 10
1341.4306759967351
 20
595.6878742385743
 30
0.0000000349246037
  9
$LIMMIN
 10
-2970.0
 20
-2100.0
  9
$LIMMAX
 10
2970.0
 20
2100.0
  9
$ORTHOMODE
 70
     1
  9
$REGENMODE
 70
     1
  9
$FILLMODE
 70
     1
  9
$QTEXTMODE
 70
     0
  9
$MIRRTEXT
 70
     0
  9
$LTSCALE
 40
20.0
  9
$ATTMODE
 70
     1
  9
$TEXTSIZE
 40
64.0
  9
$TRACEWID
 40
0.05
  9
$TEXTSTYLE
  7
STANDARD
  9
$CLAYER
  8
SIZE
  9
$CELTYPE
  6
CONTINUOUS
  9
$CECOLOR
 62
     7
  9
$DIMSCALE
 40
1.0
  9
$DIMASZ
 40
12.0
  9
$DIMEXO
 40
20.0
  9
$DIMDLI
 40
200.0
  9
$DIMRND
 40
0.0
  9
$DIMDLE
 40
0.0
  9
$DIMEXE
 40
20.0
  9
$DIMTP
 40
0.0
  9
$DIMTM
 40
0.0
  9
$DIMTXT
 40
64.0
  9
$DIMCEN
 40
0.09
  9
$DIMTSZ
 40
0.0
  9
$DIMTOL
 70
     0
  9
$DIMLIM
 70
     0
  9
$DIMTIH
 70
     0
  9
$DIMTOH
 70
     0
  9
$DIMSE1
 70
     0
  9
$DIMSE2
 70
     0
  9
$DIMTAD
 70
     1
  9
$DIMZIN
 70
     8
  9
$DIMBLK
  1

  9
$DIMASO
 70
     1
  9
$DIMSHO
 70
     0
  9
$DIMPOST
  1

  9
$DIMAPOST
  1

  9
$DIMALT
 70
     0
  9
$DIMALTD
 70
     2
  9
$DIMALTF
 40
25.399999999999999
  9
$DIMLFAC
 40
1.0
  9
$DIMTOFL
 70
     1
  9
$DIMTVP
 40
0.0
  9
$DIMTIX
 70
     1
  9
$DIMSOXD
 70
     0
  9
$DIMSAH
 70
     0
  9
$DIMBLK1
  1

  9
$DIMBLK2
  1

  9
$DIMSTYLE
  2
STANDARD
  9
$DIMCLRD
 70
     7
  9
$DIMCLRE
 70
     7
  9
$DIMCLRT
 70
     7
  9
$DIMTFAC
 40
1.0
  9
$DIMGAP
 40
25.0
  9
$LUNITS
 70
     2
  9
$LUPREC
 70
     4
  9
$SKETCHINC
 40
0.1
  9
$FILLETRAD
 40
3.0
  9
$AUNITS
 70
     1
  9
$AUPREC
 70
     3
  9
$MENU
  1
ACAD
  9
$ELEVATION
 40
0.0
  9
$PELEVATION
 40
0.0
  9
$THICKNESS
 40
0.0
  9
$LIMCHECK
 70
     0
  9
$CHAMFERA
 40
0.0
  9
$CHAMFERB
 40
0.0
  9
$SKPOLY
 70
     0
  9
$TDCREATE
 40
2453019.62301037
  9
$TDUPDATE
 40
2459025.510381053
  9
$TDINDWG
 40
1.7136618171
  9
$TDUSRTIMER
 40
1.7136618171
  9
$USRTIMER
 70
     1
  9
$ANGBASE
 50
0.0
  9
$ANGDIR
 70
     0
  9
$PDMODE
 70
     3
  9
$PDSIZE
 40
-2.0
  9
$PLINEWID
 40
0.0
  9
$SPLFRAME
 70
     0
  9
$SPLINETYPE
 70
     6
  9
$SPLINESEGS
 70
     8
  9
$SURFTAB1
 70
     6
  9
$SURFTAB2
 70
     6
  9
$SURFTYPE
 70
     6
  9
$SURFU
 70
     6
  9
$SURFV
 70
     6
  9
$UCSNAME
  2

  9
$UCSORG
 10
0.0
 20
0.0
 30
0.0
  9
$UCSXDIR
 10
1.0
 20
0.0
 30
0.0
  9
$UCSYDIR
 10
0.0
 20
1.0
 30
0.0
  9
$PUCSNAME
  2

  9
$PUCSORG
 10
0.0
 20
0.0
 30
0.0
  9
$PUCSXDIR
 10
1.0
 20
0.0
 30
0.0
  9
$PUCSYDIR
 10
0.0
 20
1.0
 30
0.0
  9
$USERI1
 70
     0
  9
$USERI2
 70
     0
  9
$USERI3
 70
     0
  9
$USERI4
 70
     0
  9
$USERI5
 70
     0
  9
$USERR1
 40
20.0
  9
$USERR2
 40
0.0
  9
$USERR3
 40
0.0
  9
$USERR4
 40
0.0
  9
$USERR5
 40
0.0
  9
$WORLDVIEW
 70
     1
  9
$SHADEDGE
 70
     3
  9
$SHADEDIF
 70
    70
  9
$TILEMODE
 70
     1
  9
$MAXACTVP
 70
    48
  9
$PINSBASE
 10
0.0
 20
0.0
 30
0.0
  9
$PLIMCHECK
 70
     0
  9
$PEXTMIN
 10
-100000000000000000000.0
 20
-100000000000000000000.0
 30
-100000000000000000000.0
  9
$PEXTMAX
 10
100000000000000000000.0
 20
100000000000000000000.0
 30
100000000000000000000.0
  9
$PLIMMIN
 10
0.0
 20
0.0
  9
$PLIMMAX
 10
12.0
 20
9.0
  9
$UNITMODE
 70
     0
  9
$VISRETAIN
 70
     0
  9
$PLINEGEN
 70
     0
  9
$PSLTSCALE
 70
     0
  9
$TREEDEPTH
 70
  3020
  9
$ATTDIA
 70
     0
  9
$ATTREQ
 70
     1
  9
$BLIPMODE
 70
     1
  9
$COORDS
 70
     1
  9
$DRAGMODE
 70
     2
  9
$OSMODE
 70
     0
  9
$HANDLING
 70
     0
  9
$HANDSEED
  5
EFE4
  0
ENDSEC
  0
SECTION
  2
TABLES
  0
TABLE
  2
LTYPE
 70
     3
  0
LTYPE
  2
CONTINUOUS
 70
     0
  3
実線
 72
    65
 73
     0
 40
0.0
  0
LTYPE
  2
DASHDOT
 70
     0
  3
____ _ ____ _ ____ _ ____ _ ____ _ ____ _ ____
 72
    65
 73
     4
 40
5.5
 49
4.0
 49
-0.6
 49
0.3
 49
-0.6
  0
LTYPE
  2
CENTER
 70
     0
  3
Center ____ _ ____ _ ____ _ ____ _ ____ _ ____
 72
    65
 73
     4
 40
1.0
 49
0.5
 49
-0.25
 49
0.0
 49
-0.25
  0
ENDTAB
  0
TABLE
  2
LAYER
 70
    12
  0
LAYER
  2
0
 70
     0
 62
     7
  6
CONTINUOUS
  0
LAYER
  2
BASIS
 70
     0
 62
     6
  6
DASHDOT
  0
LAYER
  2
OUTLINE
 70
     0
 62
     3
  6
CONTINUOUS
  0
LAYER
  2
DETAIL
 70
     0
 62
     5
  6
CONTINUOUS
  0
LAYER
  2
SIZE
 70
     0
 62
    30
  6
CONTINUOUS
  0
LAYER
  2
ARRANGE
 70
     0
 62
     1
  6
CONTINUOUS
  0
LAYER
  2
DEFPOINTS
 70
     0
 62
     7
  6
CONTINUOUS
  0
LAYER
  2
ETC
 70
     0
 62
    61
  6
CONTINUOUS
  0
LAYER
  2
FIX
 70
     0
 62
    11
  6
CONTINUOUS
  0
LAYER
  2
NOTE
 70
     0
 62
     4
  6
CONTINUOUS
  0
LAYER
  2
SERVICESPACE
 70
    64
 62
     2
  6
DASHDOT
  0
LAYER
  2
SYMBOLLINE
 70
    64
 62
    15
  6
CONTINUOUS
  0
ENDTAB
  0
TABLE
  2
STYLE
 70
     1
  0
STYLE
  2
STANDARD
 70
     0
 40
64.0
 41
0.9
 50
0.0
 71
     0
 42
64.0
  3
SIMPLEX.shx
  4
BIGFONT.shx
  0
ENDTAB
  0
TABLE
  2
APPID
 70
    19
  0
APPID
  2
ACAD
 70
     0
  0
APPID
  2
AUTOCAD_POSTSCRIPT_FIGURE
 70
     0
  0
APPID
  2
ACAD_EXEMPT_FROM_CAD_STANDARDS
 70
     0
  0
APPID
  2
ACAD_PSEXT
 70
     0
  0
APPID
  2
ACAUTHENVIRON
 70
     0
  0
APPID
  2
GENIUS_GENOENT_13
 70
     0
  0
APPID
  2
GENIUS_GENCFG_13
 70
     0
  0
APPID
  2
GENIUS_GENCFG0_13
 70
     0
  0
APPID
  2
GENIUS_GENCFG1_13
 70
     0
  0
APPID
  2
GENIUS_GENCFG2_13
 70
     0
  0
APPID
  2
GENIUS_GENCFG3_13
 70
     0
  0
APPID
  2
GENIUS_GENCFG4_13
 70
     0
  0
APPID
  2
GENIUS_GEVCFG0_13
 70
     0
  0
APPID
  2
CONTENTBLOCKICON
 70
     0
  0
APPID
  2
CONTENTBLOCKDESCRIPTION
 70
     0
  0
APPID
  2
ACAD_NAV_VCDISPLAY
 70
     0
  0
APPID
  2
ACAD_MLEADERVER
 70
     0
  0
APPID
  2
ACDBDYNAMICBLOCKTRUENAME
 70
     0
  0
APPID
  2
ACDBDYNAMICBLOCKGUID
 70
     0
  0
ENDTAB
  0
TABLE
  2
DIMSTYLE
 70
     1
  0
DIMSTYLE
  2
STANDARD
 70
     0
  3

  4

  5
_ORIGIN
  6

  7

 40
1.0
 41
12.0
 42
20.0
 43
200.0
 44
20.0
 45
0.0
 46
0.0
 47
0.0
 48
0.0
140
64.0
141
0.09
142
0.0
143
25.399999999999999
144
1.0
145
0.0
146
1.0
147
25.0
 71
     0
 72
     0
 73
     0
 74
     0
 75
     0
 76
     0
 77
     1
 78
     8
170
     0
171
     2
172
     1
173
     0
174
     1
175
     0
176
     7
177
     7
178
     7
  0
ENDTAB
  0
TABLE
  2
VIEW
 70
     1
  0
VIEW
  2
ALL
 70
     0
 40
4282.6198079999986
 10
0.0
 20
41.309904000000003
 41
5940.0
 11
0.0
 21
0.0
 31
1.0
 12
0.0
 22
0.0
 32
0.0
 42
50.0
 43
0.0
 44
0.0
 50
0.0
 71
     0
  0
ENDTAB
  0
TABLE
  2
UCS
 70
     0
  0
ENDTAB
  0
TABLE
  2
VPORT
 70
     1
  0
VPORT
  2
*ACTIVE
 70
     0
 10
0.0
 20
0.0
 11
1.0
 21
1.0
 12
429.16718962272438
 22
77.06452402875766
 13
0.0
 23
0.0
 14
1.0
 24
1.0
 15
0.0
 25
0.0
 16
0.0
 26
0.0
 36
1.0
 17
0.0
 27
0.0
 37
0.0
 40
1047.8663935868101
 41
1.747787610619469
 42
50.0
 43
0.0
 44
0.0
 50
0.0
 51
0.0
 71
     0
 72
  1000
 73
     1
 74
     3
 75
     0
 76
     0
 77
     0
 78
     0
  0
ENDTAB
  0
ENDSEC
  0
SECTION
  2
BLOCKS
  0
BLOCK
  8
0
  2
_ORIGIN
 70
     0
 10
0.0
 20
0.0
 30
0.0
  3
_ORIGIN
  1
_ORIGIN
  0
CIRCLE
  8
0
  6
CONTINUOUS
 62
     7
 10
0.0
 20
0.0
 30
0.0
 40
0.5
  0
LINE
  8
0
  6
CONTINUOUS
 62
     7
 10
0.0
 20
0.0
 30
0.0
 11
-1.0
 21
0.0
 31
0.0
  0
ENDBLK
  8
0
  0
ENDSEC
  0
SECTION
  2
ENTITIES
  0
LINE
  8
NOTE
  6
CONTINUOUS
 62
     4
 10
165.9127739999999
 20
0.0
 30
0.0
 11
401.19634198458652
 21
264.8116364789787
 31
0.0
  0
LINE
  8
NOTE
  6
CONTINUOUS
 62
     4
 10
165.9127739999999
 20
0.0
 30
0.0
 11
197.22551934757891
 21
22.683422418883421
 31
0.0
  0
LINE
  8
NOTE
  6
CONTINUOUS
 62
     4
 10
184.90804869402339
 20
35.19929633376114
 30
0.0
 11
165.9127739999999
 21
0.0
 31
0.0
  0
TEXT
  8
NOTE
  6
CONTINUOUS
 62
     4
 10
-130.55231611217781
 20
112.7332019548406
 30
0.0
 40
64.0
  1
EA
 41
0.9
  0
TEXT
  8
NOTE
  6
CONTINUOUS
 62
     4
 10
284.27788632959351
 20
481.34162902696221
 30
0.0
 40
64.0
  1
EL
 41
0.9
  0
LINE
  8
NOTE
  6
CONTINUOUS
 62
     4
 10
407.42094409062071
 20
445.09841560060102
 30
0.0
 11
238.89645256420141
 21
445.09841560055918
 31
0.0
  0
LINE
  8
NOTE
  6
CONTINUOUS
 62
     4
 10
121.59999999999989
 20
228.5
 30
0.0
 11
238.89645256420141
 21
445.09841560055918
 31
0.0
  0
LINE
  8
NOTE
  6
CONTINUOUS
 62
     4
 10
121.59999999999989
 20
228.5
 30
0.0
 11
149.67337404411251
 21
255.14394918745009
 31
0.0
  0
LINE
  8
NOTE
  6
CONTINUOUS
 62
     4
 10
128.90256239457841
 20
267.75804970384547
 30
0.0
 11
121.59999999999989
 21
228.5
 31
0.0
  0
CIRCLE
  8
FIX
  6
CONTINUOUS
 62
    11
 10
166.0
 20
0.0
 30
0.0
 40
10.0
  0
CIRCLE
  8
ARRANGE
  6
CONTINUOUS
 62
     1
 10
0.0
 20
0.0
 30
0.0
 40
40.0
  0
POINT
  8
ARRANGE
  6
CONTINUOUS
 62
     1
 10
0.0
 20
0.0
 30
0.0
 50
90.0
  0
ARC
  8
DETAIL
  6
CONTINUOUS
 62
     5
 10
58.5
 20
234.45003000000011
 30
0.0
 40
5.5
 50
0.0
 51
90.0
  0
ARC
  8
DETAIL
  6
CONTINUOUS
 62
     5
 10
-12.5
 20
234.45003000000011
 30
0.0
 40
5.5
 50
90.0
 51
180.0
  0
LINE
  8
DETAIL
  6
CONTINUOUS
 62
     5
 10
58.5
 20
239.95003000000011
 30
0.0
 11
-12.5
 21
239.95003000000011
 31
0.0
  0
LINE
  8
DETAIL
  6
CONTINUOUS
 62
     5
 10
-18.0
 20
234.45003000000011
 30
0.0
 11
-18.0
 21
230.67514299999991
 31
0.0
  0
ARC
  8
DETAIL
  6
CONTINUOUS
 62
     5
 10
-85.5
 20
135.0
 30
0.0
 40
72.0
 50
269.78148000000641
 51
270.0
  0
LINE
  8
DETAIL
  6
CONTINUOUS
 62
     5
 10
-8.5271340000001601
 20
194.9728660000001
 30
0.0
 11
-8.5271340000001601
 21
75.027133000000049
 31
0.0
  0
ARC
  8
DETAIL
  6
CONTINUOUS
 62
     5
 10
-25.52713400000016
 20
75.027133000000049
 30
0.0
 40
17.0
 50
270.0
 51
0.0
  0
LINE
  8
DETAIL
  6
CONTINUOUS
 62
     5
 10
-136.68780699999999
 20
58.027133000000049
 30
0.0
 11
-25.52713400000016
 21
58.027133000000049
 31
0.0
  0
ARC
  8
DETAIL
  6
CONTINUOUS
 62
     5
 10
-136.68780699999999
 20
75.027133000000049
 30
0.0
 40
17.0
 50
178.99999999999829
 51
270.0
  0
LINE
  8
DETAIL
  6
CONTINUOUS
 62
     5
 10
-153.27055899999999
 20
99.079629000000068
 30
0.0
 11
-155.0
 21
0.0
 31
0.0
  0
LINE
  8
DETAIL
  6
CONTINUOUS
 62
     5
 10
0.0
 20
223.5
 30
0.0
 11
-151.09879300000009
 21
223.5
 31
0.0
  0
LINE
  8
DETAIL
  6
CONTINUOUS
 62
     5
 10
0.0
 20
220.75
 30
0.0
 11
-151.14679500000011
 21
220.75
 31
0.0
  0
LINE
  8
DETAIL
  6
CONTINUOUS
 62
     5
 10
-60.611887000000017
 20
211.9728660000001
 30
0.0
 11
-25.52713400000016
 21
211.9728660000001
 31
0.0
  0
ARC
  8
DETAIL
  6
CONTINUOUS
 62
     5
 10
-40.586000000000013
 20
199.62708600000011
 30
0.0
 40
2.0
 50
180.0
 51
235.20178999999891
  0
ARC
  8
DETAIL
  6
CONTINUOUS
 62
     5
 10
-44.586000000000013
 20
202.45886899999991
 30
0.0
 40
2.0
 50
0.0
 51
58.763066999997598
  0
LINE
  8
DETAIL
  6
CONTINUOUS
 62
     5
 10
-42.586000000000013
 20
199.62708600000011
 30
0.0
 11
-42.586000000000013
 21
202.45886899999991
 31
0.0
  0
ARC
  8
DETAIL
  6
CONTINUOUS
 62
     5
 10
-25.52713400000016
 20
194.9728660000001
 30
0.0
 40
17.0
 50
0.0
 51
90.0
  0
LINE
  8
DETAIL
  6
CONTINUOUS
 62
     5
 10
-146.09879300000009
 20
228.5
 30
0.0
 11
0.0
 21
228.5
 31
0.0
  0
ARC
  8
DETAIL
  6
CONTINUOUS
 62
     5
 10
-146.09879300000009
 20
223.5
 30
0.0
 40
5.0
 50
90.0
 51
180.0
  0
LINE
  8
DETAIL
  6
CONTINUOUS
 62
     5
 10
-151.09879300000009
 20
223.5
 30
0.0
 11
-151.975672
 21
173.26364599999999
 31
0.0
  0
ARC
  8
DETAIL
  6
CONTINUOUS
 62
     5
 10
-134.59414699999999
 20
194.9728660000001
 30
0.0
 40
17.0
 50
90.0
 51
178.99999999999829
  0
ARC
  8
DETAIL
  6
CONTINUOUS
 62
     5
 10
-85.5
 20
135.0
 30
0.0
 40
80.896478999999999
 50
58.763066999997598
 51
121.2369330000024
  0
ARC
  8
DETAIL
  6
CONTINUOUS
 62
     5
 10
-130.41399999999999
 20
199.62708600000011
 30
0.0
 40
2.0
 50
304.79821000000112
 51
0.0
  0
ARC
  8
DETAIL
  6
CONTINUOUS
 62
     5
 10
-126.414
 20
202.45886899999991
 30
0.0
 40
2.0
 50
121.2369330000024
 51
180.0
  0
LINE
  8
DETAIL
  6
CONTINUOUS
 62
     5
 10
-128.41399999999999
 20
199.62708600000011
 30
0.0
 11
-128.41399999999999
 21
202.45886899999991
 31
0.0
  0
LINE
  8
DETAIL
  6
CONTINUOUS
 62
     5
 10
-134.59414699999999
 20
211.9728660000001
 30
0.0
 11
-110.3881140000001
 21
211.9728660000001
 31
0.0
  0
CIRCLE
  8
DETAIL
  6
CONTINUOUS
 62
     5
 10
-85.5
 20
135.0
 30
0.0
 40
76.0
  0
ARC
  8
DETAIL
  6
CONTINUOUS
 62
     5
 10
-85.5
 20
135.0
 30
0.0
 40
76.701509999999999
 50
124.79821000000111
 51
55.201789999998851
  0
CIRCLE
  8
DETAIL
  6
CONTINUOUS
 62
     5
 10
-85.5
 20
135.0
 30
0.0
 40
70.0
  0
CIRCLE
  8
DETAIL
  6
CONTINUOUS
 62
     5
 10
-85.5
 20
135.0
 30
0.0
 40
72.0
  0
LINE
  8
DETAIL
  6
CONTINUOUS
 62
     5
 10
-110.9102580000001
 20
238.67101
 30
0.0
 11
-107.2083130000001
 21
228.5
 31
0.0
  0
ARC
  8
DETAIL
  6
CONTINUOUS
 62
     5
 10
-124.5249160000001
 20
238.5
 30
0.0
 40
0.5
 50
0.4999999999980602
 51
90.0
  0
ARC
  8
DETAIL
  6
CONTINUOUS
 62
     5
 10
-112.47508500000001
 20
238.5
 30
0.0
 40
0.5
 50
90.0
 51
179.5000000000019
  0
ARC
  8
DETAIL
  6
CONTINUOUS
 62
     5
 10
-125.61989699999999
 20
238.5
 30
0.0
 40
0.5
 50
90.0
 51
160.00000000000281
  0
ARC
  8
DETAIL
  6
CONTINUOUS
 62
     5
 10
-111.3801040000001
 20
238.5
 30
0.0
 40
0.5
 50
19.99999999999724
 51
90.0
  0
LINE
  8
DETAIL
  6
CONTINUOUS
 62
     5
 10
-129.79168799999999
 20
228.5
 30
0.0
 11
-126.089743
 21
238.67101
 31
0.0
  0
LINE
  8
DETAIL
  6
CONTINUOUS
 62
     5
 10
-113.06237300000021
 20
228.5
 30
0.0
 11
-112.9750660000002
 21
238.50436300000001
 31
0.0
  0
LINE
  8
DETAIL
  6
CONTINUOUS
 62
     5
 10
-123.9376280000001
 20
228.5
 30
0.0
 11
-124.0249350000001
 21
238.50436300000001
 31
0.0
  0
LINE
  8
DETAIL
  6
CONTINUOUS
 62
     5
 10
-112.47508500000001
 20
239.0
 30
0.0
 11
-111.3801040000001
 21
239.0
 31
0.0
  0
LINE
  8
DETAIL
  6
CONTINUOUS
 62
     5
 10
-125.61989699999999
 20
239.0
 30
0.0
 11
-124.5249160000001
 21
239.0
 31
0.0
  0
LINE
  8
DETAIL
  6
CONTINUOUS
 62
     5
 10
-33.937628000000132
 20
228.5
 30
0.0
 11
-34.024935000000141
 21
238.50436300000001
 31
0.0
  0
LINE
  8
DETAIL
  6
CONTINUOUS
 62
     5
 10
-20.910258000000109
 20
238.67101
 30
0.0
 11
-17.208313000000089
 21
228.5
 31
0.0
  0
LINE
  8
DETAIL
  6
CONTINUOUS
 62
     5
 10
-23.062373000000211
 20
228.5
 30
0.0
 11
-22.975066000000201
 21
238.50436300000001
 31
0.0
  0
ARC
  8
DETAIL
  6
CONTINUOUS
 62
     5
 10
-34.524916000000083
 20
238.5
 30
0.0
 40
0.5
 50
0.4999999999980602
 51
90.0
  0
ARC
  8
DETAIL
  6
CONTINUOUS
 62
     5
 10
-35.619897000000037
 20
238.5
 30
0.0
 40
0.5
 50
90.0
 51
160.00000000000281
  0
ARC
  8
DETAIL
  6
CONTINUOUS
 62
     5
 10
-22.475085000000039
 20
238.5
 30
0.0
 40
0.5
 50
90.0
 51
179.5000000000019
  0
ARC
  8
DETAIL
  6
CONTINUOUS
 62
     5
 10
-21.38010400000007
 20
238.5
 30
0.0
 40
0.5
 50
19.99999999999724
 51
90.0
  0
LINE
  8
DETAIL
  6
CONTINUOUS
 62
     5
 10
-22.475085000000039
 20
239.0
 30
0.0
 11
-21.38010400000007
 21
239.0
 31
0.0
  0
LINE
  8
DETAIL
  6
CONTINUOUS
 62
     5
 10
-35.619897000000037
 20
239.0
 30
0.0
 11
-34.524916000000083
 21
239.0
 31
0.0
  0
LINE
  8
DETAIL
  6
CONTINUOUS
 62
     5
 10
-39.791688000000022
 20
228.5
 30
0.0
 11
-36.089742999999999
 21
238.67101
 31
0.0
  0
ARC
  8
DETAIL
  6
CONTINUOUS
 62
     5
 10
-187.98083100000011
 20
-16.695180999999931
 30
0.0
 40
0.3
 50
226.52475600000651
 51
269.69226700000257
  0
ARC
  8
DETAIL
  6
CONTINUOUS
 62
     5
 10
-194.1301940000001
 20
-10.86470099999997
 30
0.0
 40
0.3
 50
182.99999999999909
 51
226.52475600000651
  0
LINE
  8
DETAIL
  6
CONTINUOUS
 62
     5
 10
-194.3366060000001
 20
-11.082402
 30
0.0
 11
-188.18724300000011
 21
-16.912882999999969
 31
0.0
  0
LINE
  8
DETAIL
  6
CONTINUOUS
 62
     5
 10
-195.0
 20
0.0
 30
0.0
 11
-194.42978299999999
 21
-10.880402
 31
0.0
  0
LINE
  8
BASIS
  6
DASHDOT
 62
     6
 10
0.0
 20
266.822855
 30
0.0
 11
0.0
 21
-33.989709999999953
 31
0.0
  0
LINE
  8
DETAIL
  6
CONTINUOUS
 62
     5
 10
-194.39795100000001
 20
-11.0
 30
0.0
 11
0.0
 21
-11.0
 31
0.0
  0
LINE
  8
DETAIL
  6
CONTINUOUS
 62
     5
 10
-195.0
 20
0.0
 30
0.0
 11
0.0
 21
0.0
 31
0.0
  0
ARC
  8
DETAIL
  6
CONTINUOUS
 62
     5
 10
0.0
 20
34982.5
 30
0.0
 40
35000.0
 50
269.69226700000257
 51
270.0
  0
LINE
  8
DETAIL
  6
CONTINUOUS
 62
     5
 10
0.0
 20
223.5
 30
0.0
 11
151.09879299999989
 21
223.5
 31
0.0
  0
LINE
  8
DETAIL
  6
CONTINUOUS
 62
     5
 10
0.0
 20
220.75
 30
0.0
 11
151.1467939999998
 21
220.75
 31
0.0
  0
LINE
  8
DETAIL
  6
CONTINUOUS
 62
     5
 10
146.09879299999989
 20
228.5
 30
0.0
 11
0.0
 21
228.5
 31
0.0
  0
ARC
  8
DETAIL
  6
CONTINUOUS
 62
     5
 10
187.98083
 20
-16.695180999999931
 30
0.0
 40
0.3
 50
270.30773299999743
 51
313.47524399999349
  0
ARC
  8
DETAIL
  6
CONTINUOUS
 62
     5
 10
194.13019299999999
 20
-10.86470099999997
 30
0.0
 40
0.3
 50
313.47524399999349
 51
357.00000000000091
  0
LINE
  8
DETAIL
  6
CONTINUOUS
 62
     5
 10
194.33660499999999
 20
-11.082402
 30
0.0
 11
188.187242
 21
-16.912882999999969
 31
0.0
  0
LINE
  8
DETAIL
  6
CONTINUOUS
 62
     5
 10
195.0
 20
0.0
 30
0.0
 11
194.42978200000019
 21
-10.880402
 31
0.0
  0
LINE
  8
DETAIL
  6
CONTINUOUS
 62
     5
 10
194.39795000000001
 20
-11.0
 30
0.0
 11
0.0
 21
-11.0
 31
0.0
  0
LINE
  8
DETAIL
  6
CONTINUOUS
 62
     5
 10
195.0
 20
0.0
 30
0.0
 11
0.0
 21
0.0
 31
0.0
  0
ARC
  8
DETAIL
  6
CONTINUOUS
 62
     5
 10
0.0
 20
34982.5
 30
0.0
 40
35000.0
 50
270.0
 51
270.30773299999743
  0
ARC
  8
DETAIL
  6
CONTINUOUS
 62
     5
 10
146.09879299999989
 20
223.5
 30
0.0
 40
5.0
 50
1.9999999999971589
 51
90.0
  0
LINE
  8
DETAIL
  6
CONTINUOUS
 62
     5
 10
151.09574699999979
 20
223.67449700000009
 30
0.0
 11
155.0
 21
0.0
 31
0.0
  0
LINE
  8
DETAIL
  6
CONTINUOUS
 62
     5
 10
64.0
 20
234.45003000000011
 30
0.0
 11
64.0
 21
228.5
 31
0.0
  0
LINE
  8
BASIS
  6
DASHDOT
 62
     6
 10
-85.5
 20
212.0
 30
0.0
 11
-85.5
 21
58.0
 31
0.0
  0
LINE
  8
BASIS
  6
DASHDOT
 62
     6
 10
-8.5
 20
135.0
 30
0.0
 11
-162.5
 21
135.0
 31
0.0
  0
LINE
  8
NOTE
  6
CENTER
 62
     4
 10
-100.0
 20
9.1301770000000033
 30
0.0
 11
-100.0
 21
-7.2608109999999897
 31
0.0
  0
LINE
  8
NOTE
  6
CENTER
 62
     4
 10
-166.0
 20
9.1301770000000033
 30
0.0
 11
-166.0
 21
-7.2608109999999897
 31
0.0
  0
LINE
  8
NOTE
  6
CENTER
 62
     4
 10
121.59999999999989
 20
242.20765800000001
 30
0.0
 11
121.59999999999989
 21
204.67131499999991
 31
0.0
  0
LINE
  8
NOTE
  6
CENTER
 62
     4
 10
166.0
 20
9.1301770000000033
 30
0.0
 11
166.0
 21
-7.2608109999999897
 31
0.0
  0
LINE
  8
NOTE
  6
CENTER
 62
     4
 10
100.0
 20
9.1301770000000033
 30
0.0
 11
100.0
 21
-7.2608109999999897
 31
0.0
  0
ARC
  8
OUTLINE
  6
CONTINUOUS
 62
     3
 10
58.5
 20
234.45003000000011
 30
0.0
 40
5.5
 50
0.0
 51
90.0
  0
ARC
  8
OUTLINE
  6
CONTINUOUS
 62
     3
 10
-12.5
 20
234.45003000000011
 30
0.0
 40
5.5
 50
90.0
 51
180.0
  0
LINE
  8
OUTLINE
  6
CONTINUOUS
 62
     3
 10
58.5
 20
239.95003000000011
 30
0.0
 11
-12.5
 21
239.95003000000011
 31
0.0
  0
LINE
  8
OUTLINE
  6
CONTINUOUS
 62
     3
 10
-153.27055899999999
 20
99.079628999999954
 30
0.0
 11
-155.0
 21
0.0000000000001137
 31
0.0
  0
ARC
  8
OUTLINE
  6
CONTINUOUS
 62
     3
 10
-146.09879300000009
 20
223.5
 30
0.0
 40
5.0
 50
90.0
 51
180.0
  0
LINE
  8
OUTLINE
  6
CONTINUOUS
 62
     3
 10
-151.09879300000009
 20
223.5
 30
0.0
 11
-151.975672
 21
173.26364599999999
 31
0.0
  0
ARC
  8
OUTLINE
  6
CONTINUOUS
 62
     3
 10
-187.98083100000011
 20
-16.695180999999931
 30
0.0
 40
0.3
 50
226.52475600000651
 51
269.69226700000257
  0
ARC
  8
OUTLINE
  6
CONTINUOUS
 62
     3
 10
-194.1301940000001
 20
-10.86470099999997
 30
0.0
 40
0.3
 50
182.99999999999909
 51
226.52475600000651
  0
LINE
  8
OUTLINE
  6
CONTINUOUS
 62
     3
 10
-194.3366060000001
 20
-11.082402
 30
0.0
 11
-188.18724300000011
 21
-16.912882999999969
 31
0.0
  0
LINE
  8
OUTLINE
  6
CONTINUOUS
 62
     3
 10
-195.0
 20
0.0000000000001137
 30
0.0
 11
-194.42978299999999
 21
-10.880402
 31
0.0
  0
ARC
  8
OUTLINE
  6
CONTINUOUS
 62
     3
 10
0.0
 20
34982.5
 30
0.0
 40
35000.0
 50
269.69226700000257
 51
270.0
  0
ARC
  8
OUTLINE
  6
CONTINUOUS
 62
     3
 10
187.98083
 20
-16.695180999999931
 30
0.0
 40
0.3
 50
270.30773299999743
 51
313.47524399999349
  0
ARC
  8
OUTLINE
  6
CONTINUOUS
 62
     3
 10
194.13019299999999
 20
-10.86470099999997
 30
0.0
 40
0.3
 50
313.47524399999349
 51
357.00000000000091
  0
LINE
  8
OUTLINE
  6
CONTINUOUS
 62
     3
 10
194.33660499999999
 20
-11.082402
 30
0.0
 11
188.187242
 21
-16.912882999999969
 31
0.0
  0
LINE
  8
OUTLINE
  6
CONTINUOUS
 62
     3
 10
195.0
 20
0.0000000000001137
 30
0.0
 11
194.42978200000019
 21
-10.880402
 31
0.0
  0
ARC
  8
OUTLINE
  6
CONTINUOUS
 62
     3
 10
0.0
 20
34982.5
 30
0.0
 40
35000.0
 50
270.0
 51
270.30773299999743
  0
ARC
  8
OUTLINE
  6
CONTINUOUS
 62
     3
 10
146.09879299999989
 20
223.5
 30
0.0
 40
5.0
 50
1.9999999999971589
 51
90.0
  0
LINE
  8
OUTLINE
  6
CONTINUOUS
 62
     3
 10
151.09574699999979
 20
223.67449700000009
 30
0.0
 11
155.0
 21
0.0000000000001137
 31
0.0
  0
LINE
  8
OUTLINE
  6
CONTINUOUS
 62
     3
 10
64.0
 20
234.45003000000011
 30
0.0
 11
64.0
 21
228.5
 31
0.0
  0
LINE
  8
OUTLINE
  6
CONTINUOUS
 62
     3
 10
-18.0
 20
234.45003000000011
 30
0.0
 11
-18.0
 21
228.5
 31
0.0
  0
LINE
  8
OUTLINE
  6
CONTINUOUS
 62
     3
 10
-195.0
 20
0.0000000000001137
 30
0.0
 11
-155.0
 21
0.0000000000001137
 31
0.0
  0
LINE
  8
OUTLINE
  6
CONTINUOUS
 62
     3
 10
195.0
 20
0.0000000000001137
 30
0.0
 11
155.0
 21
0.0000000000001137
 31
0.0
  0
ARC
  8
OUTLINE
  6
CONTINUOUS
 62
     3
 10
-85.5
 20
135.0
 30
0.0
 40
76.701509999999999
 50
150.07510699999969
 51
207.92489300000511
  0
LINE
  8
OUTLINE
  6
CONTINUOUS
 62
     3
 10
146.09879299999989
 20
228.5
 30
0.0
 11
64.0
 21
228.5
 31
0.0
  0
LINE
  8
OUTLINE
  6
CONTINUOUS
 62
     3
 10
-146.09879300000009
 20
228.5
 30
0.0
 11
-18.0
 21
228.5
 31
0.0
  0
CIRCLE
  8
FIX
  6
CONTINUOUS
 62
    11
 10
100.0
 20
0.0
 30
0.0
 40
10.0
  0
CIRCLE
  8
FIX
  6
CONTINUOUS
 62
    11
 10
-100.0
 20
0.0
 30
0.0
 40
10.0
  0
CIRCLE
  8
FIX
  6
CONTINUOUS
 62
    11
 10
-166.0
 20
0.0
 30
0.0
 40
10.0
  0
LINE
  8
SIZE
  6
CONTINUOUS
 62
    30
 10
-156.68780699999999
 20
58.027132999999992
 30
0.0
 11
-285.39087640117032
 21
58.027133000000049
 31
0.0
  0
LINE
  8
SIZE
  6
CONTINUOUS
 62
    30
 10
-215.0
 20
0.0000000000001137
 30
0.0
 11
-285.39087640117032
 21
0.0000000000001137
 31
0.0
  0
LINE
  8
SIZE
  6
CONTINUOUS
 62
    30
 10
-265.39087640117032
 20
70.027133000000049
 30
0.0
 11
-265.39087640117032
 21
82.027133000000049
 31
0.0
  0
LINE
  8
SIZE
  6
CONTINUOUS
 62
    30
 10
-265.39087640117032
 20
-11.99999999999989
 30
0.0
 11
-265.39087640117037
 21
-167.25714285714281
 31
0.0
  0
LINE
  8
SIZE
  6
CONTINUOUS
 62
    30
 10
-265.39087640117032
 20
58.027133000000049
 30
0.0
 11
-265.39087640117032
 21
0.0000000000001137
 31
0.0
  0
CIRCLE
  8
SIZE
  6
CONTINUOUS
 62
    30
 10
-265.39087640117032
 20
58.027133000000049
 30
0.0
 40
6.0
  0
LINE
  8
SIZE
  6
CONTINUOUS
 62
    30
 10
-265.39087640117032
 20
58.027133000000049
 30
0.0
 11
-265.39087640117032
 21
70.027133000000049
 31
0.0
  0
CIRCLE
  8
SIZE
  6
CONTINUOUS
 62
    30
 10
-265.39087640117032
 20
0.0000000000001137
 30
0.0
 40
6.0
  0
LINE
  8
SIZE
  6
CONTINUOUS
 62
    30
 10
-265.39087640117032
 20
0.0000000000001137
 30
0.0
 11
-265.39087640117032
 21
-11.99999999999989
 31
0.0
  0
TEXT
  8
SIZE
  6
CONTINUOUS
 62
    30
 10
-290.39087640117032
 20
-142.25714285714281
 30
0.0
 40
64.0
  1
57
 50
90.0
 41
0.9
 72
     1
 11
-290.39087640117032
 21
-95.62857142857132
 31
0.0
  0
POINT
  8
DEFPOINTS
  6
CONTINUOUS
 62
    30
 10
-136.68780699999999
 20
58.027132999999992
 30
0.0
  0
POINT
  8
DEFPOINTS
  6
CONTINUOUS
 62
    30
 10
-195.0
 20
0.0000000000001137
 30
0.0
  0
POINT
  8
DEFPOINTS
  6
CONTINUOUS
 62
    30
 10
-265.39087640117032
 20
0.0000000000001137
 30
0.0
  0
LINE
  8
SIZE
  6
CONTINUOUS
 62
    30
 10
-165.1873309394214
 20
135.0
 30
0.0
 11
-413.99270622117729
 21
135.00000000000011
 31
0.0
  0
LINE
  8
SIZE
  6
CONTINUOUS
 62
    30
 10
-215.0
 20
0.0
 30
0.0
 11
-413.99270622117729
 21
0.0000000000000568
 31
0.0
  0
LINE
  8
SIZE
  6
CONTINUOUS
 62
    30
 10
-393.99270622117729
 20
147.00000000000011
 30
0.0
 11
-393.99270622117729
 21
159.00000000000011
 31
0.0
  0
LINE
  8
SIZE
  6
CONTINUOUS
 62
    30
 10
-393.99270622117729
 20
-11.99999999999994
 30
0.0
 11
-393.99270622117729
 21
-23.99999999999994
 31
0.0
  0
LINE
  8
SIZE
  6
CONTINUOUS
 62
    30
 10
-393.99270622117729
 20
135.00000000000011
 30
0.0
 11
-393.99270622117729
 21
0.0000000000000568
 31
0.0
  0
CIRCLE
  8
SIZE
  6
CONTINUOUS
 62
    30
 10
-393.99270622117729
 20
135.00000000000011
 30
0.0
 40
6.0
  0
LINE
  8
SIZE
  6
CONTINUOUS
 62
    30
 10
-393.99270622117729
 20
135.00000000000011
 30
0.0
 11
-393.99270622117729
 21
147.00000000000011
 31
0.0
  0
CIRCLE
  8
SIZE
  6
CONTINUOUS
 62
    30
 10
-393.99270622117729
 20
0.0000000000000568
 30
0.0
 40
6.0
  0
LINE
  8
SIZE
  6
CONTINUOUS
 62
    30
 10
-393.99270622117729
 20
0.0000000000000568
 30
0.0
 11
-393.99270622117729
 21
-11.99999999999994
 31
0.0
  0
TEXT
  8
SIZE
  6
CONTINUOUS
 62
    30
 10
-418.99270622117729
 20
-1.071428571428569
 30
0.0
 40
64.0
  1
135
 50
90.0
 41
0.9
 72
     1
 11
-418.99270622117729
 21
67.5
 31
0.0
  0
POINT
  8
DEFPOINTS
  6
CONTINUOUS
 62
    30
 10
-145.1873309394214
 20
135.0
 30
0.0
  0
POINT
  8
DEFPOINTS
  6
CONTINUOUS
 62
    30
 10
-195.0
 20
0.0
 30
0.0
  0
POINT
  8
DEFPOINTS
  6
CONTINUOUS
 62
    30
 10
-393.99270622117729
 20
0.0000000000000568
 30
0.0
  0
LINE
  8
SIZE
  6
CONTINUOUS
 62
    30
 10
215.0
 20
0.0000000000001137
 30
0.0
 11
472.66734055527922
 21
0.0000000000000568
 31
0.0
  0
LINE
  8
SIZE
  6
CONTINUOUS
 62
    30
 10
20.0
 20
-17.499999999999659
 30
0.0
 11
472.66734055527922
 21
-17.499999999999769
 31
0.0
  0
LINE
  8
SIZE
  6
CONTINUOUS
 62
    30
 10
452.66734055527922
 20
12.00000000000006
 30
0.0
 11
452.66734055527922
 21
24.00000000000006
 31
0.0
  0
LINE
  8
SIZE
  6
CONTINUOUS
 62
    30
 10
452.66734055527922
 20
-29.499999999999769
 30
0.0
 11
452.66734055527922
 21
-173.78571428571411
 31
0.0
  0
LINE
  8
SIZE
  6
CONTINUOUS
 62
    30
 10
452.66734055527922
 20
0.0000000000000568
 30
0.0
 11
452.66734055527922
 21
-17.499999999999769
 31
0.0
  0
CIRCLE
  8
SIZE
  6
CONTINUOUS
 62
    30
 10
452.66734055527922
 20
0.0000000000000568
 30
0.0
 40
6.0
  0
LINE
  8
SIZE
  6
CONTINUOUS
 62
    30
 10
452.66734055527922
 20
0.0000000000000568
 30
0.0
 11
452.66734055527922
 21
12.00000000000006
 31
0.0
  0
CIRCLE
  8
SIZE
  6
CONTINUOUS
 62
    30
 10
452.66734055527922
 20
-17.499999999999769
 30
0.0
 40
6.0
  0
LINE
  8
SIZE
  6
CONTINUOUS
 62
    30
 10
452.66734055527922
 20
-17.499999999999769
 30
0.0
 11
452.66734055527922
 21
-29.499999999999769
 31
0.0
  0
TEXT
  8
SIZE
  6
CONTINUOUS
 62
    30
 10
427.66734055527922
 20
-148.78571428571391
 30
0.0
 40
64.0
  1
18
 50
90.0
 41
0.9
 72
     1
 11
427.66734055527922
 21
-107.6428571428568
 31
0.0
  0
POINT
  8
DEFPOINTS
  6
CONTINUOUS
 62
    30
 10
195.0
 20
0.0000000000001137
 30
0.0
  0
POINT
  8
DEFPOINTS
  6
CONTINUOUS
 62
    30
 10
0.0
 20
-17.499999999999659
 30
0.0
  0
POINT
  8
DEFPOINTS
  6
CONTINUOUS
 62
    30
 10
452.66734055527922
 20
-17.499999999999769
 30
0.0
  0
LINE
  8
SIZE
  6
CONTINUOUS
 62
    30
 10
215.0
 20
0.0000000000001137
 30
0.0
 11
472.66734055527922
 21
0.0000000000000568
 31
0.0
  0
LINE
  8
SIZE
  6
CONTINUOUS
 62
    30
 10
78.5
 20
239.95003000000011
 30
0.0
 11
472.66734055527922
 21
239.95003
 31
0.0
  0
LINE
  8
SIZE
  6
CONTINUOUS
 62
    30
 10
452.66734055527922
 20
12.00000000000006
 30
0.0
 11
452.66734055527922
 21
227.95003
 31
0.0
  0
CIRCLE
  8
SIZE
  6
CONTINUOUS
 62
    30
 10
452.66734055527922
 20
0.0000000000000568
 30
0.0
 40
6.0
  0
LINE
  8
SIZE
  6
CONTINUOUS
 62
    30
 10
452.66734055527922
 20
0.0000000000000568
 30
0.0
 11
452.66734055527922
 21
12.00000000000006
 31
0.0
  0
CIRCLE
  8
SIZE
  6
CONTINUOUS
 62
    30
 10
452.66734055527922
 20
239.95003
 30
0.0
 40
6.0
  0
LINE
  8
SIZE
  6
CONTINUOUS
 62
    30
 10
452.66734055527922
 20
239.95003
 30
0.0
 11
452.66734055527922
 21
227.95003
 31
0.0
  0
TEXT
  8
SIZE
  6
CONTINUOUS
 62
    30
 10
427.66734055527922
 20
45.917872142857249
 30
0.0
 40
64.0
  1
240
 50
90.0
 41
0.9
 72
     1
 11
427.66734055527922
 21
119.9750150000001
 31
0.0
  0
POINT
  8
DEFPOINTS
  6
CONTINUOUS
 62
    30
 10
195.0
 20
0.0000000000001137
 30
0.0
  0
POINT
  8
DEFPOINTS
  6
CONTINUOUS
 62
    30
 10
58.5
 20
239.95003000000011
 30
0.0
  0
POINT
  8
DEFPOINTS
  6
CONTINUOUS
 62
    30
 10
452.66734055527922
 20
239.95003
 30
0.0
  0
LINE
  8
SIZE
  6
CONTINUOUS
 62
    30
 10
-155.0
 20
20.00000000000011
 30
0.0
 11
-155.0
 21
366.87287846388551
 31
0.0
  0
LINE
  8
SIZE
  6
CONTINUOUS
 62
    30
 10
155.0
 20
20.00000000000011
 30
0.0
 11
155.0
 21
366.87287846388551
 31
0.0
  0
LINE
  8
SIZE
  6
CONTINUOUS
 62
    30
 10
-143.0
 20
346.87287846388551
 30
0.0
 11
143.0
 21
346.87287846388551
 31
0.0
  0
CIRCLE
  8
SIZE
  6
CONTINUOUS
 62
    30
 10
-155.0
 20
346.87287846388551
 30
0.0
 40
6.0
  0
LINE
  8
SIZE
  6
CONTINUOUS
 62
    30
 10
-155.0
 20
346.87287846388551
 30
0.0
 11
-143.0
 21
346.87287846388551
 31
0.0
  0
CIRCLE
  8
SIZE
  6
CONTINUOUS
 62
    30
 10
155.0
 20
346.87287846388551
 30
0.0
 40
6.0
  0
LINE
  8
SIZE
  6
CONTINUOUS
 62
    30
 10
155.0
 20
346.87287846388551
 30
0.0
 11
143.0
 21
346.87287846388551
 31
0.0
  0
TEXT
  8
SIZE
  6
CONTINUOUS
 62
    30
 10
-105.0514285714286
 20
371.87287846388551
 30
0.0
 40
64.0
  1
□310
 41
0.9
 72
     1
 11
0.0
 21
371.87287846388551
 31
0.0
  0
POINT
  8
DEFPOINTS
  6
CONTINUOUS
 62
    30
 10
-155.0
 20
0.0000000000001137
 30
0.0
  0
POINT
  8
DEFPOINTS
  6
CONTINUOUS
 62
    30
 10
155.0
 20
0.0000000000001137
 30
0.0
  0
POINT
  8
DEFPOINTS
  6
CONTINUOUS
 62
    30
 10
155.0
 20
346.87287846388551
 30
0.0
  0
LINE
  8
SIZE
  6
CONTINUOUS
 62
    30
 10
-100.0
 20
-27.26081099999999
 30
0.0
 11
-100.0
 21
-185.27032678310351
 31
0.0
  0
LINE
  8
SIZE
  6
CONTINUOUS
 62
    30
 10
100.0
 20
-27.26081099999999
 30
0.0
 11
100.0
 21
-185.27032678310351
 31
0.0
  0
LINE
  8
SIZE
  6
CONTINUOUS
 62
    30
 10
-88.0
 20
-165.27032678310351
 30
0.0
 11
88.0
 21
-165.27032678310351
 31
0.0
  0
CIRCLE
  8
SIZE
  6
CONTINUOUS
 62
    30
 10
-100.0
 20
-165.27032678310351
 30
0.0
 40
6.0
  0
LINE
  8
SIZE
  6
CONTINUOUS
 62
    30
 10
-100.0
 20
-165.27032678310351
 30
0.0
 11
-88.0
 21
-165.27032678310351
 31
0.0
  0
CIRCLE
  8
SIZE
  6
CONTINUOUS
 62
    30
 10
100.0
 20
-165.27032678310351
 30
0.0
 40
6.0
  0
LINE
  8
SIZE
  6
CONTINUOUS
 62
    30
 10
100.0
 20
-165.27032678310351
 30
0.0
 11
88.0
 21
-165.27032678310351
 31
0.0
  0
TEXT
  8
SIZE
  6
CONTINUOUS
 62
    30
 10
-74.05714285714285
 20
-140.27032678310351
 30
0.0
 40
64.0
  1
200
 41
0.9
 72
     1
 11
0.0
 21
-140.27032678310351
 31
0.0
  0
POINT
  8
DEFPOINTS
  6
CONTINUOUS
 62
    30
 10
-100.0
 20
-7.2608109999999897
 30
0.0
  0
POINT
  8
DEFPOINTS
  6
CONTINUOUS
 62
    30
 10
100.0
 20
-7.2608109999999897
 30
0.0
  0
POINT
  8
DEFPOINTS
  6
CONTINUOUS
 62
    30
 10
100.0
 20
-165.27032678310351
 30
0.0
  0
LINE
  8
SIZE
  6
CONTINUOUS
 62
    30
 10
-166.0
 20
-27.26081099999999
 30
0.0
 11
-166.0
 21
-304.02235530715137
 31
0.0
  0
LINE
  8
SIZE
  6
CONTINUOUS
 62
    30
 10
166.0
 20
-27.26081099999999
 30
0.0
 11
166.0
 21
-304.02235530715137
 31
0.0
  0
LINE
  8
SIZE
  6
CONTINUOUS
 62
    30
 10
-154.0
 20
-284.02235530715137
 30
0.0
 11
154.0
 21
-284.02235530715137
 31
0.0
  0
CIRCLE
  8
SIZE
  6
CONTINUOUS
 62
    30
 10
-166.0
 20
-284.02235530715137
 30
0.0
 40
6.0
  0
LINE
  8
SIZE
  6
CONTINUOUS
 62
    30
 10
-166.0
 20
-284.02235530715137
 30
0.0
 11
-154.0
 21
-284.02235530715137
 31
0.0
  0
CIRCLE
  8
SIZE
  6
CONTINUOUS
 62
    30
 10
166.0
 20
-284.02235530715137
 30
0.0
 40
6.0
  0
LINE
  8
SIZE
  6
CONTINUOUS
 62
    30
 10
166.0
 20
-284.02235530715137
 30
0.0
 11
154.0
 21
-284.02235530715137
 31
0.0
  0
TEXT
  8
SIZE
  6
CONTINUOUS
 62
    30
 10
-74.05714285714285
 20
-259.02235530715137
 30
0.0
 40
64.0
  1
332
 41
0.9
 72
     1
 11
0.0
 21
-259.02235530715137
 31
0.0
  0
POINT
  8
DEFPOINTS
  6
CONTINUOUS
 62
    30
 10
-166.0
 20
-7.2608109999999897
 30
0.0
  0
POINT
  8
DEFPOINTS
  6
CONTINUOUS
 62
    30
 10
166.0
 20
-7.2608109999999897
 30
0.0
  0
POINT
  8
DEFPOINTS
  6
CONTINUOUS
 62
    30
 10
166.0
 20
-284.02235530715137
 30
0.0
  0
LINE
  8
SIZE
  6
CONTINUOUS
 62
    30
 10
-195.0
 20
-19.99999999999989
 30
0.0
 11
-195.0
 21
-441.43426459478422
 31
0.0
  0
LINE
  8
SIZE
  6
CONTINUOUS
 62
    30
 10
195.0
 20
-20.0
 30
0.0
 11
195.0
 21
-441.43426459478422
 31
0.0
  0
LINE
  8
SIZE
  6
CONTINUOUS
 62
    30
 10
-183.0
 20
-421.43426459478422
 30
0.0
 11
183.0
 21
-421.43426459478422
 31
0.0
  0
CIRCLE
  8
SIZE
  6
CONTINUOUS
 62
    30
 10
-195.0
 20
-421.43426459478422
 30
0.0
 40
6.0
  0
LINE
  8
SIZE
  6
CONTINUOUS
 62
    30
 10
-195.0
 20
-421.43426459478422
 30
0.0
 11
-183.0
 21
-421.43426459478422
 31
0.0
  0
CIRCLE
  8
SIZE
  6
CONTINUOUS
 62
    30
 10
195.0
 20
-421.43426459478422
 30
0.0
 40
6.0
  0
LINE
  8
SIZE
  6
CONTINUOUS
 62
    30
 10
195.0
 20
-421.43426459478422
 30
0.0
 11
183.0
 21
-421.43426459478422
 31
0.0
  0
TEXT
  8
SIZE
  6
CONTINUOUS
 62
    30
 10
-110.5371428571428
 20
-396.43426459478422
 30
0.0
 40
64.0
  1
□390
 41
0.9
 72
     1
 11
0.0
 21
-396.43426459478422
 31
0.0
  0
POINT
  8
DEFPOINTS
  6
CONTINUOUS
 62
    30
 10
-195.0
 20
0.0000000000001137
 30
0.0
  0
POINT
  8
DEFPOINTS
  6
CONTINUOUS
 62
    30
 10
195.0
 20
0.0
 30
0.0
  0
POINT
  8
DEFPOINTS
  6
CONTINUOUS
 62
    30
 10
195.0
 20
-421.43426459478422
 30
0.0
  0
LINE
  8
SIZE
  6
CONTINUOUS
 62
    30
 10
-380.26245652142052
 20
376.57020789748373
 30
0.0
 11
-150.4690822161057
 21
188.24489042149381
 31
0.0
  0
LINE
  8
SIZE
  6
CONTINUOUS
 62
    30
 10
-20.530917783894271
 20
81.755109578506108
 30
0.0
 11
-11.24962032445063
 21
74.14869666114987
 31
0.0
  0
TEXT
  8
SIZE
  6
CONTINUOUS
 62
    30
 10
-356.11121155012108
 20
389.10031576098572
 30
0.0
 40
64.0
  1
φ144
 50
320.66394241112891
 41
0.9
 72
     1
 11
-270.82934689420449
 21
319.20824735464907
 31
0.0
  0
LINE
  8
SIZE
  6
CONTINUOUS
 62
    30
 10
-29.81221524333796
 20
89.361522495862346
 30
0.0
 11
-141.18778475666201
 21
180.63847750413751
 31
0.0
  0
CIRCLE
  8
SIZE
  6
CONTINUOUS
 62
    30
 10
-29.81221524333796
 20
89.361522495862346
 30
0.0
 40
6.0
  0
LINE
  8
SIZE
  6
CONTINUOUS
 62
    30
 10
-29.81221524333796
 20
89.361522495862346
 30
0.0
 11
-20.530917783894271
 21
81.755109578506108
 31
0.0
  0
CIRCLE
  8
SIZE
  6
CONTINUOUS
 62
    30
 10
-141.18778475666201
 20
180.63847750413751
 30
0.0
 40
6.0
  0
LINE
  8
SIZE
  6
CONTINUOUS
 62
    30
 10
-141.18778475666201
 20
180.63847750413751
 30
0.0
 11
-150.4690822161057
 21
188.24489042149381
 31
0.0
  0
POINT
  8
DEFPOINTS
  6
CONTINUOUS
 62
    30
 10
-141.18778475666201
 20
180.63847750413751
 30
0.0
  0
POINT
  8
DEFPOINTS
  6
CONTINUOUS
 62
    30
 10
-29.81221524333796
 20
89.361522495862346
 30
0.0
  0
LINE
  8
SIZE
  6
CONTINUOUS
 62
    30
 10
-438.10045170822531
 20
189.53850933317901
 30
0.0
 11
-172.46584657692739
 21
148.45145081983159
 31
0.0
  0
LINE
  8
SIZE
  6
CONTINUOUS
 62
    30
 10
1.4658465769273901
 20
121.54854918016861
 30
0.0
 11
13.32482565559928
 21
119.7142604320097
 31
0.0
  0
TEXT
  8
SIZE
  6
CONTINUOUS
 62
    30
 10
-423.6680541072638
 20
212.60346405289289
 30
0.0
 40
64.0
  1
φ152
 50
351.20744669011839
 41
0.9
 72
     1
 11
-316.05628966765818
 21
195.95860386960021
 31
0.0
  0
LINE
  8
SIZE
  6
CONTINUOUS
 62
    30
 10
-10.3931325017445
 20
123.3828379283274
 30
0.0
 11
-160.6068674982555
 21
146.61716207167299
 31
0.0
  0
CIRCLE
  8
SIZE
  6
CONTINUOUS
 62
    30
 10
-10.3931325017445
 20
123.3828379283274
 30
0.0
 40
6.0
  0
LINE
  8
SIZE
  6
CONTINUOUS
 62
    30
 10
-10.3931325017445
 20
123.3828379283274
 30
0.0
 11
1.4658465769273901
 21
121.54854918016861
 31
0.0
  0
CIRCLE
  8
SIZE
  6
CONTINUOUS
 62
    30
 10
-160.6068674982555
 20
146.61716207167299
 30
0.0
 40
6.0
  0
LINE
  8
SIZE
  6
CONTINUOUS
 62
    30
 10
-160.6068674982555
 20
146.61716207167299
 30
0.0
 11
-172.46584657692739
 21
148.45145081983159
 31
0.0
  0
POINT
  8
DEFPOINTS
  6
CONTINUOUS
 62
    30
 10
-160.6068674982555
 20
146.61716207167299
 30
0.0
  0
POINT
  8
DEFPOINTS
  6
CONTINUOUS
 62
    30
 10
-10.3931325017445
 20
123.3828379283274
 30
0.0
  0
TEXT
  8
ETC
  6
CONTINUOUS
 62
    61
 10
732.14634152274584
 20
531.54493185718877
 30
0.0
 40
64.0
  1
VD-18ZVC6_2
 41
0.9
  0
TEXT
  8
ETC
  6
CONTINUOUS
 62
    61
 10
727.96034752274545
 20
413.58962184235747
 30
0.0
 40
64.0
  1
換気扇
 41
0.9
  0
TEXT
  8
ETC
  6
CONTINUOUS
 62
    61
 10
778.66174577130141
 20
305.44084895613219
 30
0.0
 40
40.0
  1
VD-18ZVC6
 41
0.9
  0
TEXT
  8
ETC
  6
CONTINUOUS
 62
    61
 10
778.66174577130141
 20
239.44084895613221
 30
0.0
 40
40.0
  1
VD-20ZVC6
 41
0.9
  0
TEXT
  8
ETC
  6
CONTINUOUS
 62
    61
 10
778.66174577130141
 20
173.44084895613221
 30
0.0
 40
40.0
  1
VD-18ZC13
 41
0.9
  0
TEXT
  8
ETC
  6
CONTINUOUS
 62
    61
 10
778.66174577130141
 20
107.4408489561322
 30
0.0
 40
40.0
  1
VD-20ZC13
 41
0.9
  0
TEXT
  8
ETC
  6
CONTINUOUS
 62
    61
 10
778.66174577130141
 20
41.440848956132193
 30
0.0
 40
40.0
  1
VD-20ZKC13
 41
0.9
  0
TEXT
  8
ETC
  6
CONTINUOUS
 62
    61
 10
778.66174577130141
 20
-24.559151043867811
 30
0.0
 40
40.0
  1
VD-18ZLC13-S
 41
0.9
  0
TEXT
  8
ETC
  6
CONTINUOUS
 62
    61
 10
778.66174577130141
 20
-90.559151043867814
 30
0.0
 40
40.0
  1
VD-20ZLC13-S
 41
0.9
  0
TEXT
  8
NOTE
  6
CONTINUOUS
 62
     4
 10
418.61717675688942
 20
299.08434928093328
 30
0.0
 40
63.999999999999993
  1
8-φ5
 41
0.9
  0
LINE
  8
NOTE
  6
CONTINUOUS
 62
     4
 10
647.66692367753194
 20
264.81163570743212
 30
0.0
 11
401.19634454082632
 21
264.81167218641048
 31
0.0
  0
ENDSEC
  0
EOF
