  0
SECTION
  2
HEADER
  9
$ACADVER
  1
AC1009
  9
$DWGCODEPAGE
  3
dos932
  9
$INSBASE
 10
0.0
 20
0.0
 30
0.0
  9
$EXTMIN
 10
-653.85131970140174
 20
-776.73338711812903
 30
-0.0038144062317542
  9
$EXTMAX
 10
1397.313457379028
 20
585.75440254732348
 30
0.0057221914242405
  9
$LIMMIN
 10
-2970.0
 20
-2100.0
  9
$LIMMAX
 10
2970.0
 20
2100.0
  9
$ORTHOMODE
 70
     1
  9
$REGENMODE
 70
     1
  9
$FILLMODE
 70
     1
  9
$QTEXTMODE
 70
     0
  9
$MIRRTEXT
 70
     0
  9
$LTSCALE
 40
20.0
  9
$ATTMODE
 70
     1
  9
$TEXTSIZE
 40
64.0
  9
$TRACEWID
 40
0.05
  9
$TEXTSTYLE
  7
STANDARD
  9
$CLAYER
  8
OUTLINE
  9
$CELTYPE
  6
CONTINUOUS
  9
$CECOLOR
 62
     7
  9
$DIMSCALE
 40
1.0
  9
$DIMASZ
 40
12.0
  9
$DIMEXO
 40
20.0
  9
$DIMDLI
 40
200.0
  9
$DIMRND
 40
0.0
  9
$DIMDLE
 40
0.0
  9
$DIMEXE
 40
20.0
  9
$DIMTP
 40
0.0
  9
$DIMTM
 40
0.0
  9
$DIMTXT
 40
64.0
  9
$DIMCEN
 40
0.09
  9
$DIMTSZ
 40
0.0
  9
$DIMTOL
 70
     0
  9
$DIMLIM
 70
     0
  9
$DIMTIH
 70
     0
  9
$DIMTOH
 70
     0
  9
$DIMSE1
 70
     0
  9
$DIMSE2
 70
     0
  9
$DIMTAD
 70
     1
  9
$DIMZIN
 70
     8
  9
$DIMBLK
  1

  9
$DIMASO
 70
     1
  9
$DIMSHO
 70
     0
  9
$DIMPOST
  1

  9
$DIMAPOST
  1

  9
$DIMALT
 70
     0
  9
$DIMALTD
 70
     2
  9
$DIMALTF
 40
25.399999999999999
  9
$DIMLFAC
 40
1.0
  9
$DIMTOFL
 70
     1
  9
$DIMTVP
 40
0.0
  9
$DIMTIX
 70
     1
  9
$DIMSOXD
 70
     0
  9
$DIMSAH
 70
     0
  9
$DIMBLK1
  1

  9
$DIMBLK2
  1

  9
$DIMSTYLE
  2
STANDARD
  9
$DIMCLRD
 70
     7
  9
$DIMCLRE
 70
     7
  9
$DIMCLRT
 70
     7
  9
$DIMTFAC
 40
1.0
  9
$DIMGAP
 40
25.0
  9
$LUNITS
 70
     2
  9
$LUPREC
 70
     4
  9
$SKETCHINC
 40
0.1
  9
$FILLETRAD
 40
3.0
  9
$AUNITS
 70
     1
  9
$AUPREC
 70
     3
  9
$MENU
  1
ACAD
  9
$ELEVATION
 40
0.0
  9
$PELEVATION
 40
0.0
  9
$THICKNESS
 40
50.0
  9
$LIMCHECK
 70
     0
  9
$CHAMFERA
 40
0.0
  9
$CHAMFERB
 40
0.0
  9
$SKPOLY
 70
     0
  9
$TDCREATE
 40
2453019.62301037
  9
$TDUPDATE
 40
2458899.507261701
  9
$TDINDWG
 40
1.9550358333
  9
$TDUSRTIMER
 40
1.9550358333
  9
$USRTIMER
 70
     1
  9
$ANGBASE
 50
0.0
  9
$ANGDIR
 70
     0
  9
$PDMODE
 70
     3
  9
$PDSIZE
 40
-2.0
  9
$PLINEWID
 40
0.0
  9
$SPLFRAME
 70
     0
  9
$SPLINETYPE
 70
     6
  9
$SPLINESEGS
 70
     8
  9
$SURFTAB1
 70
     6
  9
$SURFTAB2
 70
     6
  9
$SURFTYPE
 70
     6
  9
$SURFU
 70
     6
  9
$SURFV
 70
     6
  9
$UCSNAME
  2

  9
$UCSORG
 10
0.0
 20
0.0
 30
0.0
  9
$UCSXDIR
 10
1.0
 20
0.0
 30
0.0
  9
$UCSYDIR
 10
0.0
 20
1.0
 30
0.0
  9
$PUCSNAME
  2

  9
$PUCSORG
 10
0.0
 20
0.0
 30
0.0
  9
$PUCSXDIR
 10
1.0
 20
0.0
 30
0.0
  9
$PUCSYDIR
 10
0.0
 20
1.0
 30
0.0
  9
$USERI1
 70
     0
  9
$USERI2
 70
     0
  9
$USERI3
 70
     0
  9
$USERI4
 70
     0
  9
$USERI5
 70
     0
  9
$USERR1
 40
20.0
  9
$USERR2
 40
0.0
  9
$USERR3
 40
0.0
  9
$USERR4
 40
0.0
  9
$USERR5
 40
0.0
  9
$WORLDVIEW
 70
     1
  9
$SHADEDGE
 70
     3
  9
$SHADEDIF
 70
    70
  9
$TILEMODE
 70
     1
  9
$MAXACTVP
 70
    48
  9
$PINSBASE
 10
0.0
 20
0.0
 30
0.0
  9
$PLIMCHECK
 70
     0
  9
$PEXTMIN
 10
-100000000000000000000.0
 20
-100000000000000000000.0
 30
-100000000000000000000.0
  9
$PEXTMAX
 10
100000000000000000000.0
 20
100000000000000000000.0
 30
100000000000000000000.0
  9
$PLIMMIN
 10
0.0
 20
0.0
  9
$PLIMMAX
 10
12.0
 20
9.0
  9
$UNITMODE
 70
     0
  9
$VISRETAIN
 70
     0
  9
$PLINEGEN
 70
     0
  9
$PSLTSCALE
 70
     0
  9
$TREEDEPTH
 70
  3020
  9
$ATTDIA
 70
     0
  9
$ATTREQ
 70
     1
  9
$BLIPMODE
 70
     1
  9
$COORDS
 70
     1
  9
$DRAGMODE
 70
     2
  9
$OSMODE
 70
     0
  9
$HANDLING
 70
     0
  9
$HANDSEED
  5
4173D
  0
ENDSEC
  0
SECTION
  2
TABLES
  0
TABLE
  2
LTYPE
 70
     2
  0
LTYPE
  2
CONTINUOUS
 70
     0
  3
実線
 72
    65
 73
     0
 40
0.0
  0
LTYPE
  2
DASHDOT
 70
     0
  3
____ _ ____ _ ____ _ ____ _ ____ _ ____ _ ____
 72
    65
 73
     4
 40
5.5
 49
4.0
 49
-0.6
 49
0.3
 49
-0.6
  0
ENDTAB
  0
TABLE
  2
LAYER
 70
    12
  0
LAYER
  2
0
 70
     0
 62
     7
  6
CONTINUOUS
  0
LAYER
  2
BASIS
 70
     0
 62
     6
  6
DASHDOT
  0
LAYER
  2
OUTLINE
 70
     0
 62
     3
  6
CONTINUOUS
  0
LAYER
  2
DETAIL
 70
     0
 62
     5
  6
CONTINUOUS
  0
LAYER
  2
SIZE
 70
     0
 62
    30
  6
CONTINUOUS
  0
LAYER
  2
ARRANGE
 70
     0
 62
     1
  6
CONTINUOUS
  0
LAYER
  2
DEFPOINTS
 70
     0
 62
     7
  6
CONTINUOUS
  0
LAYER
  2
ETC
 70
     0
 62
    61
  6
CONTINUOUS
  0
LAYER
  2
FIX
 70
     0
 62
    11
  6
CONTINUOUS
  0
LAYER
  2
NOTE
 70
     0
 62
     4
  6
CONTINUOUS
  0
LAYER
  2
SERVICESPACE
 70
    64
 62
     2
  6
DASHDOT
  0
LAYER
  2
SYMBOLLINE
 70
    64
 62
    15
  6
CONTINUOUS
  0
ENDTAB
  0
TABLE
  2
STYLE
 70
     1
  0
STYLE
  2
STANDARD
 70
     0
 40
64.0
 41
0.9
 50
0.0
 71
     0
 42
64.0
  3
SIMPLEX.shx
  4
BIGFONT.shx
  0
ENDTAB
  0
TABLE
  2
APPID
 70
    17
  0
APPID
  2
ACAD
 70
     0
  0
APPID
  2
AUTOCAD_POSTSCRIPT_FIGURE
 70
     0
  0
APPID
  2
ACAD_EXEMPT_FROM_CAD_STANDARDS
 70
     0
  0
APPID
  2
ACAD_PSEXT
 70
     0
  0
APPID
  2
ACAUTHENVIRON
 70
     0
  0
APPID
  2
GENIUS_GENOENT_13
 70
     0
  0
APPID
  2
GENIUS_GENCFG_13
 70
     0
  0
APPID
  2
GENIUS_GENCFG0_13
 70
     0
  0
APPID
  2
GENIUS_GENCFG1_13
 70
     0
  0
APPID
  2
GENIUS_GENCFG2_13
 70
     0
  0
APPID
  2
GENIUS_GENCFG3_13
 70
     0
  0
APPID
  2
GENIUS_GENCFG4_13
 70
     0
  0
APPID
  2
GENIUS_GEVCFG0_13
 70
     0
  0
APPID
  2
CONTENTBLOCKICON
 70
     0
  0
APPID
  2
CONTENTBLOCKDESCRIPTION
 70
     0
  0
APPID
  2
ACAD_NAV_VCDISPLAY
 70
     0
  0
APPID
  2
ACAD_MLEADERVER
 70
     0
  0
ENDTAB
  0
TABLE
  2
DIMSTYLE
 70
     1
  0
DIMSTYLE
  2
STANDARD
 70
     0
  3

  4

  5
_ORIGIN
  6

  7

 40
1.0
 41
12.0
 42
20.0
 43
200.0
 44
20.0
 45
0.0
 46
0.0
 47
0.0
 48
0.0
140
64.0
141
0.09
142
0.0
143
25.399999999999999
144
1.0
145
0.0
146
1.0
147
25.0
 71
     0
 72
     0
 73
     0
 74
     0
 75
     0
 76
     0
 77
     1
 78
     8
170
     0
171
     2
172
     1
173
     0
174
     1
175
     0
176
     7
177
     7
178
     7
  0
ENDTAB
  0
TABLE
  2
VIEW
 70
     1
  0
VIEW
  2
ALL
 70
     0
 40
4282.6198079999986
 10
0.0
 20
41.309904000000003
 41
5940.0
 11
0.0
 21
0.0
 31
1.0
 12
0.0
 22
0.0
 32
0.0
 42
50.0
 43
0.0
 44
0.0
 50
0.0
 71
     0
  0
ENDTAB
  0
TABLE
  2
UCS
 70
     0
  0
ENDTAB
  0
TABLE
  2
VPORT
 70
     1
  0
VPORT
  2
*ACTIVE
 70
     0
 10
0.0
 20
0.0
 11
1.0
 21
1.0
 12
371.73106883881348
 22
-95.489492285402775
 13
0.0
 23
0.0
 14
1.0
 24
1.0
 15
0.0
 25
0.0
 16
0.0
 26
0.0
 36
1.0
 17
0.0
 27
0.0
 37
0.0
 40
1370.932961915445
 41
1.6339193381592549
 42
50.0
 43
0.0
 44
0.0
 50
0.0
 51
0.0
 71
     0
 72
  1000
 73
     1
 74
     3
 75
     0
 76
     0
 77
     0
 78
     0
  0
ENDTAB
  0
ENDSEC
  0
SECTION
  2
BLOCKS
  0
BLOCK
  8
0
  2
_ORIGIN
 70
     0
 10
0.0
 20
0.0
 30
0.0
  3
_ORIGIN
  1
_ORIGIN
  0
CIRCLE
  8
0
  6
CONTINUOUS
 62
     7
 10
0.0
 20
0.0
 30
0.0
 40
0.5
  0
LINE
  8
0
  6
CONTINUOUS
 62
     7
 10
0.0
 20
0.0
 30
0.0
 11
-1.0
 21
0.0
 31
0.0
  0
ENDBLK
  8
0
  0
ENDSEC
  0
SECTION
  2
ENTITIES
  0
POINT
  8
ARRANGE
  6
CONTINUOUS
 62
     1
 10
0.0
 20
0.0
 30
0.0
  0
CIRCLE
  8
ARRANGE
  6
CONTINUOUS
 62
     1
 10
0.0
 20
0.0
 30
0.0
 40
40.0
  0
LINE
  8
OUTLINE
  6
CONTINUOUS
 62
     3
 10
0.0
 20
0.0
 30
0.0
 11
165.0
 21
0.0
 31
0.0
  0
LINE
  8
OUTLINE
  6
CONTINUOUS
 62
     3
 10
0.0
 20
0.0
 30
0.0
 11
165.0
 21
0.0
 31
0.0
  0
LINE
  8
DETAIL
  6
CONTINUOUS
 62
     5
 10
0.0
 20
0.0
 30
0.0
 11
165.0
 21
0.0
 31
0.0
  0
LINE
  8
DETAIL
  6
CONTINUOUS
 62
     5
 10
0.0
 20
0.0
 30
0.0
 11
165.0
 21
0.0
 31
0.0
  0
LINE
  8
OUTLINE
  6
CONTINUOUS
 62
     3
 10
0.0
 20
0.0
 30
0.0
 11
-165.0
 21
0.0
 31
0.0
  0
LINE
  8
OUTLINE
  6
CONTINUOUS
 62
     3
 10
0.0
 20
0.0
 30
0.0
 11
-165.0
 21
0.0
 31
0.0
  0
LINE
  8
DETAIL
  6
CONTINUOUS
 62
     5
 10
0.0
 20
0.0
 30
0.0
 11
-165.0
 21
0.0
 31
0.0
  0
LINE
  8
DETAIL
  6
CONTINUOUS
 62
     5
 10
0.0
 20
0.0
 30
0.0
 11
-165.0
 21
0.0
 31
0.0
  0
LINE
  8
NOTE
  6
CONTINUOUS
 62
     4
 10
-166.0
 20
0.0
 30
0.0
 11
-126.0
 21
0.0
 31
0.0
  0
LINE
  8
NOTE
  6
CONTINUOUS
 62
     4
 10
126.0
 20
0.0
 30
0.0
 11
166.0
 21
0.0
 31
0.0
  0
POINT
  8
DEFPOINTS
  6
CONTINUOUS
 62
    30
 10
165.0
 20
0.0
 30
0.0
  0
POINT
  8
DEFPOINTS
  6
CONTINUOUS
 62
    30
 10
-165.0
 20
0.0
 30
0.0
  0
POINT
  8
DEFPOINTS
  6
CONTINUOUS
 62
    30
 10
-166.0
 20
0.0
 30
0.0
  0
LINE
  8
DETAIL
  6
CONTINUOUS
 62
     5
 10
164.68824120368839
 20
-45.041438188087227
 30
0.0
 11
164.97722400473691
 21
-39.527317860203539
 31
0.0
  0
LINE
  8
DETAIL
  6
CONTINUOUS
 62
     5
 10
164.88230645140541
 20
-8.0176856474525948
 30
0.0
 11
165.00480010224959
 21
-1.0000290916664201
 31
0.0
  0
LINE
  8
DETAIL
  6
CONTINUOUS
 62
     5
 10
165.00480010224959
 20
-1.0000290916664201
 30
0.0
 11
165.00206525489011
 21
-0.9478450950912247
 31
0.0
  0
LINE
  8
DETAIL
  6
CONTINUOUS
 62
     5
 10
164.97722395933491
 20
-0.4738449392377788
 30
0.0
 11
164.9998284449193
 21
-0.905164218769869
 31
0.0
  0
LINE
  8
DETAIL
  6
CONTINUOUS
 62
     5
 10
165.00206525489011
 20
-0.9478450950912247
 30
0.0
 11
164.99794755420041
 21
-0.9052627920373197
 31
0.0
  0
LINE
  8
DETAIL
  6
CONTINUOUS
 62
     5
 10
-112.1032611985847
 20
-28.900840749166601
 30
0.0
 11
-112.5032728352508
 21
-28.900840749166601
 31
0.0
  0
ARC
  8
DETAIL
  6
CONTINUOUS
 62
     5
 10
164.38864362775169
 20
-45.025736944425383
 30
0.0
 40
0.300008727499856
 50
270.47095066118533
 51
356.99988044683789
  0
ARC
  8
DETAIL
  6
CONTINUOUS
 62
     5
 10
164.47789471153919
 20
-39.501149120833247
 30
0.0
 40
0.5000145458327733
 50
357.00000000000739
 51
90.0
  0
LINE
  8
DETAIL
  6
CONTINUOUS
 62
     5
 10
-164.97722405024069
 20
-0.4738458064631459
 30
0.0
 11
-165.00480014774979
 21
-1.0000290916664201
 31
0.0
  0
LINE
  8
DETAIL
  6
CONTINUOUS
 62
     5
 10
-165.00480014774979
 20
-1.0000290916664201
 30
0.0
 11
-164.88230649691289
 21
-8.0176856474525948
 31
0.0
  0
LINE
  8
DETAIL
  6
CONTINUOUS
 62
     5
 10
-112.1032611985847
 20
-29.800866931666519
 30
0.0
 11
-110.00320010608451
 21
-29.800866931666519
 31
0.0
  0
LINE
  8
DETAIL
  6
CONTINUOUS
 62
     5
 10
-164.97722405024069
 20
-39.527317860203539
 30
0.0
 11
-164.68836241662029
 21
-45.039126175528963
 31
0.0
  0
LINE
  8
DETAIL
  6
CONTINUOUS
 62
     5
 10
-114.42288676709541
 20
-29.800866931666519
 30
0.0
 11
-114.1033193819185
 21
-29.800866931666519
 31
0.0
  0
LINE
  8
DETAIL
  6
CONTINUOUS
 62
     5
 10
-137.45521591584659
 20
-9.2950346782838551
 30
0.0
 11
-136.93669401331681
 21
-39.001134575000037
 31
0.0
  0
LINE
  8
DETAIL
  6
CONTINUOUS
 62
     5
 10
-118.5522315963226
 20
-9.2950346782838551
 30
0.0
 11
-119.0707534988524
 21
-39.001134575000037
 31
0.0
  0
LINE
  8
DETAIL
  6
CONTINUOUS
 62
     5
 10
-114.1033193819185
 20
-38.701125847499952
 30
0.0
 11
-114.1033193819185
 21
-24.600715654999821
 31
0.0
  0
LINE
  8
DETAIL
  6
CONTINUOUS
 62
     5
 10
-113.3032961085828
 20
-38.701125847499952
 30
0.0
 11
-113.3032961085828
 21
-24.600715654999821
 31
0.0
  0
LINE
  8
DETAIL
  6
CONTINUOUS
 62
     5
 10
-112.1032611985847
 20
-33.700980389166723
 30
0.0
 11
-112.1032611985847
 21
-28.900840749166601
 31
0.0
  0
LINE
  8
DETAIL
  6
CONTINUOUS
 62
     5
 10
-112.1032611985847
 20
-32.800954206666461
 30
0.0
 11
-110.00320010608451
 21
-32.800954206666461
 31
0.0
  0
LINE
  8
DETAIL
  6
CONTINUOUS
 62
     5
 10
-110.00320010608451
 20
-29.800866931666519
 30
0.0
 11
-110.00320010608451
 21
-32.800954206666461
 31
0.0
  0
LINE
  8
DETAIL
  6
CONTINUOUS
 62
     5
 10
-114.39670540215771
 20
-32.800954206666461
 30
0.0
 11
-114.1033193819185
 21
-32.800954206666461
 31
0.0
  0
LINE
  8
DETAIL
  6
CONTINUOUS
 62
     5
 10
-114.51977304919821
 20
-18.698798656292642
 30
0.0
 11
-114.342597247809
 21
-39.001134575000037
 31
0.0
  0
LINE
  8
DETAIL
  6
CONTINUOUS
 62
     5
 10
-112.1032611985847
 20
-33.700980389166723
 30
0.0
 11
-112.5032728352508
 21
-33.700980389166723
 31
0.0
  0
LINE
  8
DETAIL
  6
CONTINUOUS
 62
     5
 10
-164.3911095398889
 20
-45.325735537930541
 30
0.0
 11
-164.3887869057198
 21
-45.323433658466683
 31
0.0
  0
LINE
  8
DETAIL
  6
CONTINUOUS
 62
     5
 10
-27.3988084718676
 20
-45.982571386224208
 30
0.0
 11
-0.0000000227501005
 21
-46.001338216666447
 31
0.0
  0
LINE
  8
DETAIL
  6
CONTINUOUS
 62
     5
 10
-54.797573817626471
 20
-45.926270907297067
 30
0.0
 11
-27.3988084718676
 21
-45.982571386224208
 31
0.0
  0
LINE
  8
DETAIL
  6
CONTINUOUS
 62
     5
 10
-82.196248785259741
 20
-45.832436829686458
 30
0.0
 11
-54.797573817626471
 21
-45.926270907297067
 31
0.0
  0
LINE
  8
DETAIL
  6
CONTINUOUS
 62
     5
 10
-109.5947695295054
 20
-45.701069360299471
 30
0.0
 11
-82.196248785259741
 21
-45.832436829686458
 31
0.0
  0
LINE
  8
DETAIL
  6
CONTINUOUS
 62
     5
 10
-136.99307220560689
 20
-45.532168816943908
 30
0.0
 11
-109.5947695295054
 21
-45.701069360299471
 31
0.0
  0
LINE
  8
DETAIL
  6
CONTINUOUS
 62
     5
 10
-164.3911095398889
 20
-45.325735537930541
 30
0.0
 11
-136.99307220560689
 21
-45.532168816943908
 31
0.0
  0
LINE
  8
DETAIL
  6
CONTINUOUS
 62
     5
 10
136.99303321676959
 20
-45.532169050850712
 30
0.0
 11
164.39110949438509
 21
-45.325735537930541
 31
0.0
  0
LINE
  8
DETAIL
  6
CONTINUOUS
 62
     5
 10
109.59475438286429
 20
-45.701069443101801
 30
0.0
 11
136.99303321676959
 21
-45.532169050850712
 31
0.0
  0
LINE
  8
DETAIL
  6
CONTINUOUS
 62
     5
 10
82.196248836959057
 20
-45.832436813886027
 30
0.0
 11
109.59475438286429
 21
-45.701069443101801
 31
0.0
  0
LINE
  8
DETAIL
  6
CONTINUOUS
 62
     5
 10
54.797589046369467
 20
-45.92627086539585
 30
0.0
 11
82.196248836959057
 21
-45.832436813886027
 31
0.0
  0
LINE
  8
DETAIL
  6
CONTINUOUS
 62
     5
 10
27.398847478400061
 20
-45.982571299921801
 30
0.0
 11
54.797589046369467
 21
-45.92627086539585
 31
0.0
  0
LINE
  8
DETAIL
  6
CONTINUOUS
 62
     5
 10
-0.0000000227501005
 20
-46.001338216666447
 30
0.0
 11
27.398847478400061
 21
-45.982571299921801
 31
0.0
  0
ARC
  8
DETAIL
  6
CONTINUOUS
 62
     5
 10
-117.5422507500534
 20
-11.500334554166439
 30
0.0
 40
2.00005818333323
 50
358.89829388479887
 51
90.0
  0
LINE
  8
DETAIL
  6
CONTINUOUS
 62
     5
 10
-115.6764420684503
 20
-18.500538195833201
 30
0.0
 11
-115.54256229737619
 21
-11.53879010137018
 31
0.0
  0
LINE
  8
DETAIL
  6
CONTINUOUS
 62
     5
 10
-116.5665350855834
 20
-9.0954862352562031
 30
0.0
 11
-116.3430967963814
 21
-9.0002618249995976
 31
0.0
  0
LINE
  8
DETAIL
  6
CONTINUOUS
 62
     5
 10
-116.81418727779059
 20
-9.1684898546913018
 30
0.0
 11
-116.5665350855834
 21
-9.0954862352562031
 31
0.0
  0
LINE
  8
DETAIL
  6
CONTINUOUS
 62
     5
 10
-117.0686042015859
 20
-9.212252028768944
 30
0.0
 11
-116.81418727779059
 21
-9.1684898546913018
 31
0.0
  0
LINE
  8
DETAIL
  6
CONTINUOUS
 62
     5
 10
-117.3318404270412
 20
-9.2275097717290464
 30
0.0
 11
-117.0686042015859
 21
-9.212252028768944
 31
0.0
  0
LINE
  8
DETAIL
  6
CONTINUOUS
 62
     5
 10
-117.3318404270412
 20
-9.2275097717290464
 30
0.0
 11
-118.0034328394195
 21
-9.2275097717290464
 31
0.0
  0
LINE
  8
DETAIL
  6
CONTINUOUS
 62
     5
 10
-117.5422507500534
 20
-9.5002763708332623
 30
0.0
 11
-118.5558141034435
 21
-9.5002763708332623
 31
0.0
  0
LINE
  8
DETAIL
  6
CONTINUOUS
 62
     5
 10
-118.1617270336228
 20
-9.2163942400692349
 30
0.0
 11
-118.0034328394195
 21
-9.2275097717290464
 31
0.0
  0
LINE
  8
DETAIL
  6
CONTINUOUS
 62
     5
 10
-118.3124588236369
 20
-9.1851222384410676
 30
0.0
 11
-118.1617270336228
 21
-9.2163942400692349
 31
0.0
  0
LINE
  8
DETAIL
  6
CONTINUOUS
 62
     5
 10
-118.45733374536761
 20
-9.1329411788510697
 30
0.0
 11
-118.3124588236369
 21
-9.1851222384410676
 31
0.0
  0
LINE
  8
DETAIL
  6
CONTINUOUS
 62
     5
 10
-118.4887163344119
 20
-9.1163401435135256
 30
0.0
 11
-118.45733374536761
 21
-9.1329411788510697
 31
0.0
  0
ARC
  8
DETAIL
  6
CONTINUOUS
 62
     5
 10
-114.71977125190639
 20
-18.70054401416667
 30
0.0
 40
0.2000058183333853
 50
0.5000000000306278
 51
90.0
  0
ARC
  8
DETAIL
  6
CONTINUOUS
 62
     5
 10
-118.25226856165141
 20
-9.3002705525000238
 30
0.0
 40
0.30000872750024
 50
90.0
 51
178.9999999999591
  0
ARC
  8
DETAIL
  6
CONTINUOUS
 62
     5
 10
-137.7551789505178
 20
-9.3002705525000238
 30
0.0
 40
0.300008727500144
 50
1.0000000000408671
 51
90.0
  0
ARC
  8
DETAIL
  6
CONTINUOUS
 62
     5
 10
-164.38864367325189
 20
-45.025736944425383
 30
0.0
 40
0.3000087275000839
 50
183.0000000000708
 51
269.52906255928241
  0
ARC
  8
DETAIL
  6
CONTINUOUS
 62
     5
 10
-164.477894757043
 20
-0.5000145458332099
 30
0.0
 40
0.5000145458333852
 50
90.0
 51
177.00000000000739
  0
ARC
  8
DETAIL
  6
CONTINUOUS
 62
     5
 10
-164.477894757043
 20
-39.501149120833247
 30
0.0
 40
0.5000145458333852
 50
90.0
 51
182.99999999999261
  0
ARC
  8
DETAIL
  6
CONTINUOUS
 62
     5
 10
-112.5032728352508
 20
-38.701125847499952
 30
0.0
 40
0.8000232733335173
 50
180.0
 51
202.070898077999
  0
ARC
  8
DETAIL
  6
CONTINUOUS
 62
     5
 10
-112.5032728352508
 20
-34.501003662500011
 30
0.0
 40
0.8000232733332892
 50
90.0
 51
180.0
  0
ARC
  8
DETAIL
  6
CONTINUOUS
 62
     5
 10
-112.5032728352508
 20
-28.10081747583331
 30
0.0
 40
0.8000232733335173
 50
180.0
 51
270.0
  0
ARC
  8
DETAIL
  6
CONTINUOUS
 62
     5
 10
-163.88242971457481
 20
-8.0002327333331777
 30
0.0
 40
1.000029091666663
 50
181.00000000000179
 51
270.0
  0
ARC
  8
DETAIL
  6
CONTINUOUS
 62
     5
 10
-112.5032728352508
 20
-38.701125847499952
 30
0.0
 40
1.6000465466665781
 50
180.0
 51
190.80919967839441
  0
ARC
  8
DETAIL
  6
CONTINUOUS
 62
     5
 10
164.47789471153919
 20
-0.5000145458332099
 30
0.0
 40
0.5000145458330493
 50
3.0000995038795919
 51
90.0
  0
LINE
  8
DETAIL
  6
CONTINUOUS
 62
     5
 10
-118.7129142579161
 20
-18.500538195833201
 30
0.0
 11
-114.71977125190639
 21
-18.500538195833201
 31
0.0
  0
ARC
  8
DETAIL
  6
CONTINUOUS
 62
     5
 10
163.88242966907089
 20
-8.0002327333331777
 30
0.0
 40
1.000029091666615
 50
270.0
 51
358.99999999999818
  0
LINE
  8
DETAIL
  6
CONTINUOUS
 62
     5
 10
-113.3032961085828
 20
-24.600715654999821
 30
0.0
 11
-114.1033193819185
 21
-24.600715654999821
 31
0.0
  0
LINE
  8
DETAIL
  6
CONTINUOUS
 62
     5
 10
163.88242966907089
 20
-9.0002618249995976
 30
0.0
 11
-163.88242971457481
 21
-9.0002618249995976
 31
0.0
  0
LINE
  8
DETAIL
  6
CONTINUOUS
 62
     5
 10
164.47789471153919
 20
-0.0000000000003411
 30
0.0
 11
-164.47789471153919
 21
0.0000000000003411
 31
0.0
  0
LINE
  8
DETAIL
  6
CONTINUOUS
 62
     5
 10
-164.477894757043
 20
-39.001134575000037
 30
0.0
 11
164.47789471153919
 21
-39.001134575000037
 31
0.0
  0
LINE
  8
DETAIL
  6
CONTINUOUS
 62
     5
 10
112.1032611552819
 20
-28.900840749166601
 30
0.0
 11
112.50327279194789
 21
-28.900840749166601
 31
0.0
  0
LINE
  8
DETAIL
  6
CONTINUOUS
 62
     5
 10
112.1032611552819
 20
-29.800866931666519
 30
0.0
 11
110.0032000627816
 21
-29.800866931666519
 31
0.0
  0
LINE
  8
DETAIL
  6
CONTINUOUS
 62
     5
 10
114.4228867237925
 20
-29.800866931666519
 30
0.0
 11
114.10331933861561
 21
-29.800866931666519
 31
0.0
  0
LINE
  8
DETAIL
  6
CONTINUOUS
 62
     5
 10
137.4552158725437
 20
-9.2950346782838551
 30
0.0
 11
136.93669397001381
 21
-39.001134575000037
 31
0.0
  0
LINE
  8
DETAIL
  6
CONTINUOUS
 62
     5
 10
118.5522315530234
 20
-9.2950346782838551
 30
0.0
 11
119.07075345554949
 21
-39.001134575000037
 31
0.0
  0
LINE
  8
DETAIL
  6
CONTINUOUS
 62
     5
 10
114.10331933861561
 20
-38.701125847499952
 30
0.0
 11
114.10331933861561
 21
-24.600715654999821
 31
0.0
  0
LINE
  8
DETAIL
  6
CONTINUOUS
 62
     5
 10
113.30329606527989
 20
-38.701125847499952
 30
0.0
 11
113.30329606527989
 21
-24.600715654999821
 31
0.0
  0
LINE
  8
DETAIL
  6
CONTINUOUS
 62
     5
 10
112.1032611552819
 20
-33.700980389166723
 30
0.0
 11
112.1032611552819
 21
-28.900840749166601
 31
0.0
  0
LINE
  8
DETAIL
  6
CONTINUOUS
 62
     5
 10
112.1032611552819
 20
-32.800954206666461
 30
0.0
 11
110.0032000627816
 21
-32.800954206666461
 31
0.0
  0
LINE
  8
DETAIL
  6
CONTINUOUS
 62
     5
 10
110.0032000627816
 20
-29.800866931666519
 30
0.0
 11
110.0032000627816
 21
-32.800954206666461
 31
0.0
  0
LINE
  8
DETAIL
  6
CONTINUOUS
 62
     5
 10
114.3967053588549
 20
-32.800954206666461
 30
0.0
 11
114.10331933861561
 21
-32.800954206666461
 31
0.0
  0
LINE
  8
DETAIL
  6
CONTINUOUS
 62
     5
 10
114.5197730058953
 20
-18.698798656292642
 30
0.0
 11
114.34259720450611
 21
-39.001134575000037
 31
0.0
  0
LINE
  8
DETAIL
  6
CONTINUOUS
 62
     5
 10
112.1032611552819
 20
-33.700980389166723
 30
0.0
 11
112.50327279194789
 21
-33.700980389166723
 31
0.0
  0
ARC
  8
DETAIL
  6
CONTINUOUS
 62
     5
 10
117.54225070675059
 20
-11.500334554166439
 30
0.0
 40
2.0000581833332172
 50
90.0
 51
181.10170611520101
  0
LINE
  8
DETAIL
  6
CONTINUOUS
 62
     5
 10
115.67644202514749
 20
-18.500538195833201
 30
0.0
 11
115.5425622540733
 21
-11.53879010137018
 31
0.0
  0
LINE
  8
DETAIL
  6
CONTINUOUS
 62
     5
 10
116.56653504228051
 20
-9.0954862352562031
 30
0.0
 11
116.3430967530785
 21
-9.0002618249995976
 31
0.0
  0
LINE
  8
DETAIL
  6
CONTINUOUS
 62
     5
 10
116.8141872344877
 20
-9.1684898546913018
 30
0.0
 11
116.56653504228051
 21
-9.0954862352562031
 31
0.0
  0
LINE
  8
DETAIL
  6
CONTINUOUS
 62
     5
 10
117.06860415828309
 20
-9.212252028768944
 30
0.0
 11
116.8141872344877
 21
-9.1684898546913018
 31
0.0
  0
LINE
  8
DETAIL
  6
CONTINUOUS
 62
     5
 10
117.331840383742
 20
-9.2275097717290464
 30
0.0
 11
117.06860415828309
 21
-9.212252028768944
 31
0.0
  0
LINE
  8
DETAIL
  6
CONTINUOUS
 62
     5
 10
117.331840383742
 20
-9.2275097717290464
 30
0.0
 11
118.0034327961166
 21
-9.2275097717290464
 31
0.0
  0
LINE
  8
DETAIL
  6
CONTINUOUS
 62
     5
 10
117.54225070675059
 20
-9.5002763708332623
 30
0.0
 11
118.55581406014061
 21
-9.5002763708332623
 31
0.0
  0
LINE
  8
DETAIL
  6
CONTINUOUS
 62
     5
 10
118.1617269903236
 20
-9.2163942400692349
 30
0.0
 11
118.0034327961166
 21
-9.2275097717290464
 31
0.0
  0
LINE
  8
DETAIL
  6
CONTINUOUS
 62
     5
 10
118.3124587803341
 20
-9.1851222384410676
 30
0.0
 11
118.1617269903236
 21
-9.2163942400692349
 31
0.0
  0
LINE
  8
DETAIL
  6
CONTINUOUS
 62
     5
 10
118.4573337020647
 20
-9.1329411788510697
 30
0.0
 11
118.3124587803341
 21
-9.1851222384410676
 31
0.0
  0
LINE
  8
DETAIL
  6
CONTINUOUS
 62
     5
 10
118.4887162911091
 20
-9.1163401435135256
 30
0.0
 11
118.4573337020647
 21
-9.1329411788510697
 31
0.0
  0
ARC
  8
DETAIL
  6
CONTINUOUS
 62
     5
 10
114.7197712086036
 20
-18.70054401416667
 30
0.0
 40
0.2000058183333253
 50
90.0
 51
179.49999999996939
  0
ARC
  8
DETAIL
  6
CONTINUOUS
 62
     5
 10
118.2522685183485
 20
-9.3002705525000238
 30
0.0
 40
0.300008727500144
 50
1.0000000000408671
 51
90.0
  0
ARC
  8
DETAIL
  6
CONTINUOUS
 62
     5
 10
137.75517890721491
 20
-9.3002705525000238
 30
0.0
 40
0.30000872750024
 50
90.0
 51
178.9999999999591
  0
ARC
  8
DETAIL
  6
CONTINUOUS
 62
     5
 10
112.50327279194789
 20
-38.701125847499952
 30
0.0
 40
0.8000232733330491
 50
337.929101922001
 51
0.0
  0
ARC
  8
DETAIL
  6
CONTINUOUS
 62
     5
 10
112.50327279194789
 20
-34.501003662500011
 30
0.0
 40
0.8000232733335173
 50
0.0
 51
90.0
  0
ARC
  8
DETAIL
  6
CONTINUOUS
 62
     5
 10
112.50327279194789
 20
-28.10081747583331
 30
0.0
 40
0.8000232733332892
 50
270.0
 51
0.0
  0
ARC
  8
DETAIL
  6
CONTINUOUS
 62
     5
 10
112.50327279194789
 20
-38.701125847499952
 30
0.0
 40
1.600046546666603
 50
349.19080032160559
 51
0.0
  0
LINE
  8
DETAIL
  6
CONTINUOUS
 62
     5
 10
118.71291421461321
 20
-18.500538195833201
 30
0.0
 11
114.7197712086036
 21
-18.500538195833201
 31
0.0
  0
LINE
  8
DETAIL
  6
CONTINUOUS
 62
     5
 10
113.30329606527989
 20
-24.600715654999821
 30
0.0
 11
114.10331933861561
 21
-24.600715654999821
 31
0.0
  0
LINE
  8
OUTLINE
  6
CONTINUOUS
 62
     3
 10
164.68824120368839
 20
-45.041438188087227
 30
0.0
 11
164.97722400473691
 21
-39.527317860203539
 31
0.0
  0
LINE
  8
OUTLINE
  6
CONTINUOUS
 62
     3
 10
164.88230645140541
 20
-8.0176856474525948
 30
0.0
 11
165.00480010224959
 21
-1.0000290916664201
 31
0.0
  0
LINE
  8
OUTLINE
  6
CONTINUOUS
 62
     3
 10
165.00480010224959
 20
-1.0000290916664201
 30
0.0
 11
165.00206525489011
 21
-0.9478450950912247
 31
0.0
  0
LINE
  8
OUTLINE
  6
CONTINUOUS
 62
     3
 10
164.97722395933491
 20
-0.4738449392377788
 30
0.0
 11
164.9998284449193
 21
-0.905164218769869
 31
0.0
  0
LINE
  8
OUTLINE
  6
CONTINUOUS
 62
     3
 10
165.00206525489011
 20
-0.9478450950912247
 30
0.0
 11
164.99794755420041
 21
-0.9052627920373197
 31
0.0
  0
LINE
  8
OUTLINE
  6
CONTINUOUS
 62
     3
 10
-112.1032611985847
 20
-28.900840749166601
 30
0.0
 11
-112.5032728352508
 21
-28.900840749166601
 31
0.0
  0
ARC
  8
OUTLINE
  6
CONTINUOUS
 62
     3
 10
164.38864362775169
 20
-45.025736944425383
 30
0.0
 40
0.300008727499856
 50
270.47095066118533
 51
356.99988044683789
  0
ARC
  8
OUTLINE
  6
CONTINUOUS
 62
     3
 10
164.47789471153919
 20
-39.501149120833247
 30
0.0
 40
0.5000145458327733
 50
357.00000000000739
 51
90.0
  0
LINE
  8
OUTLINE
  6
CONTINUOUS
 62
     3
 10
-164.97722405024069
 20
-0.4738458064631459
 30
0.0
 11
-165.00480014774979
 21
-1.0000290916664201
 31
0.0
  0
LINE
  8
OUTLINE
  6
CONTINUOUS
 62
     3
 10
-165.00480014774979
 20
-1.0000290916664201
 30
0.0
 11
-164.88230649691289
 21
-8.0176856474525948
 31
0.0
  0
LINE
  8
OUTLINE
  6
CONTINUOUS
 62
     3
 10
-112.1032611985847
 20
-29.800866931666519
 30
0.0
 11
-110.00320010608451
 21
-29.800866931666519
 31
0.0
  0
LINE
  8
OUTLINE
  6
CONTINUOUS
 62
     3
 10
-164.97722405024069
 20
-39.527317860203539
 30
0.0
 11
-164.68836241662029
 21
-45.039126175528963
 31
0.0
  0
LINE
  8
OUTLINE
  6
CONTINUOUS
 62
     3
 10
-114.42288676709541
 20
-29.800866931666519
 30
0.0
 11
-114.1033193819185
 21
-29.800866931666519
 31
0.0
  0
LINE
  8
OUTLINE
  6
CONTINUOUS
 62
     3
 10
-137.45521591584659
 20
-9.2950346782838551
 30
0.0
 11
-136.93669401331681
 21
-39.001134575000037
 31
0.0
  0
LINE
  8
OUTLINE
  6
CONTINUOUS
 62
     3
 10
-118.5522315963226
 20
-9.2950346782838551
 30
0.0
 11
-119.0707534988524
 21
-39.001134575000037
 31
0.0
  0
LINE
  8
OUTLINE
  6
CONTINUOUS
 62
     3
 10
-114.1033193819185
 20
-38.701125847499952
 30
0.0
 11
-114.1033193819185
 21
-24.600715654999821
 31
0.0
  0
LINE
  8
OUTLINE
  6
CONTINUOUS
 62
     3
 10
-113.3032961085828
 20
-38.701125847499952
 30
0.0
 11
-113.3032961085828
 21
-24.600715654999821
 31
0.0
  0
LINE
  8
OUTLINE
  6
CONTINUOUS
 62
     3
 10
-112.1032611985847
 20
-33.700980389166723
 30
0.0
 11
-112.1032611985847
 21
-28.900840749166601
 31
0.0
  0
LINE
  8
OUTLINE
  6
CONTINUOUS
 62
     3
 10
-112.1032611985847
 20
-32.800954206666461
 30
0.0
 11
-110.00320010608451
 21
-32.800954206666461
 31
0.0
  0
LINE
  8
OUTLINE
  6
CONTINUOUS
 62
     3
 10
-110.00320010608451
 20
-29.800866931666519
 30
0.0
 11
-110.00320010608451
 21
-32.800954206666461
 31
0.0
  0
LINE
  8
OUTLINE
  6
CONTINUOUS
 62
     3
 10
-114.39670540215771
 20
-32.800954206666461
 30
0.0
 11
-114.1033193819185
 21
-32.800954206666461
 31
0.0
  0
LINE
  8
OUTLINE
  6
CONTINUOUS
 62
     3
 10
-114.51977304919821
 20
-18.698798656292642
 30
0.0
 11
-114.342597247809
 21
-39.001134575000037
 31
0.0
  0
LINE
  8
OUTLINE
  6
CONTINUOUS
 62
     3
 10
-112.1032611985847
 20
-33.700980389166723
 30
0.0
 11
-112.5032728352508
 21
-33.700980389166723
 31
0.0
  0
LINE
  8
OUTLINE
  6
CONTINUOUS
 62
     3
 10
-164.3911095398889
 20
-45.325735537930541
 30
0.0
 11
-164.3887869057198
 21
-45.323433658466683
 31
0.0
  0
LINE
  8
OUTLINE
  6
CONTINUOUS
 62
     3
 10
-27.3988084718676
 20
-45.982571386224208
 30
0.0
 11
-0.0000000227501005
 21
-46.001338216666447
 31
0.0
  0
LINE
  8
OUTLINE
  6
CONTINUOUS
 62
     3
 10
-54.797573817626471
 20
-45.926270907297067
 30
0.0
 11
-27.3988084718676
 21
-45.982571386224208
 31
0.0
  0
LINE
  8
OUTLINE
  6
CONTINUOUS
 62
     3
 10
-82.196248785259741
 20
-45.832436829686458
 30
0.0
 11
-54.797573817626471
 21
-45.926270907297067
 31
0.0
  0
LINE
  8
OUTLINE
  6
CONTINUOUS
 62
     3
 10
-109.5947695295054
 20
-45.701069360299471
 30
0.0
 11
-82.196248785259741
 21
-45.832436829686458
 31
0.0
  0
LINE
  8
OUTLINE
  6
CONTINUOUS
 62
     3
 10
-136.99307220560689
 20
-45.532168816943908
 30
0.0
 11
-109.5947695295054
 21
-45.701069360299471
 31
0.0
  0
LINE
  8
OUTLINE
  6
CONTINUOUS
 62
     3
 10
-164.3911095398889
 20
-45.325735537930541
 30
0.0
 11
-136.99307220560689
 21
-45.532168816943908
 31
0.0
  0
LINE
  8
OUTLINE
  6
CONTINUOUS
 62
     3
 10
136.99303321676959
 20
-45.532169050850712
 30
0.0
 11
164.39110949438509
 21
-45.325735537930541
 31
0.0
  0
LINE
  8
OUTLINE
  6
CONTINUOUS
 62
     3
 10
109.59475438286429
 20
-45.701069443101801
 30
0.0
 11
136.99303321676959
 21
-45.532169050850712
 31
0.0
  0
LINE
  8
OUTLINE
  6
CONTINUOUS
 62
     3
 10
82.196248836959057
 20
-45.832436813886027
 30
0.0
 11
109.59475438286429
 21
-45.701069443101801
 31
0.0
  0
LINE
  8
OUTLINE
  6
CONTINUOUS
 62
     3
 10
54.797589046369467
 20
-45.92627086539585
 30
0.0
 11
82.196248836959057
 21
-45.832436813886027
 31
0.0
  0
LINE
  8
OUTLINE
  6
CONTINUOUS
 62
     3
 10
27.398847478400061
 20
-45.982571299921801
 30
0.0
 11
54.797589046369467
 21
-45.92627086539585
 31
0.0
  0
LINE
  8
OUTLINE
  6
CONTINUOUS
 62
     3
 10
-0.0000000227501005
 20
-46.001338216666447
 30
0.0
 11
27.398847478400061
 21
-45.982571299921801
 31
0.0
  0
ARC
  8
OUTLINE
  6
CONTINUOUS
 62
     3
 10
-117.5422507500534
 20
-11.500334554166439
 30
0.0
 40
2.00005818333323
 50
358.89829388479887
 51
90.0
  0
LINE
  8
OUTLINE
  6
CONTINUOUS
 62
     3
 10
-115.6764420684503
 20
-18.500538195833201
 30
0.0
 11
-115.54256229737619
 21
-11.53879010137018
 31
0.0
  0
LINE
  8
OUTLINE
  6
CONTINUOUS
 62
     3
 10
-116.5665350855834
 20
-9.0954862352562031
 30
0.0
 11
-116.3430967963814
 21
-9.0002618249995976
 31
0.0
  0
LINE
  8
OUTLINE
  6
CONTINUOUS
 62
     3
 10
-116.81418727779059
 20
-9.1684898546913018
 30
0.0
 11
-116.5665350855834
 21
-9.0954862352562031
 31
0.0
  0
LINE
  8
OUTLINE
  6
CONTINUOUS
 62
     3
 10
-117.0686042015859
 20
-9.212252028768944
 30
0.0
 11
-116.81418727779059
 21
-9.1684898546913018
 31
0.0
  0
LINE
  8
OUTLINE
  6
CONTINUOUS
 62
     3
 10
-117.3318404270412
 20
-9.2275097717290464
 30
0.0
 11
-117.0686042015859
 21
-9.212252028768944
 31
0.0
  0
LINE
  8
OUTLINE
  6
CONTINUOUS
 62
     3
 10
-117.3318404270412
 20
-9.2275097717290464
 30
0.0
 11
-118.0034328394195
 21
-9.2275097717290464
 31
0.0
  0
LINE
  8
OUTLINE
  6
CONTINUOUS
 62
     3
 10
-117.5422507500534
 20
-9.5002763708332623
 30
0.0
 11
-118.5558141034435
 21
-9.5002763708332623
 31
0.0
  0
LINE
  8
OUTLINE
  6
CONTINUOUS
 62
     3
 10
-118.1617270336228
 20
-9.2163942400692349
 30
0.0
 11
-118.0034328394195
 21
-9.2275097717290464
 31
0.0
  0
LINE
  8
OUTLINE
  6
CONTINUOUS
 62
     3
 10
-118.3124588236369
 20
-9.1851222384410676
 30
0.0
 11
-118.1617270336228
 21
-9.2163942400692349
 31
0.0
  0
LINE
  8
OUTLINE
  6
CONTINUOUS
 62
     3
 10
-118.45733374536761
 20
-9.1329411788510697
 30
0.0
 11
-118.3124588236369
 21
-9.1851222384410676
 31
0.0
  0
LINE
  8
OUTLINE
  6
CONTINUOUS
 62
     3
 10
-118.4887163344119
 20
-9.1163401435135256
 30
0.0
 11
-118.45733374536761
 21
-9.1329411788510697
 31
0.0
  0
ARC
  8
OUTLINE
  6
CONTINUOUS
 62
     3
 10
-114.71977125190639
 20
-18.70054401416667
 30
0.0
 40
0.2000058183333853
 50
0.5000000000306278
 51
90.0
  0
ARC
  8
OUTLINE
  6
CONTINUOUS
 62
     3
 10
-118.25226856165141
 20
-9.3002705525000238
 30
0.0
 40
0.30000872750024
 50
90.0
 51
178.9999999999591
  0
ARC
  8
OUTLINE
  6
CONTINUOUS
 62
     3
 10
-137.7551789505178
 20
-9.3002705525000238
 30
0.0
 40
0.300008727500144
 50
1.0000000000408671
 51
90.0
  0
ARC
  8
OUTLINE
  6
CONTINUOUS
 62
     3
 10
-164.38864367325189
 20
-45.025736944425383
 30
0.0
 40
0.3000087275000839
 50
183.0000000000708
 51
269.52906255928241
  0
ARC
  8
OUTLINE
  6
CONTINUOUS
 62
     3
 10
-164.477894757043
 20
-0.5000145458332099
 30
0.0
 40
0.5000145458333852
 50
90.0
 51
177.00000000000739
  0
ARC
  8
OUTLINE
  6
CONTINUOUS
 62
     3
 10
-164.477894757043
 20
-39.501149120833247
 30
0.0
 40
0.5000145458333852
 50
90.0
 51
182.99999999999261
  0
ARC
  8
OUTLINE
  6
CONTINUOUS
 62
     3
 10
-112.5032728352508
 20
-38.701125847499952
 30
0.0
 40
0.8000232733335173
 50
180.0
 51
202.070898077999
  0
ARC
  8
OUTLINE
  6
CONTINUOUS
 62
     3
 10
-112.5032728352508
 20
-34.501003662500011
 30
0.0
 40
0.8000232733332892
 50
90.0
 51
180.0
  0
ARC
  8
OUTLINE
  6
CONTINUOUS
 62
     3
 10
-112.5032728352508
 20
-28.10081747583331
 30
0.0
 40
0.8000232733335173
 50
180.0
 51
270.0
  0
ARC
  8
OUTLINE
  6
CONTINUOUS
 62
     3
 10
-163.88242971457481
 20
-8.0002327333331777
 30
0.0
 40
1.000029091666663
 50
181.00000000000179
 51
270.0
  0
ARC
  8
OUTLINE
  6
CONTINUOUS
 62
     3
 10
-112.5032728352508
 20
-38.701125847499952
 30
0.0
 40
1.6000465466665781
 50
180.0
 51
190.80919967839441
  0
ARC
  8
OUTLINE
  6
CONTINUOUS
 62
     3
 10
164.47789471153919
 20
-0.5000145458332099
 30
0.0
 40
0.5000145458330493
 50
3.0000995038795919
 51
90.0
  0
LINE
  8
OUTLINE
  6
CONTINUOUS
 62
     3
 10
-118.7129142579161
 20
-18.500538195833201
 30
0.0
 11
-114.71977125190639
 21
-18.500538195833201
 31
0.0
  0
ARC
  8
OUTLINE
  6
CONTINUOUS
 62
     3
 10
163.88242966907089
 20
-8.0002327333331777
 30
0.0
 40
1.000029091666615
 50
270.0
 51
358.99999999999818
  0
LINE
  8
OUTLINE
  6
CONTINUOUS
 62
     3
 10
-113.3032961085828
 20
-24.600715654999821
 30
0.0
 11
-114.1033193819185
 21
-24.600715654999821
 31
0.0
  0
LINE
  8
OUTLINE
  6
CONTINUOUS
 62
     3
 10
163.88242966907089
 20
-9.0002618249995976
 30
0.0
 11
-163.88242971457481
 21
-9.0002618249995976
 31
0.0
  0
LINE
  8
OUTLINE
  6
CONTINUOUS
 62
     3
 10
164.47789471153919
 20
-0.0000000000003411
 30
0.0
 11
-164.47789471153919
 21
0.0000000000003411
 31
0.0
  0
LINE
  8
OUTLINE
  6
CONTINUOUS
 62
     3
 10
-164.477894757043
 20
-39.001134575000037
 30
0.0
 11
164.47789471153919
 21
-39.001134575000037
 31
0.0
  0
LINE
  8
OUTLINE
  6
CONTINUOUS
 62
     3
 10
112.1032611552819
 20
-28.900840749166601
 30
0.0
 11
112.50327279194789
 21
-28.900840749166601
 31
0.0
  0
LINE
  8
OUTLINE
  6
CONTINUOUS
 62
     3
 10
112.1032611552819
 20
-29.800866931666519
 30
0.0
 11
110.0032000627816
 21
-29.800866931666519
 31
0.0
  0
LINE
  8
OUTLINE
  6
CONTINUOUS
 62
     3
 10
114.4228867237925
 20
-29.800866931666519
 30
0.0
 11
114.10331933861561
 21
-29.800866931666519
 31
0.0
  0
LINE
  8
OUTLINE
  6
CONTINUOUS
 62
     3
 10
137.4552158725437
 20
-9.2950346782838551
 30
0.0
 11
136.93669397001381
 21
-39.001134575000037
 31
0.0
  0
LINE
  8
OUTLINE
  6
CONTINUOUS
 62
     3
 10
118.5522315530234
 20
-9.2950346782838551
 30
0.0
 11
119.07075345554949
 21
-39.001134575000037
 31
0.0
  0
LINE
  8
OUTLINE
  6
CONTINUOUS
 62
     3
 10
114.10331933861561
 20
-38.701125847499952
 30
0.0
 11
114.10331933861561
 21
-24.600715654999821
 31
0.0
  0
LINE
  8
OUTLINE
  6
CONTINUOUS
 62
     3
 10
113.30329606527989
 20
-38.701125847499952
 30
0.0
 11
113.30329606527989
 21
-24.600715654999821
 31
0.0
  0
LINE
  8
OUTLINE
  6
CONTINUOUS
 62
     3
 10
112.1032611552819
 20
-33.700980389166723
 30
0.0
 11
112.1032611552819
 21
-28.900840749166601
 31
0.0
  0
LINE
  8
OUTLINE
  6
CONTINUOUS
 62
     3
 10
112.1032611552819
 20
-32.800954206666461
 30
0.0
 11
110.0032000627816
 21
-32.800954206666461
 31
0.0
  0
LINE
  8
OUTLINE
  6
CONTINUOUS
 62
     3
 10
110.0032000627816
 20
-29.800866931666519
 30
0.0
 11
110.0032000627816
 21
-32.800954206666461
 31
0.0
  0
LINE
  8
OUTLINE
  6
CONTINUOUS
 62
     3
 10
114.3967053588549
 20
-32.800954206666461
 30
0.0
 11
114.10331933861561
 21
-32.800954206666461
 31
0.0
  0
LINE
  8
OUTLINE
  6
CONTINUOUS
 62
     3
 10
114.5197730058953
 20
-18.698798656292642
 30
0.0
 11
114.34259720450611
 21
-39.001134575000037
 31
0.0
  0
LINE
  8
OUTLINE
  6
CONTINUOUS
 62
     3
 10
112.1032611552819
 20
-33.700980389166723
 30
0.0
 11
112.50327279194789
 21
-33.700980389166723
 31
0.0
  0
ARC
  8
OUTLINE
  6
CONTINUOUS
 62
     3
 10
117.54225070675059
 20
-11.500334554166439
 30
0.0
 40
2.0000581833332172
 50
90.0
 51
181.10170611520101
  0
LINE
  8
OUTLINE
  6
CONTINUOUS
 62
     3
 10
115.67644202514749
 20
-18.500538195833201
 30
0.0
 11
115.5425622540733
 21
-11.53879010137018
 31
0.0
  0
LINE
  8
OUTLINE
  6
CONTINUOUS
 62
     3
 10
116.56653504228051
 20
-9.0954862352562031
 30
0.0
 11
116.3430967530785
 21
-9.0002618249995976
 31
0.0
  0
LINE
  8
OUTLINE
  6
CONTINUOUS
 62
     3
 10
116.8141872344877
 20
-9.1684898546913018
 30
0.0
 11
116.56653504228051
 21
-9.0954862352562031
 31
0.0
  0
LINE
  8
OUTLINE
  6
CONTINUOUS
 62
     3
 10
117.06860415828309
 20
-9.212252028768944
 30
0.0
 11
116.8141872344877
 21
-9.1684898546913018
 31
0.0
  0
LINE
  8
OUTLINE
  6
CONTINUOUS
 62
     3
 10
117.331840383742
 20
-9.2275097717290464
 30
0.0
 11
117.06860415828309
 21
-9.212252028768944
 31
0.0
  0
LINE
  8
OUTLINE
  6
CONTINUOUS
 62
     3
 10
117.331840383742
 20
-9.2275097717290464
 30
0.0
 11
118.0034327961166
 21
-9.2275097717290464
 31
0.0
  0
LINE
  8
OUTLINE
  6
CONTINUOUS
 62
     3
 10
117.54225070675059
 20
-9.5002763708332623
 30
0.0
 11
118.55581406014061
 21
-9.5002763708332623
 31
0.0
  0
LINE
  8
OUTLINE
  6
CONTINUOUS
 62
     3
 10
118.1617269903236
 20
-9.2163942400692349
 30
0.0
 11
118.0034327961166
 21
-9.2275097717290464
 31
0.0
  0
LINE
  8
OUTLINE
  6
CONTINUOUS
 62
     3
 10
118.3124587803341
 20
-9.1851222384410676
 30
0.0
 11
118.1617269903236
 21
-9.2163942400692349
 31
0.0
  0
LINE
  8
OUTLINE
  6
CONTINUOUS
 62
     3
 10
118.4573337020647
 20
-9.1329411788510697
 30
0.0
 11
118.3124587803341
 21
-9.1851222384410676
 31
0.0
  0
LINE
  8
OUTLINE
  6
CONTINUOUS
 62
     3
 10
118.4887162911091
 20
-9.1163401435135256
 30
0.0
 11
118.4573337020647
 21
-9.1329411788510697
 31
0.0
  0
ARC
  8
OUTLINE
  6
CONTINUOUS
 62
     3
 10
114.7197712086036
 20
-18.70054401416667
 30
0.0
 40
0.2000058183333253
 50
90.0
 51
179.49999999996939
  0
ARC
  8
OUTLINE
  6
CONTINUOUS
 62
     3
 10
118.2522685183485
 20
-9.3002705525000238
 30
0.0
 40
0.300008727500144
 50
1.0000000000408671
 51
90.0
  0
ARC
  8
OUTLINE
  6
CONTINUOUS
 62
     3
 10
137.75517890721491
 20
-9.3002705525000238
 30
0.0
 40
0.30000872750024
 50
90.0
 51
178.9999999999591
  0
ARC
  8
OUTLINE
  6
CONTINUOUS
 62
     3
 10
112.50327279194789
 20
-38.701125847499952
 30
0.0
 40
0.8000232733330491
 50
337.929101922001
 51
0.0
  0
ARC
  8
OUTLINE
  6
CONTINUOUS
 62
     3
 10
112.50327279194789
 20
-34.501003662500011
 30
0.0
 40
0.8000232733335173
 50
0.0
 51
90.0
  0
ARC
  8
OUTLINE
  6
CONTINUOUS
 62
     3
 10
112.50327279194789
 20
-28.10081747583331
 30
0.0
 40
0.8000232733332892
 50
270.0
 51
0.0
  0
ARC
  8
OUTLINE
  6
CONTINUOUS
 62
     3
 10
112.50327279194789
 20
-38.701125847499952
 30
0.0
 40
1.600046546666603
 50
349.19080032160559
 51
0.0
  0
LINE
  8
OUTLINE
  6
CONTINUOUS
 62
     3
 10
118.71291421461321
 20
-18.500538195833201
 30
0.0
 11
114.7197712086036
 21
-18.500538195833201
 31
0.0
  0
LINE
  8
OUTLINE
  6
CONTINUOUS
 62
     3
 10
113.30329606527989
 20
-24.600715654999821
 30
0.0
 11
114.10331933861561
 21
-24.600715654999821
 31
0.0
  0
LINE
  8
OUTLINE
  6
CONTINUOUS
 62
     3
 10
0.0
 20
0.0
 30
0.0
 11
165.0
 21
0.0
 31
0.0
  0
LINE
  8
OUTLINE
  6
CONTINUOUS
 62
     3
 10
0.0
 20
0.0
 30
0.0
 11
165.0
 21
0.0
 31
0.0
  0
LINE
  8
OUTLINE
  6
CONTINUOUS
 62
     3
 10
-135.0
 20
200.0
 30
0.0
 11
135.0
 21
200.0
 31
0.0
  0
TEXT
  8
SIZE
  6
CONTINUOUS
 62
    30
 10
-110.5371428571429
 20
-731.56390359515535
 30
0.0
 40
64.0
  1
□330
 41
0.9
 72
     1
 11
0.0
 21
-731.56390359515535
 31
0.0
  0
LINE
  8
SIZE
  6
CONTINUOUS
 62
    30
 10
-153.0
 20
-756.56390359515535
 30
0.0
 11
153.0
 21
-756.56390359515535
 31
0.0
  0
LINE
  8
DETAIL
  6
CONTINUOUS
 62
     5
 10
0.0
 20
0.0
 30
0.0
 11
165.0
 21
0.0
 31
0.0
  0
LINE
  8
DETAIL
  6
CONTINUOUS
 62
     5
 10
0.0
 20
0.0
 30
0.0
 11
165.0
 21
0.0
 31
0.0
  0
TEXT
  8
SIZE
  6
CONTINUOUS
 62
    30
 10
-75.428571428571416
 20
521.64213188495478
 30
0.0
 40
64.0
  1
304
 41
0.9
 72
     1
 11
0.0
 21
521.64213188495478
 31
0.0
  0
LINE
  8
SIZE
  6
CONTINUOUS
 62
    30
 10
-140.0
 20
498.10463888495451
 30
0.0
 11
140.0
 21
498.10463888495451
 31
0.0
  0
LINE
  8
SIZE
  6
CONTINUOUS
 62
    30
 10
-50.0
 20
360.86639225646149
 30
0.0
 11
8.000001999999995
 21
360.86639225646149
 31
0.0
  0
LINE
  8
DETAIL
  6
CONTINUOUS
 62
     5
 10
-135.0
 20
192.0
 30
0.0
 11
135.0
 21
192.0
 31
0.0
  0
LINE
  8
SIZE
  6
CONTINUOUS
 62
    30
 10
39.068039912924178
 20
243.0
 30
0.0
 11
590.22018900000012
 21
243.0
 31
0.0
  0
TEXT
  8
SIZE
  6
CONTINUOUS
 62
    30
 10
-74.05714285714285
 20
-583.90622900000017
 30
0.0
 40
64.0
  1
292
 41
0.9
 72
     1
 11
0.0
 21
-583.90622900000017
 31
0.0
  0
LINE
  8
SIZE
  6
CONTINUOUS
 62
    30
 10
-134.0
 20
-616.59694400000001
 30
0.0
 11
134.0
 21
-616.59694400000001
 31
0.0
  0
TEXT
  8
SIZE
  6
CONTINUOUS
 62
    30
 10
-110.5371428571429
 20
-340.60963600000002
 30
0.0
 40
64.0
  1
□270
 41
0.9
 72
     1
 11
0.0
 21
-340.60963600000002
 31
0.0
  0
LINE
  8
SIZE
  6
CONTINUOUS
 62
    30
 10
-123.0
 20
-363.34943600000003
 30
0.0
 11
123.0
 21
-363.34943600000003
 31
0.0
  0
TEXT
  8
SIZE
  6
CONTINUOUS
 62
    30
 10
-74.057142857142864
 20
-204.29081700000009
 30
0.0
 40
64.0
  1
230
 41
0.9
 72
     1
 11
0.0
 21
-204.29081700000009
 31
0.0
  0
LINE
  8
SIZE
  6
CONTINUOUS
 62
    30
 10
-103.0
 20
-231.092186
 30
0.0
 11
103.0
 21
-231.092186
 31
0.0
  0
LINE
  8
DETAIL
  6
CONTINUOUS
 62
     5
 10
-135.0
 20
200.0
 30
0.0
 11
135.0
 21
200.0
 31
0.0
  0
LINE
  8
DETAIL
  6
CONTINUOUS
 62
     5
 10
8.468951917043114
 20
243.0
 30
0.0
 11
-21.0
 21
243.0
 31
0.0
  0
LINE
  8
DETAIL
  6
CONTINUOUS
 62
     5
 10
-81.0
 20
208.0
 30
0.0
 11
39.0
 21
208.0
 31
0.0
  0
LINE
  8
OUTLINE
  6
CONTINUOUS
 62
     3
 10
-135.0
 20
0.0
 30
0.0
 11
-135.0
 21
200.0
 31
0.0
  0
LINE
  8
NOTE
  6
CONTINUOUS
 62
     4
 10
-146.0
 20
-20.0
 30
0.0
 11
-146.0
 21
20.0
 31
0.0
  0
CIRCLE
  8
FIX
  6
CONTINUOUS
 62
    11
 10
-146.0
 20
0.0
 30
0.0
 40
2.5
  0
LINE
  8
NOTE
  6
CONTINUOUS
 62
     4
 10
-115.0
 20
-20.0
 30
0.0
 11
-115.0
 21
20.0
 31
0.0
  0
CIRCLE
  8
FIX
  6
CONTINUOUS
 62
    11
 10
-115.0
 20
0.0
 30
0.0
 40
2.5
  0
LINE
  8
DETAIL
  6
CONTINUOUS
 62
     5
 10
-135.0
 20
0.0
 30
0.0
 11
-135.0
 21
207.0
 31
0.0
  0
LINE
  8
BASIS
  6
DASHDOT
 62
     6
 10
0.0
 20
-96.742122999999992
 30
0.0
 11
0.0
 21
291.47948300000007
 31
0.0
  0
LINE
  8
SIZE
  6
CONTINUOUS
 62
    30
 10
-165.0
 20
-20.0
 30
0.0
 11
-165.0
 21
-776.56390359515535
 31
0.0
  0
CIRCLE
  8
SIZE
  6
CONTINUOUS
 62
    30
 10
-165.0
 20
-756.56390359515535
 30
0.0
 40
6.0
  0
LINE
  8
SIZE
  6
CONTINUOUS
 62
    30
 10
-165.0
 20
-756.56390359515535
 30
0.0
 11
-153.0
 21
-756.56390359515535
 31
0.0
  0
LINE
  8
NOTE
  6
CONTINUOUS
 62
     4
 10
-249.02044799999999
 20
-150.35558399999999
 30
0.0
 11
-653.77709899999979
 21
-150.35558399999999
 31
0.0
  0
TEXT
  8
NOTE
  6
CONTINUOUS
 62
     4
 10
-624.2847569999999
 20
-117.391313
 30
0.0
 40
64.0
  1
8-φ5×8
 41
0.9
  0
LINE
  8
SIZE
  6
CONTINUOUS
 62
    30
 10
-146.0
 20
-40.0
 30
0.0
 11
-146.0
 21
-636.59694400000001
 31
0.0
  0
LINE
  8
SIZE
  6
CONTINUOUS
 62
    30
 10
-135.0
 20
-20.0
 30
0.0
 11
-135.0
 21
-383.34943600000003
 31
0.0
  0
CIRCLE
  8
SIZE
  6
CONTINUOUS
 62
    30
 10
-146.0
 20
-616.59694400000001
 30
0.0
 40
6.0
  0
LINE
  8
SIZE
  6
CONTINUOUS
 62
    30
 10
-146.0
 20
-616.59694400000001
 30
0.0
 11
-134.0
 21
-616.59694400000001
 31
0.0
  0
LINE
  8
SIZE
  6
CONTINUOUS
 62
    30
 10
-135.0
 20
-363.34943600000003
 30
0.0
 11
-123.0
 21
-363.34943600000003
 31
0.0
  0
CIRCLE
  8
SIZE
  6
CONTINUOUS
 62
    30
 10
-135.0
 20
-363.34943600000003
 30
0.0
 40
6.0
  0
LINE
  8
NOTE
  6
CONTINUOUS
 62
     4
 10
-146.01218499999999
 20
-0.0530469999999923
 30
0.0
 11
-249.02044799999999
 21
-150.35558399999999
 31
0.0
  0
LINE
  8
SIZE
  6
CONTINUOUS
 62
    30
 10
-115.0
 20
-40.0
 30
0.0
 11
-115.0
 21
-251.092186
 31
0.0
  0
CIRCLE
  8
SIZE
  6
CONTINUOUS
 62
    30
 10
-115.0
 20
-231.092186
 30
0.0
 40
6.0
  0
LINE
  8
SIZE
  6
CONTINUOUS
 62
    30
 10
-115.0
 20
-231.092186
 30
0.0
 11
-103.0
 21
-231.092186
 31
0.0
  0
LINE
  8
OUTLINE
  6
CONTINUOUS
 62
     3
 10
0.0
 20
0.0
 30
0.0
 11
-165.0
 21
0.0
 31
0.0
  0
LINE
  8
OUTLINE
  6
CONTINUOUS
 62
     3
 10
0.0
 20
0.0
 30
0.0
 11
-165.0
 21
0.0
 31
0.0
  0
LINE
  8
DETAIL
  6
CONTINUOUS
 62
     5
 10
0.0
 20
0.0
 30
0.0
 11
-165.0
 21
0.0
 31
0.0
  0
LINE
  8
DETAIL
  6
CONTINUOUS
 62
     5
 10
0.0
 20
0.0
 30
0.0
 11
-165.0
 21
0.0
 31
0.0
  0
LINE
  8
NOTE
  6
CONTINUOUS
 62
     4
 10
-95.0
 20
0.0
 30
0.0
 11
-135.0
 21
0.0
 31
0.0
  0
LINE
  8
NOTE
  6
CONTINUOUS
 62
     4
 10
-146.0
 20
0.0
 30
0.0
 11
-176.73626599999989
 21
-25.598476000000009
 31
0.0
  0
LINE
  8
NOTE
  6
CONTINUOUS
 62
     4
 10
-159.8191489999999
 20
-37.537062999999989
 30
0.0
 11
-146.0
 21
0.0
 31
0.0
  0
LINE
  8
NOTE
  6
CONTINUOUS
 62
     4
 10
-126.0
 20
0.0
 30
0.0
 11
-166.0
 21
0.0
 31
0.0
  0
LINE
  8
SIZE
  6
CONTINUOUS
 62
    30
 10
-152.0
 20
248.0
 30
0.0
 11
-152.0
 21
518.10463888495451
 31
0.0
  0
TEXT
  8
NOTE
  6
CONTINUOUS
 62
     4
 10
-475.81839100000002
 20
384.07478900000001
 30
0.0
 40
64.0
  1
EL
 41
0.9
  0
LINE
  8
NOTE
  6
CONTINUOUS
 62
     4
 10
-354.23754300000002
 20
350.72414500000008
 30
0.0
 11
-505.98997800000012
 21
350.72414500000008
 31
0.0
  0
LINE
  8
SIZE
  6
CONTINUOUS
 62
    30
 10
-62.0
 20
253.33999999999989
 30
0.0
 11
-62.0
 21
380.86639225646149
 31
0.0
  0
LINE
  8
NOTE
  6
CONTINUOUS
 62
     4
 10
-111.0
 20
200.0
 30
0.0
 11
-354.23754300000002
 21
350.72414500000008
 31
0.0
  0
LINE
  8
DETAIL
  6
CONTINUOUS
 62
     5
 10
-140.25
 20
203.5
 30
0.0
 11
-140.25
 21
7.0
 31
0.0
  0
LINE
  8
DETAIL
  6
CONTINUOUS
 62
     5
 10
-136.75
 20
207.0
 30
0.0
 11
-136.75
 21
7.0
 31
0.0
  0
LINE
  8
DETAIL
  6
CONTINUOUS
 62
     5
 10
-140.25
 20
7.0
 30
0.0
 11
-135.0
 21
7.0
 31
0.0
  0
LINE
  8
NOTE
  6
CONTINUOUS
 62
     4
 10
-111.0
 20
200.0
 30
0.0
 11
-149.26464799999991
 21
211.65404200000009
 31
0.0
  0
LINE
  8
NOTE
  6
CONTINUOUS
 62
     4
 10
-138.311136
 20
229.225021
 30
0.0
 11
-111.0
 21
200.0
 31
0.0
  0
LINE
  8
NOTE
  6
CONTINUOUS
 62
     4
 10
-91.5
 20
200.0
 30
0.0
 11
-131.5
 21
200.0
 31
0.0
  0
LINE
  8
DETAIL
  6
CONTINUOUS
 62
     5
 10
-135.0
 20
200.0
 30
0.0
 11
-135.0
 21
207.0
 31
0.0
  0
CIRCLE
  8
FIX
  6
CONTINUOUS
 62
    11
 10
-152.0
 20
207.0
 30
0.0
 40
7.5
  0
LINE
  8
NOTE
  6
CONTINUOUS
 62
     4
 10
-132.0
 20
207.0
 30
0.0
 11
-172.0
 21
207.0
 31
0.0
  0
LINE
  8
NOTE
  6
CONTINUOUS
 62
     4
 10
-152.0
 20
188.0
 30
0.0
 11
-152.0
 21
228.0
 31
0.0
  0
LINE
  8
DETAIL
  6
CONTINUOUS
 62
     5
 10
-167.25
 20
203.5
 30
0.0
 11
-140.25
 21
203.5
 31
0.0
  0
LINE
  8
DETAIL
  6
CONTINUOUS
 62
     5
 10
-167.25
 20
207.0
 30
0.0
 11
-135.0
 21
207.0
 31
0.0
  0
LINE
  8
DETAIL
  6
CONTINUOUS
 62
     5
 10
-167.25
 20
207.0
 30
0.0
 11
-167.25
 21
203.5
 31
0.0
  0
LINE
  8
BASIS
  6
DASHDOT
 62
     6
 10
-21.0
 20
173.87266099999991
 30
0.0
 11
-21.0
 21
265.8884149999999
 31
0.0
  0
LINE
  8
DETAIL
  6
CONTINUOUS
 62
     5
 10
-81.0
 20
208.0
 30
0.0
 11
-87.394960000000083
 21
200.0
 31
0.0
  0
LINE
  8
DETAIL
  6
CONTINUOUS
 62
     5
 10
-62.0
 20
208.0
 30
0.0
 11
-62.0
 21
235.9224603895785
 31
0.0
  0
LINE
  8
NOTE
  6
CONTINUOUS
 62
     4
 10
-111.0
 20
180.0
 30
0.0
 11
-111.0
 21
220.0
 31
0.0
  0
TEXT
  8
SIZE
  6
CONTINUOUS
 62
    30
 10
-99.978230514597072
 20
402.13017017587413
 30
0.0
 40
64.0
  1
φ82
 41
0.9
 72
     1
 11
-23.178230514597089
 21
402.13017017587413
 31
0.0
  0
LINE
  8
SIZE
  6
CONTINUOUS
 62
    30
 10
-62.0
 20
360.86639225646149
 30
0.0
 11
-50.0
 21
360.86639225646149
 31
0.0
  0
CIRCLE
  8
SIZE
  6
CONTINUOUS
 62
    30
 10
-62.0
 20
360.86639225646149
 30
0.0
 40
6.0
  0
LINE
  8
SIZE
  6
CONTINUOUS
 62
    30
 10
-152.0
 20
498.10463888495451
 30
0.0
 11
-140.0
 21
498.10463888495451
 31
0.0
  0
CIRCLE
  8
SIZE
  6
CONTINUOUS
 62
    30
 10
-152.0
 20
498.10463888495451
 30
0.0
 40
6.0
  0
LINE
  8
OUTLINE
  6
CONTINUOUS
 62
     3
 10
135.0
 20
0.0
 30
0.0
 11
135.0
 21
200.0
 31
0.0
  0
LINE
  8
DETAIL
  6
CONTINUOUS
 62
     5
 10
135.0
 20
0.0
 30
0.0
 11
135.0
 21
207.0
 31
0.0
  0
LINE
  8
SIZE
  6
CONTINUOUS
 62
    30
 10
570.22018900000012
 20
0.0
 30
0.0
 11
570.22018900000012
 21
12.0
 31
0.0
  0
CIRCLE
  8
SIZE
  6
CONTINUOUS
 62
    30
 10
570.22018900000012
 20
0.0
 30
0.0
 40
6.0
  0
LINE
  8
SIZE
  6
CONTINUOUS
 62
    30
 10
570.22018900000012
 20
0.0
 30
0.0
 11
570.22018900000012
 21
12.0
 31
0.0
  0
CIRCLE
  8
SIZE
  6
CONTINUOUS
 62
    30
 10
570.22018900000012
 20
0.0
 30
0.0
 40
6.0
  0
LINE
  8
NOTE
  6
CONTINUOUS
 62
     4
 10
115.0
 20
-20.0
 30
0.0
 11
115.0
 21
20.0
 31
0.0
  0
LINE
  8
NOTE
  6
CONTINUOUS
 62
     4
 10
146.0
 20
-20.0
 30
0.0
 11
146.0
 21
20.0
 31
0.0
  0
CIRCLE
  8
FIX
  6
CONTINUOUS
 62
    11
 10
146.0
 20
0.0
 30
0.0
 40
2.5
  0
CIRCLE
  8
FIX
  6
CONTINUOUS
 62
    11
 10
115.0
 20
0.0
 30
0.0
 40
2.5
  0
LINE
  8
SIZE
  6
CONTINUOUS
 62
    30
 10
165.0
 20
-20.0
 30
0.0
 11
165.0
 21
-776.56390359515535
 31
0.0
  0
CIRCLE
  8
SIZE
  6
CONTINUOUS
 62
    30
 10
165.0
 20
-756.56390359515535
 30
0.0
 40
6.0
  0
LINE
  8
SIZE
  6
CONTINUOUS
 62
    30
 10
165.0
 20
-756.56390359515535
 30
0.0
 11
153.0
 21
-756.56390359515535
 31
0.0
  0
LINE
  8
SIZE
  6
CONTINUOUS
 62
    30
 10
185.0
 20
0.0
 30
0.0
 11
461.9328800000003
 21
0.0
 31
0.0
  0
LINE
  8
SIZE
  6
CONTINUOUS
 62
    30
 10
169.065302
 20
-46.0
 30
0.0
 11
590.22018900000012
 21
-46.0
 31
0.0
  0
LINE
  8
SIZE
  6
CONTINUOUS
 62
    30
 10
185.02739700000009
 20
0.0
 30
0.0
 11
590.22018900000012
 21
0.0
 31
0.0
  0
LINE
  8
SIZE
  6
CONTINUOUS
 62
    30
 10
185.02739700000009
 20
0.0
 30
0.0
 11
590.22018900000012
 21
0.0
 31
0.0
  0
LINE
  8
SIZE
  6
CONTINUOUS
 62
    30
 10
146.0
 20
-40.0
 30
0.0
 11
146.0
 21
-636.59694400000001
 31
0.0
  0
LINE
  8
SIZE
  6
CONTINUOUS
 62
    30
 10
135.0
 20
-20.0
 30
0.0
 11
135.0
 21
-383.34943600000003
 31
0.0
  0
CIRCLE
  8
SIZE
  6
CONTINUOUS
 62
    30
 10
146.0
 20
-616.59694400000001
 30
0.0
 40
6.0
  0
LINE
  8
SIZE
  6
CONTINUOUS
 62
    30
 10
146.0
 20
-616.59694400000001
 30
0.0
 11
134.0
 21
-616.59694400000001
 31
0.0
  0
LINE
  8
SIZE
  6
CONTINUOUS
 62
    30
 10
135.0
 20
-363.34943600000003
 30
0.0
 11
123.0
 21
-363.34943600000003
 31
0.0
  0
CIRCLE
  8
SIZE
  6
CONTINUOUS
 62
    30
 10
135.0
 20
-363.34943600000003
 30
0.0
 40
6.0
  0
LINE
  8
SIZE
  6
CONTINUOUS
 62
    30
 10
135.0
 20
-20.0
 30
0.0
 11
135.0
 21
-198.32262800000001
 31
0.0
  0
LINE
  8
SIZE
  6
CONTINUOUS
 62
    30
 10
115.0
 20
-40.0
 30
0.0
 11
115.0
 21
-251.092186
 31
0.0
  0
CIRCLE
  8
SIZE
  6
CONTINUOUS
 62
    30
 10
115.0
 20
-231.092186
 30
0.0
 40
6.0
  0
LINE
  8
SIZE
  6
CONTINUOUS
 62
    30
 10
115.0
 20
-231.092186
 30
0.0
 11
103.0
 21
-231.092186
 31
0.0
  0
LINE
  8
NOTE
  6
CONTINUOUS
 62
     4
 10
135.0
 20
0.0
 30
0.0
 11
95.0
 21
0.0
 31
0.0
  0
LINE
  8
NOTE
  6
CONTINUOUS
 62
     4
 10
166.0
 20
0.0
 30
0.0
 11
126.0
 21
0.0
 31
0.0
  0
LINE
  8
SIZE
  6
CONTINUOUS
 62
    30
 10
570.22018900000012
 20
-20.0
 30
0.0
 11
570.22018900000012
 21
-171.37444300000001
 31
0.0
  0
TEXT
  8
SIZE
  6
CONTINUOUS
 62
    30
 10
544.70661500000006
 20
-161.13090485714289
 30
0.0
 40
64.0
  1
46
 50
90.0
 41
0.9
 72
     1
 11
544.70661500000006
 21
-115.8737620000001
 31
0.0
  0
LINE
  8
SIZE
  6
CONTINUOUS
 62
    30
 10
570.22018900000012
 20
-46.0
 30
0.0
 11
570.22018900000012
 21
-58.0
 31
0.0
  0
CIRCLE
  8
SIZE
  6
CONTINUOUS
 62
    30
 10
570.22018900000012
 20
-46.0
 30
0.0
 40
6.0
  0
LINE
  8
SIZE
  6
CONTINUOUS
 62
    30
 10
570.22018900000012
 20
0.0
 30
0.0
 11
570.22018900000012
 21
-46.0
 31
0.0
  0
LINE
  8
SIZE
  6
CONTINUOUS
 62
    30
 10
570.22018900000012
 20
0.0
 30
0.0
 11
570.22018900000012
 21
-46.0
 31
0.0
  0
LINE
  8
SIZE
  6
CONTINUOUS
 62
    30
 10
570.22018900000012
 20
-58.0
 30
0.0
 11
570.22018900000012
 21
-70.0
 31
0.0
  0
TEXT
  8
NOTE
  6
CONTINUOUS
 62
     4
 10
294.09669300000002
 20
379.36312700000008
 30
0.0
 40
64.0
  1
AH 4
 41
0.9
  0
LINE
  8
NOTE
  6
CONTINUOUS
 62
     4
 10
509.83740324137489
 20
344.17126100000002
 30
0.0
 11
255.98722499999991
 21
344.17126100000002
 31
0.0
  0
LINE
  8
SIZE
  6
CONTINUOUS
 62
    30
 10
152.0
 20
248.0
 30
0.0
 11
152.0
 21
518.10463888495451
 31
0.0
  0
LINE
  8
SIZE
  6
CONTINUOUS
 62
    30
 10
20.000001999999991
 20
253.33999999999989
 30
0.0
 11
20.000001999999991
 21
380.86639225646149
 31
0.0
  0
LINE
  8
NOTE
  6
CONTINUOUS
 62
     4
 10
152.02246599999989
 20
207.00204600000009
 30
0.0
 11
255.98722499999991
 21
344.17126100000002
 31
0.0
  0
LINE
  8
DETAIL
  6
CONTINUOUS
 62
     5
 10
140.25
 20
203.5
 30
0.0
 11
140.25
 21
7.0
 31
0.0
  0
LINE
  8
DETAIL
  6
CONTINUOUS
 62
     5
 10
136.75
 20
207.0
 30
0.0
 11
136.75
 21
7.0
 31
0.0
  0
LINE
  8
DETAIL
  6
CONTINUOUS
 62
     5
 10
161.0
 20
79.599348999999961
 30
0.0
 11
161.0
 21
203.5
 31
0.0
  0
LINE
  8
DETAIL
  6
CONTINUOUS
 62
     5
 10
140.25
 20
7.0
 30
0.0
 11
135.0
 21
7.0
 31
0.0
  0
LINE
  8
DETAIL
  6
CONTINUOUS
 62
     5
 10
161.0
 20
71.997334000000023
 30
0.0
 11
161.0
 21
79.599348999999961
 31
0.0
  0
LINE
  8
DETAIL
  6
CONTINUOUS
 62
     5
 10
141.00000399999999
 20
49.997334000000023
 30
0.0
 11
140.25
 21
49.997334000000023
 31
0.0
  0
ARC
  8
DETAIL
  6
CONTINUOUS
 62
     5
 10
139.20935299999999
 20
71.716103999999973
 30
0.0
 40
21.792462
 50
274.71320499999518
 51
0.7394170000013578
  0
LINE
  8
DETAIL
  6
CONTINUOUS
 62
     5
 10
20.0
 20
229.0
 30
0.0
 11
141.00000399999999
 21
229.0
 31
0.0
  0
LINE
  8
DETAIL
  6
CONTINUOUS
 62
     5
 10
39.0
 20
208.0
 30
0.0
 11
45.394960000000083
 21
200.0
 31
0.0
  0
LINE
  8
NOTE
  6
CONTINUOUS
 62
     4
 10
184.08742200000009
 20
231.9151939999999
 30
0.0
 11
152.02246599999989
 21
207.00204600000009
 31
0.0
  0
LINE
  8
DETAIL
  6
CONTINUOUS
 62
     5
 10
135.0
 20
200.0
 30
0.0
 11
135.0
 21
207.0
 31
0.0
  0
LINE
  8
DETAIL
  6
CONTINUOUS
 62
     5
 10
167.25
 20
203.5
 30
0.0
 11
140.25
 21
203.5
 31
0.0
  0
LINE
  8
DETAIL
  6
CONTINUOUS
 62
     5
 10
167.25
 20
207.0
 30
0.0
 11
135.0
 21
207.0
 31
0.0
  0
LINE
  8
DETAIL
  6
CONTINUOUS
 62
     5
 10
167.25
 20
207.0
 30
0.0
 11
167.25
 21
203.5
 31
0.0
  0
ARC
  8
DETAIL
  6
CONTINUOUS
 62
     5
 10
139.20935299999999
 20
207.28123000000011
 30
0.0
 40
21.792462
 50
359.26058199999858
 51
85.286795000004759
  0
CIRCLE
  8
FIX
  6
CONTINUOUS
 62
    11
 10
152.0
 20
207.0
 30
0.0
 40
7.5
  0
LINE
  8
NOTE
  6
CONTINUOUS
 62
     4
 10
132.0
 20
207.0
 30
0.0
 11
172.0
 21
207.0
 31
0.0
  0
LINE
  8
NOTE
  6
CONTINUOUS
 62
     4
 10
152.0
 20
188.0
 30
0.0
 11
152.0
 21
228.0
 31
0.0
  0
LINE
  8
NOTE
  6
CONTINUOUS
 62
     4
 10
152.02246599999989
 20
207.00204600000009
 30
0.0
 11
167.83495799999989
 21
244.74391700000001
 31
0.0
  0
LINE
  8
SIZE
  6
CONTINUOUS
 62
    30
 10
20.000001999999991
 20
360.86639225646149
 30
0.0
 11
8.000001999999995
 21
360.86639225646149
 31
0.0
  0
CIRCLE
  8
SIZE
  6
CONTINUOUS
 62
    30
 10
20.000001999999991
 20
360.86639225646149
 30
0.0
 40
6.0
  0
TEXT
  8
SIZE
  6
CONTINUOUS
 62
    30
 10
547.87245100000018
 20
49.73991214285715
 30
0.0
 40
64.0
  1
243
 50
90.0
 41
0.9
 72
     1
 11
547.87245100000018
 21
123.797055
 31
0.0
  0
LINE
  8
SIZE
  6
CONTINUOUS
 62
    30
 10
570.22018900000012
 20
12.0
 30
0.0
 11
570.22018900000012
 21
231.0
 31
0.0
  0
LINE
  8
SIZE
  6
CONTINUOUS
 62
    30
 10
570.22018900000012
 20
12.0
 30
0.0
 11
570.22018900000012
 21
24.0
 31
0.0
  0
CIRCLE
  8
SIZE
  6
CONTINUOUS
 62
    30
 10
570.22018900000012
 20
243.0
 30
0.0
 40
6.0
  0
LINE
  8
SIZE
  6
CONTINUOUS
 62
    30
 10
570.22018900000012
 20
243.0
 30
0.0
 11
570.22018900000012
 21
231.0
 31
0.0
  0
LINE
  8
SIZE
  6
CONTINUOUS
 62
    30
 10
152.0
 20
498.10463888495451
 30
0.0
 11
140.0
 21
498.10463888495451
 31
0.0
  0
CIRCLE
  8
SIZE
  6
CONTINUOUS
 62
    30
 10
152.0
 20
498.10463888495451
 30
0.0
 40
6.0
  0
POINT
  8
DEFPOINTS
  6
CONTINUOUS
 62
    30
 10
0.0
 20
291.47948300000007
 30
0.0
  0
POINT
  8
DEFPOINTS
  6
CONTINUOUS
 62
    30
 10
-111.0
 20
220.0
 30
0.0
  0
LINE
  8
SIZE
  6
CONTINUOUS
 62
    30
 10
160.62500199999999
 20
49.997334000000023
 30
0.0
 11
374.47180200000003
 21
49.997334000000023
 31
0.0
  0
LINE
  8
SIZE
  6
CONTINUOUS
 62
    30
 10
184.34307699999999
 20
0.0
 30
0.0
 11
374.47180200000003
 21
0.0
 31
0.0
  0
LINE
  8
SIZE
  6
CONTINUOUS
 62
    30
 10
354.47180200000003
 20
-12.0
 30
0.0
 11
354.47180200000003
 21
-24.0
 31
0.0
  0
LINE
  8
SIZE
  6
CONTINUOUS
 62
    30
 10
354.47180200000003
 20
61.997334000000023
 30
0.0
 11
354.47180200000003
 21
217.25447700000001
 31
0.0
  0
LINE
  8
SIZE
  6
CONTINUOUS
 62
    30
 10
354.47180200000003
 20
0.0
 30
0.0
 11
354.47180200000003
 21
49.997334000000023
 31
0.0
  0
CIRCLE
  8
SIZE
  6
CONTINUOUS
 62
    30
 10
354.47180200000003
 20
0.0
 30
0.0
 40
6.0
  0
LINE
  8
SIZE
  6
CONTINUOUS
 62
    30
 10
354.47180200000003
 20
0.0
 30
0.0
 11
354.47180200000003
 21
-12.0
 31
0.0
  0
CIRCLE
  8
SIZE
  6
CONTINUOUS
 62
    30
 10
354.47180200000003
 20
49.997334000000023
 30
0.0
 40
6.0
  0
LINE
  8
SIZE
  6
CONTINUOUS
 62
    30
 10
354.47180200000003
 20
49.997334000000023
 30
0.0
 11
354.47180200000003
 21
61.997334000000023
 31
0.0
  0
TEXT
  8
SIZE
  6
CONTINUOUS
 62
    30
 10
329.47180200000003
 20
98.997333571428456
 30
0.0
 40
64.0
  1
50
 50
90.0
 41
0.9
 72
     1
 11
329.47180200000003
 21
145.6259049999999
 31
0.0
  0
POINT
  8
DEFPOINTS
  6
CONTINUOUS
 62
    30
 10
140.62500199999999
 20
49.997334000000023
 30
0.0
  0
POINT
  8
DEFPOINTS
  6
CONTINUOUS
 62
    30
 10
164.34307699999999
 20
0.0
 30
0.0
  0
POINT
  8
DEFPOINTS
  6
CONTINUOUS
 62
    30
 10
354.47180200000003
 20
0.0
 30
0.0
  0
LINE
  8
SIZE
  6
CONTINUOUS
 62
    30
 10
135.0
 20
-20.0
 30
0.0
 11
135.0
 21
-383.34943600000003
 31
0.0
  0
LINE
  8
SIZE
  6
CONTINUOUS
 62
    30
 10
161.00181500000011
 20
51.716103999999973
 30
0.0
 11
161.00181500000011
 21
-383.34943600000003
 31
0.0
  0
LINE
  8
SIZE
  6
CONTINUOUS
 62
    30
 10
123.0
 20
-363.34943600000003
 30
0.0
 11
111.0
 21
-363.34943600000003
 31
0.0
  0
LINE
  8
SIZE
  6
CONTINUOUS
 62
    30
 10
173.00181500000011
 20
-363.34943600000003
 30
0.0
 11
325.51610100000028
 21
-363.34943600000003
 31
0.0
  0
LINE
  8
SIZE
  6
CONTINUOUS
 62
    30
 10
135.0
 20
-363.34943600000003
 30
0.0
 11
161.00181500000011
 21
-363.34943600000003
 31
0.0
  0
CIRCLE
  8
SIZE
  6
CONTINUOUS
 62
    30
 10
135.0
 20
-363.34943600000003
 30
0.0
 40
6.0
  0
LINE
  8
SIZE
  6
CONTINUOUS
 62
    30
 10
135.0
 20
-363.34943600000003
 30
0.0
 11
123.0
 21
-363.34943600000003
 31
0.0
  0
CIRCLE
  8
SIZE
  6
CONTINUOUS
 62
    30
 10
161.00181500000011
 20
-363.34943600000003
 30
0.0
 40
6.0
  0
LINE
  8
SIZE
  6
CONTINUOUS
 62
    30
 10
161.00181500000011
 20
-363.34943600000003
 30
0.0
 11
173.00181500000011
 21
-363.34943600000003
 31
0.0
  0
TEXT
  8
SIZE
  6
CONTINUOUS
 62
    30
 10
210.001815142857
 20
-338.34943600000008
 30
0.0
 40
64.0
  1
26
 41
0.9
 72
     1
 11
255.25895799999989
 21
-338.34943600000008
 31
0.0
  0
POINT
  8
DEFPOINTS
  6
CONTINUOUS
 62
    30
 10
135.0
 20
0.0
 30
0.0
  0
POINT
  8
DEFPOINTS
  6
CONTINUOUS
 62
    30
 10
161.00181500000011
 20
71.716103999999973
 30
0.0
  0
POINT
  8
DEFPOINTS
  6
CONTINUOUS
 62
    30
 10
161.00181500000011
 20
-363.34943600000003
 30
0.0
  0
LINE
  8
SIZE
  6
CONTINUOUS
 62
    30
 10
-185.0
 20
0.0
 30
0.0
 11
-254.26456899999991
 21
0.0
 31
0.0
  0
LINE
  8
SIZE
  6
CONTINUOUS
 62
    30
 10
-187.25
 20
207.0
 30
0.0
 11
-254.26456899999991
 21
207.0
 31
0.0
  0
LINE
  8
SIZE
  6
CONTINUOUS
 62
    30
 10
-234.26456899999991
 20
12.0
 30
0.0
 11
-234.26456899999991
 21
195.0
 31
0.0
  0
CIRCLE
  8
SIZE
  6
CONTINUOUS
 62
    30
 10
-234.26456899999991
 20
0.0
 30
0.0
 40
6.0
  0
LINE
  8
SIZE
  6
CONTINUOUS
 62
    30
 10
-234.26456899999991
 20
0.0
 30
0.0
 11
-234.26456899999991
 21
12.0
 31
0.0
  0
CIRCLE
  8
SIZE
  6
CONTINUOUS
 62
    30
 10
-234.26456899999991
 20
207.0
 30
0.0
 40
6.0
  0
LINE
  8
SIZE
  6
CONTINUOUS
 62
    30
 10
-234.26456899999991
 20
207.0
 30
0.0
 11
-234.26456899999991
 21
195.0
 31
0.0
  0
TEXT
  8
SIZE
  6
CONTINUOUS
 62
    30
 10
-259.26456899999988
 20
29.44285714285715
 30
0.0
 40
64.0
  1
207
 50
90.0
 41
0.9
 72
     1
 11
-259.26456899999988
 21
103.5
 31
0.0
  0
POINT
  8
DEFPOINTS
  6
CONTINUOUS
 62
    30
 10
-165.0
 20
0.0
 30
0.0
  0
POINT
  8
DEFPOINTS
  6
CONTINUOUS
 62
    30
 10
-167.25
 20
207.0
 30
0.0
  0
POINT
  8
DEFPOINTS
  6
CONTINUOUS
 62
    30
 10
-234.26456899999991
 20
207.0
 30
0.0
  0
LINE
  8
DETAIL
  6
CONTINUOUS
 62
     5
 10
-135.0
 20
8.0
 30
0.0
 11
-138.0
 21
8.0
 31
0.0
  0
LINE
  8
DETAIL
  6
CONTINUOUS
 62
     5
 10
-135.0
 20
20.0
 30
0.0
 11
-138.0
 21
20.0
 31
0.0
  0
LINE
  8
DETAIL
  6
CONTINUOUS
 62
     5
 10
-138.0
 20
8.0
 30
0.0
 11
-138.0
 21
20.0
 31
0.0
  0
LINE
  8
DETAIL
  6
CONTINUOUS
 62
     5
 10
135.0
 20
8.0
 30
0.0
 11
138.0
 21
8.0
 31
0.0
  0
LINE
  8
DETAIL
  6
CONTINUOUS
 62
     5
 10
135.0
 20
20.0
 30
0.0
 11
138.0
 21
20.0
 31
0.0
  0
LINE
  8
DETAIL
  6
CONTINUOUS
 62
     5
 10
138.0
 20
8.0
 30
0.0
 11
138.0
 21
20.0
 31
0.0
  0
LINE
  8
SIZE
  6
CONTINUOUS
 62
    30
 10
-138.0
 20
-12.0
 30
0.0
 11
-138.0
 21
-499.26742400000001
 31
0.0
  0
LINE
  8
SIZE
  6
CONTINUOUS
 62
    30
 10
138.0
 20
-12.0
 30
0.0
 11
138.0
 21
-499.26742400000001
 31
0.0
  0
LINE
  8
SIZE
  6
CONTINUOUS
 62
    30
 10
-126.0
 20
-479.26742400000001
 30
0.0
 11
126.0
 21
-479.26742400000001
 31
0.0
  0
CIRCLE
  8
SIZE
  6
CONTINUOUS
 62
    30
 10
-138.0
 20
-479.26742400000001
 30
0.0
 40
6.0
  0
LINE
  8
SIZE
  6
CONTINUOUS
 62
    30
 10
-138.0
 20
-479.26742400000001
 30
0.0
 11
-126.0
 21
-479.26742400000001
 31
0.0
  0
CIRCLE
  8
SIZE
  6
CONTINUOUS
 62
    30
 10
138.0
 20
-479.26742400000001
 30
0.0
 40
6.0
  0
LINE
  8
SIZE
  6
CONTINUOUS
 62
    30
 10
138.0
 20
-479.26742400000001
 30
0.0
 11
126.0
 21
-479.26742400000001
 31
0.0
  0
TEXT
  8
SIZE
  6
CONTINUOUS
 62
    30
 10
-72.685714285714283
 20
-454.26742400000001
 30
0.0
 40
64.0
  1
276
 41
0.9
 72
     1
 11
0.0
 21
-454.26742400000001
 31
0.0
  0
POINT
  8
DEFPOINTS
  6
CONTINUOUS
 62
    30
 10
-138.0
 20
8.0
 30
0.0
  0
POINT
  8
DEFPOINTS
  6
CONTINUOUS
 62
    30
 10
138.0
 20
8.0
 30
0.0
  0
POINT
  8
DEFPOINTS
  6
CONTINUOUS
 62
    30
 10
138.0
 20
-479.26742400000001
 30
0.0
  0
LINE
  8
DETAIL
  6
CONTINUOUS
 62
     5
 10
-17.03491458367489
 20
243.0
 30
0.0
 11
-39.11491458367459
 21
243.0
 31
0.0
  0
LINE
  8
DETAIL
  6
CONTINUOUS
 62
     5
 10
-39.11491458367459
 20
240.9760839999999
 30
0.0
 11
-17.03491458367489
 21
240.9760839999999
 31
0.0
  0
LINE
  8
DETAIL
  6
CONTINUOUS
 62
     5
 10
-56.94000200000005
 20
240.9760839999999
 30
0.0
 11
-21.000001999999991
 21
240.9760839999999
 31
0.0
  0
LINE
  8
DETAIL
  6
CONTINUOUS
 62
     5
 10
-21.000001999999991
 20
243.0
 30
0.0
 11
-50.468955000000051
 21
243.0
 31
0.0
  0
LINE
  8
DETAIL
  6
CONTINUOUS
 62
     5
 10
-62.000001999999988
 20
229.0
 30
0.0
 11
-62.000002000000222
 21
235.920312
 31
0.0
  0
ARC
  8
DETAIL
  6
CONTINUOUS
 62
     5
 10
-56.94000200000005
 20
235.91609799999989
 30
0.0
 40
5.060001999999999
 50
90.0
 51
179.99999899999861
  0
LINE
  8
DETAIL
  6
CONTINUOUS
 62
     5
 10
-51.637471999999889
 20
240.9760839999999
 30
0.0
 11
-50.468964000000142
 21
242.99998599999981
 31
0.0
  0
ARC
  8
DETAIL
  6
CONTINUOUS
 62
     5
 10
14.93999799999983
 20
235.91609799999989
 30
0.0
 40
5.060001999999999
 50
0.0000010000014034
 51
90.0
  0
LINE
  8
DETAIL
  6
CONTINUOUS
 62
     5
 10
9.6374679999998989
 20
240.9760839999999
 30
0.0
 11
8.4689599999999245
 21
242.99998599999981
 31
0.0
  0
LINE
  8
DETAIL
  6
CONTINUOUS
 62
     5
 10
14.93999799999983
 20
240.9760839999999
 30
0.0
 11
-21.000001999999991
 21
240.9760839999999
 31
0.0
  0
LINE
  8
DETAIL
  6
CONTINUOUS
 62
     5
 10
19.999998000000009
 20
208.0
 30
0.0
 11
19.999998000000009
 21
235.91609799999989
 31
0.0
  0
TEXT
  8
ETC
  6
CONTINUOUS
 62
    61
 10
623.40786297875388
 20
499.48970391107918
 30
0.0
 40
64.0
  1
VD-18ZX13-FP_3
 41
0.9
  0
TEXT
  8
ETC
  6
CONTINUOUS
 62
    61
 10
621.04068497875369
 20
394.70843843540661
 30
0.0
 40
64.0
  1
換気扇
 41
0.9
  0
TEXT
  8
ETC
  6
CONTINUOUS
 62
    61
 10
705.40162632223473
 20
311.64098418667032
 30
0.0
 40
40.0
  1
VD-18ZX13-FP
 41
0.9
  0
TEXT
  8
ETC
  6
CONTINUOUS
 62
    61
 10
705.40162632223473
 20
246.64098418667029
 30
0.0
 40
40.0
  1
VD-18ZE13-FP
 41
0.9
  0
TEXT
  8
ETC
  6
CONTINUOUS
 62
    61
 10
705.40162632223473
 20
181.64098418667029
 30
0.0
 40
40.0
  1
VD-18ZLE13-FPS
 41
0.9
  0
TEXT
  8
ETC
  6
CONTINUOUS
 62
    61
 10
705.40162632223473
 20
116.64098418667029
 30
0.0
 40
40.0
  1
VD-18ZVE6-FP
 41
0.9
  0
ENDSEC
  0
EOF
