  0
SECTION
  2
HEADER
  9
$ACADVER
  1
AC1009
  9
$DWGCODEPAGE
  3
dos932
  9
$INSBASE
 10
0.0
 20
0.0
 30
0.0
  9
$EXTMIN
 10
-936.73551847079762
 20
-782.50120939046792
 30
-0.0015258207003583
  9
$EXTMAX
 10
1447.9293943824341
 20
850.11292336288898
 30
0.0000000349246037
  9
$LIMMIN
 10
-2970.0
 20
-2100.0
  9
$LIMMAX
 10
2970.0
 20
2100.0
  9
$ORTHOMODE
 70
     1
  9
$REGENMODE
 70
     1
  9
$FILLMODE
 70
     1
  9
$QTEXTMODE
 70
     0
  9
$MIRRTEXT
 70
     0
  9
$LTSCALE
 40
20.0
  9
$ATTMODE
 70
     1
  9
$TEXTSIZE
 40
64.0
  9
$TRACEWID
 40
0.05
  9
$TEXTSTYLE
  7
STANDARD
  9
$CLAYER
  8
SIZE
  9
$CELTYPE
  6
CONTINUOUS
  9
$CECOLOR
 62
     7
  9
$DIMSCALE
 40
1.0
  9
$DIMASZ
 40
12.0
  9
$DIMEXO
 40
20.0
  9
$DIMDLI
 40
200.0
  9
$DIMRND
 40
0.0
  9
$DIMDLE
 40
0.0
  9
$DIMEXE
 40
20.0
  9
$DIMTP
 40
0.0
  9
$DIMTM
 40
0.0
  9
$DIMTXT
 40
64.0
  9
$DIMCEN
 40
0.09
  9
$DIMTSZ
 40
0.0
  9
$DIMTOL
 70
     0
  9
$DIMLIM
 70
     0
  9
$DIMTIH
 70
     0
  9
$DIMTOH
 70
     0
  9
$DIMSE1
 70
     0
  9
$DIMSE2
 70
     0
  9
$DIMTAD
 70
     1
  9
$DIMZIN
 70
     8
  9
$DIMBLK
  1

  9
$DIMASO
 70
     1
  9
$DIMSHO
 70
     0
  9
$DIMPOST
  1

  9
$DIMAPOST
  1

  9
$DIMALT
 70
     0
  9
$DIMALTD
 70
     2
  9
$DIMALTF
 40
25.399999999999999
  9
$DIMLFAC
 40
1.0
  9
$DIMTOFL
 70
     1
  9
$DIMTVP
 40
0.0
  9
$DIMTIX
 70
     1
  9
$DIMSOXD
 70
     0
  9
$DIMSAH
 70
     0
  9
$DIMBLK1
  1

  9
$DIMBLK2
  1

  9
$DIMSTYLE
  2
STANDARD
  9
$DIMCLRD
 70
     7
  9
$DIMCLRE
 70
     7
  9
$DIMCLRT
 70
     7
  9
$DIMTFAC
 40
1.0
  9
$DIMGAP
 40
25.0
  9
$LUNITS
 70
     2
  9
$LUPREC
 70
     4
  9
$SKETCHINC
 40
0.1
  9
$FILLETRAD
 40
3.0
  9
$AUNITS
 70
     1
  9
$AUPREC
 70
     3
  9
$MENU
  1
ACAD
  9
$ELEVATION
 40
0.0
  9
$PELEVATION
 40
0.0
  9
$THICKNESS
 40
0.0
  9
$LIMCHECK
 70
     0
  9
$CHAMFERA
 40
0.0
  9
$CHAMFERB
 40
0.0
  9
$SKPOLY
 70
     0
  9
$TDCREATE
 40
2453019.62301037
  9
$TDUPDATE
 40
2459025.512795127
  9
$TDINDWG
 40
1.7132220023
  9
$TDUSRTIMER
 40
1.7132220023
  9
$USRTIMER
 70
     1
  9
$ANGBASE
 50
0.0
  9
$ANGDIR
 70
     0
  9
$PDMODE
 70
     3
  9
$PDSIZE
 40
-2.0
  9
$PLINEWID
 40
0.0
  9
$SPLFRAME
 70
     0
  9
$SPLINETYPE
 70
     6
  9
$SPLINESEGS
 70
     8
  9
$SURFTAB1
 70
     6
  9
$SURFTAB2
 70
     6
  9
$SURFTYPE
 70
     6
  9
$SURFU
 70
     6
  9
$SURFV
 70
     6
  9
$UCSNAME
  2

  9
$UCSORG
 10
0.0
 20
0.0
 30
0.0
  9
$UCSXDIR
 10
1.0
 20
0.0
 30
0.0
  9
$UCSYDIR
 10
0.0
 20
1.0
 30
0.0
  9
$PUCSNAME
  2

  9
$PUCSORG
 10
0.0
 20
0.0
 30
0.0
  9
$PUCSXDIR
 10
1.0
 20
0.0
 30
0.0
  9
$PUCSYDIR
 10
0.0
 20
1.0
 30
0.0
  9
$USERI1
 70
     0
  9
$USERI2
 70
     0
  9
$USERI3
 70
     0
  9
$USERI4
 70
     0
  9
$USERI5
 70
     0
  9
$USERR1
 40
20.0
  9
$USERR2
 40
0.0
  9
$USERR3
 40
0.0
  9
$USERR4
 40
0.0
  9
$USERR5
 40
0.0
  9
$WORLDVIEW
 70
     1
  9
$SHADEDGE
 70
     3
  9
$SHADEDIF
 70
    70
  9
$TILEMODE
 70
     1
  9
$MAXACTVP
 70
    48
  9
$PINSBASE
 10
0.0
 20
0.0
 30
0.0
  9
$PLIMCHECK
 70
     0
  9
$PEXTMIN
 10
-100000000000000000000.0
 20
-100000000000000000000.0
 30
-100000000000000000000.0
  9
$PEXTMAX
 10
100000000000000000000.0
 20
100000000000000000000.0
 30
100000000000000000000.0
  9
$PLIMMIN
 10
0.0
 20
0.0
  9
$PLIMMAX
 10
12.0
 20
9.0
  9
$UNITMODE
 70
     0
  9
$VISRETAIN
 70
     0
  9
$PLINEGEN
 70
     0
  9
$PSLTSCALE
 70
     0
  9
$TREEDEPTH
 70
  3020
  9
$ATTDIA
 70
     0
  9
$ATTREQ
 70
     1
  9
$BLIPMODE
 70
     1
  9
$COORDS
 70
     1
  9
$DRAGMODE
 70
     2
  9
$OSMODE
 70
     0
  9
$HANDLING
 70
     0
  9
$HANDSEED
  5
EE54
  0
ENDSEC
  0
SECTION
  2
TABLES
  0
TABLE
  2
LTYPE
 70
     3
  0
LTYPE
  2
CONTINUOUS
 70
     0
  3
実線
 72
    65
 73
     0
 40
0.0
  0
LTYPE
  2
DASHDOT
 70
     0
  3
____ _ ____ _ ____ _ ____ _ ____ _ ____ _ ____
 72
    65
 73
     4
 40
5.5
 49
4.0
 49
-0.6
 49
0.3
 49
-0.6
  0
LTYPE
  2
DIVIDE
 70
     0
  3
Divide ____ . . ____ . . ____ . . ____ . . ____
 72
    65
 73
     6
 40
1.25
 49
0.5
 49
-0.25
 49
0.0
 49
-0.25
 49
0.0
 49
-0.25
  0
ENDTAB
  0
TABLE
  2
LAYER
 70
    12
  0
LAYER
  2
0
 70
     0
 62
     7
  6
CONTINUOUS
  0
LAYER
  2
BASIS
 70
     0
 62
     6
  6
DASHDOT
  0
LAYER
  2
OUTLINE
 70
     0
 62
     3
  6
CONTINUOUS
  0
LAYER
  2
DETAIL
 70
     0
 62
     5
  6
CONTINUOUS
  0
LAYER
  2
SIZE
 70
     0
 62
    30
  6
CONTINUOUS
  0
LAYER
  2
ARRANGE
 70
     0
 62
     1
  6
CONTINUOUS
  0
LAYER
  2
DEFPOINTS
 70
     0
 62
     7
  6
CONTINUOUS
  0
LAYER
  2
ETC
 70
     0
 62
    61
  6
CONTINUOUS
  0
LAYER
  2
FIX
 70
     0
 62
    11
  6
CONTINUOUS
  0
LAYER
  2
NOTE
 70
     0
 62
     4
  6
CONTINUOUS
  0
LAYER
  2
SERVICESPACE
 70
    64
 62
     2
  6
DASHDOT
  0
LAYER
  2
SYMBOLLINE
 70
    64
 62
    15
  6
CONTINUOUS
  0
ENDTAB
  0
TABLE
  2
STYLE
 70
     1
  0
STYLE
  2
STANDARD
 70
     0
 40
64.0
 41
0.9
 50
0.0
 71
     0
 42
64.0
  3
SIMPLEX.shx
  4
BIGFONT.shx
  0
ENDTAB
  0
TABLE
  2
APPID
 70
    19
  0
APPID
  2
ACAD
 70
     0
  0
APPID
  2
AUTOCAD_POSTSCRIPT_FIGURE
 70
     0
  0
APPID
  2
ACAD_EXEMPT_FROM_CAD_STANDARDS
 70
     0
  0
APPID
  2
ACAD_PSEXT
 70
     0
  0
APPID
  2
ACAUTHENVIRON
 70
     0
  0
APPID
  2
GENIUS_GENOENT_13
 70
     0
  0
APPID
  2
GENIUS_GENCFG_13
 70
     0
  0
APPID
  2
GENIUS_GENCFG0_13
 70
     0
  0
APPID
  2
GENIUS_GENCFG1_13
 70
     0
  0
APPID
  2
GENIUS_GENCFG2_13
 70
     0
  0
APPID
  2
GENIUS_GENCFG3_13
 70
     0
  0
APPID
  2
GENIUS_GENCFG4_13
 70
     0
  0
APPID
  2
GENIUS_GEVCFG0_13
 70
     0
  0
APPID
  2
CONTENTBLOCKICON
 70
     0
  0
APPID
  2
CONTENTBLOCKDESCRIPTION
 70
     0
  0
APPID
  2
ACAD_NAV_VCDISPLAY
 70
     0
  0
APPID
  2
ACAD_MLEADERVER
 70
     0
  0
APPID
  2
ACDBDYNAMICBLOCKTRUENAME
 70
     0
  0
APPID
  2
ACDBDYNAMICBLOCKGUID
 70
     0
  0
ENDTAB
  0
TABLE
  2
DIMSTYLE
 70
     1
  0
DIMSTYLE
  2
STANDARD
 70
     0
  3

  4

  5
_ORIGIN
  6

  7

 40
1.0
 41
12.0
 42
20.0
 43
200.0
 44
20.0
 45
0.0
 46
0.0
 47
0.0
 48
0.0
140
64.0
141
0.09
142
0.0
143
25.399999999999999
144
1.0
145
0.0
146
1.0
147
25.0
 71
     0
 72
     0
 73
     0
 74
     0
 75
     0
 76
     0
 77
     1
 78
     8
170
     0
171
     2
172
     1
173
     0
174
     1
175
     0
176
     7
177
     7
178
     7
  0
ENDTAB
  0
TABLE
  2
VIEW
 70
     1
  0
VIEW
  2
ALL
 70
     0
 40
4282.6198079999986
 10
0.0
 20
41.309904000000003
 41
5940.0
 11
0.0
 21
0.0
 31
1.0
 12
0.0
 22
0.0
 32
0.0
 42
50.0
 43
0.0
 44
0.0
 50
0.0
 71
     0
  0
ENDTAB
  0
TABLE
  2
UCS
 70
     0
  0
ENDTAB
  0
TABLE
  2
VPORT
 70
     1
  0
VPORT
  2
*ACTIVE
 70
     0
 10
0.0
 20
0.0
 11
1.0
 21
1.0
 12
255.59693795581811
 22
33.805856986210529
 13
0.0
 23
0.0
 14
1.0
 24
1.0
 15
0.0
 25
0.0
 16
0.0
 26
0.0
 36
1.0
 17
0.0
 27
0.0
 37
0.0
 40
1643.4380938544839
 41
1.747787610619469
 42
50.0
 43
0.0
 44
0.0
 50
0.0
 51
0.0
 71
     0
 72
  1000
 73
     1
 74
     3
 75
     0
 76
     0
 77
     0
 78
     0
  0
ENDTAB
  0
ENDSEC
  0
SECTION
  2
BLOCKS
  0
BLOCK
  8
0
  2
_ORIGIN
 70
     0
 10
0.0
 20
0.0
 30
0.0
  3
_ORIGIN
  1
_ORIGIN
  0
CIRCLE
  8
0
  6
CONTINUOUS
 62
     7
 10
0.0
 20
0.0
 30
0.0
 40
0.5
  0
LINE
  8
0
  6
CONTINUOUS
 62
     7
 10
0.0
 20
0.0
 30
0.0
 11
-1.0
 21
0.0
 31
0.0
  0
ENDBLK
  8
0
  0
ENDSEC
  0
SECTION
  2
ENTITIES
  0
LINE
  8
OUTLINE
  6
CONTINUOUS
 62
     3
 10
-5.5
 20
-190.0
 30
0.0
 11
182.0
 21
-190.0
 31
0.0
  0
LINE
  8
OUTLINE
  6
CONTINUOUS
 62
     3
 10
-182.0
 20
190.0
 30
0.0
 11
182.0
 21
190.0
 31
0.0
  0
POINT
  8
ARRANGE
  6
CONTINUOUS
 62
     1
 10
0.0
 20
0.0
 30
0.0
  0
CIRCLE
  8
ARRANGE
  6
CONTINUOUS
 62
     1
 10
0.0
 20
0.0
 30
0.0
 40
40.0
  0
LINE
  8
BASIS
  6
DASHDOT
 62
     6
 10
-205.53087599999981
 20
0.0
 30
0.0
 11
206.95267299999981
 21
0.0
 31
0.0
  0
CIRCLE
  8
DETAIL
  6
CONTINUOUS
 62
     5
 10
23.0
 20
2.0
 30
0.0
 40
41.0
  0
LINE
  8
DETAIL
  6
CONTINUOUS
 62
     5
 10
-182.0
 20
190.0
 30
0.0
 11
182.0
 21
190.0
 31
0.0
  0
LINE
  8
DETAIL
  6
CONTINUOUS
 62
     5
 10
-5.5
 20
-190.0
 30
0.0
 11
182.0
 21
-190.0
 31
0.0
  0
TEXT
  8
SIZE
  6
CONTINUOUS
 62
    30
 10
-110.5371428571429
 20
756.04051506950645
 30
0.0
 40
64.0
  1
□380
 41
0.9
 72
     1
 11
0.0
 21
756.04051506950645
 31
0.0
  0
LINE
  8
SIZE
  6
CONTINUOUS
 62
    30
 10
178.0
 20
731.04051506950691
 30
0.0
 11
-178.0
 21
731.04051506950691
 31
0.0
  0
TEXT
  8
SIZE
  6
CONTINUOUS
 62
    30
 10
-72.685714285714283
 20
636.93698006950672
 30
0.0
 40
64.0
  1
349
 41
0.9
 72
     1
 11
0.0
 21
636.93698006950672
 31
0.0
  0
LINE
  8
SIZE
  6
CONTINUOUS
 62
    30
 10
162.5
 20
611.93698006950672
 30
0.0
 11
-162.5
 21
611.93698006950672
 31
0.0
  0
TEXT
  8
SIZE
  6
CONTINUOUS
 62
    30
 10
-61.714285714285708
 20
508.73704806950627
 30
0.0
 40
64.0
  1
341
 41
0.9
 72
     1
 11
0.0
 21
508.73704806950627
 31
0.0
  0
LINE
  8
SIZE
  6
CONTINUOUS
 62
    30
 10
158.5
 20
483.73704806950627
 30
0.0
 11
-158.5
 21
483.73704806950627
 31
0.0
  0
TEXT
  8
SIZE
  6
CONTINUOUS
 62
    30
 10
-75.965665733211523
 20
395.41153699470118
 30
0.0
 40
64.0
  1
332
 41
0.9
 72
     1
 11
-1.908522876068673
 21
395.41153699470118
 31
0.0
  0
LINE
  8
SIZE
  6
CONTINUOUS
 62
    30
 10
154.0
 20
373.73861117895649
 30
0.0
 11
-154.0
 21
373.73861117895649
 31
0.0
  0
TEXT
  8
SIZE
  6
CONTINUOUS
 62
    30
 10
-75.965665733211523
 20
259.32853699470121
 30
0.0
 40
64.0
  1
200
 41
0.9
 72
     1
 11
-1.908522876068673
 21
259.32853699470121
 31
0.0
  0
LINE
  8
SIZE
  6
CONTINUOUS
 62
    30
 10
88.0
 20
237.65561117895601
 30
0.0
 11
-88.0
 21
237.65561117895601
 31
0.0
  0
LINE
  8
DETAIL
  6
CONTINUOUS
 62
     5
 10
-5.5
 20
-174.5
 30
0.0
 11
174.5
 21
-174.5
 31
0.0
  0
LINE
  8
DETAIL
  6
CONTINUOUS
 62
     5
 10
153.5
 20
153.5
 30
0.0
 11
-153.5
 21
153.5
 31
0.0
  0
LINE
  8
DETAIL
  6
CONTINUOUS
 62
     5
 10
-153.5
 20
-153.5
 30
0.0
 11
153.5
 21
-153.5
 31
0.0
  0
LINE
  8
DETAIL
  6
CONTINUOUS
 62
     5
 10
-179.0
 20
-156.4999999999998
 30
0.0
 11
6.5
 21
-156.4999999999998
 31
0.0
  0
LINE
  8
DETAIL
  6
CONTINUOUS
 62
     5
 10
-174.5
 20
174.5
 30
0.0
 11
174.5
 21
174.5
 31
0.0
  0
LINE
  8
OUTLINE
  6
CONTINUOUS
 62
     3
 10
-190.0
 20
-182.0
 30
0.0
 11
-190.0
 21
182.0
 31
0.0
  0
LINE
  8
DETAIL
  6
CONTINUOUS
 62
     5
 10
-190.0
 20
-181.9999999999998
 30
0.0
 11
-190.0
 21
182.0
 31
0.0
  0
TEXT
  8
SIZE
  6
CONTINUOUS
 62
    30
 10
-872.40365391041041
 20
-110.5371428571429
 30
0.0
 40
64.0
  1
□307
 50
90.0
 41
0.9
 72
     1
 11
-872.40365391041041
 21
0.0
 31
0.0
  0
LINE
  8
SIZE
  6
CONTINUOUS
 62
    30
 10
-847.0605049104106
 20
141.5
 30
0.0
 11
-847.0605049104106
 21
-141.5
 31
0.0
  0
LINE
  8
DETAIL
  6
CONTINUOUS
 62
     5
 10
-174.5
 20
-70.0
 30
0.0
 11
-174.5
 21
70.0
 31
0.0
  0
TEXT
  8
SIZE
  6
CONTINUOUS
 62
    30
 10
-634.39415771547192
 20
-74.05714285714285
 30
0.0
 40
64.0
  1
200
 50
90.0
 41
0.9
 72
     1
 11
-634.39415771547192
 21
0.0
 31
0.0
  0
LINE
  8
SIZE
  6
CONTINUOUS
 62
    30
 10
-599.85381391041051
 20
88.0
 30
0.0
 11
-599.85381391041051
 21
-88.0
 31
0.0
  0
LINE
  8
BASIS
  6
DASHDOT
 62
     6
 10
0.0
 20
-234.13516899999991
 30
0.0
 11
0.0
 21
199.0700709999999
 31
0.0
  0
LINE
  8
DETAIL
  6
CONTINUOUS
 62
     5
 10
-153.5
 20
153.5
 30
0.0
 11
-153.5
 21
-153.5
 31
0.0
  0
LINE
  8
OUTLINE
  6
CONTINUOUS
 62
     3
 10
-182.0
 20
-190.0
 30
0.0
 11
-166.0
 21
-190.0
 31
0.0
  0
LINE
  8
SIZE
  6
CONTINUOUS
 62
    30
 10
-166.0
 20
140.0
 30
0.0
 11
-166.0
 21
393.73861117895473
 31
0.0
  0
LINE
  8
SIZE
  6
CONTINUOUS
 62
    30
 10
-100.0
 20
206.0
 30
0.0
 11
-100.0
 21
257.65561117895692
 31
0.0
  0
LINE
  8
SIZE
  6
CONTINUOUS
 62
    30
 10
-162.0
 20
-288.5
 30
0.0
 11
-162.0
 21
-782.36764699999981
 31
0.0
  0
LINE
  8
SIZE
  6
CONTINUOUS
 62
    30
 10
-10.21122999999989
 20
-288.10827399999988
 30
0.0
 11
-10.21122999999989
 21
-782.36764699999981
 31
0.0
  0
LINE
  8
SIZE
  6
CONTINUOUS
 62
    30
 10
-166.0
 20
373.73861117895649
 30
0.0
 11
-154.0
 21
373.73861117895649
 31
0.0
  0
CIRCLE
  8
SIZE
  6
CONTINUOUS
 62
    30
 10
-166.0
 20
373.73861117895649
 30
0.0
 40
6.0
  0
LINE
  8
SIZE
  6
CONTINUOUS
 62
    30
 10
-100.0
 20
237.65561117895601
 30
0.0
 11
-88.0
 21
237.65561117895601
 31
0.0
  0
CIRCLE
  8
SIZE
  6
CONTINUOUS
 62
    30
 10
-100.0
 20
237.65561117895601
 30
0.0
 40
6.0
  0
LINE
  8
SIZE
  6
CONTINUOUS
 62
    30
 10
-165.71122999999989
 20
-762.36764699999981
 30
0.0
 11
-421.44879500000002
 21
-762.36764699999981
 31
0.0
  0
TEXT
  8
SIZE
  6
CONTINUOUS
 62
    30
 10
-413.84630557142867
 20
-737.36764699999981
 30
0.0
 40
64.0
  1
φ152
 41
0.9
 72
     1
 11
-304.95487700000012
 21
-737.36764699999981
 31
0.0
  0
LINE
  8
SIZE
  6
CONTINUOUS
 62
    30
 10
-427.32630499999999
 20
-762.36764699999981
 30
0.0
 11
-161.5
 21
-762.36764699999981
 31
0.0
  0
LINE
  8
SIZE
  6
CONTINUOUS
 62
    30
 10
-22.21122999999989
 20
-762.36764699999981
 30
0.0
 11
-150.0
 21
-762.36764699999981
 31
0.0
  0
LINE
  8
SIZE
  6
CONTINUOUS
 62
    30
 10
-162.0
 20
-762.36764699999981
 30
0.0
 11
-150.0
 21
-762.36764699999981
 31
0.0
  0
CIRCLE
  8
SIZE
  6
CONTINUOUS
 62
    30
 10
-162.0
 20
-762.36764699999981
 30
0.0
 40
6.0
  0
LINE
  8
SIZE
  6
CONTINUOUS
 62
    30
 10
-10.21122999999989
 20
-762.36764699999981
 30
0.0
 11
-22.21122999999989
 21
-762.36764699999981
 31
0.0
  0
CIRCLE
  8
SIZE
  6
CONTINUOUS
 62
    30
 10
-10.21122999999989
 20
-762.36764699999981
 30
0.0
 40
6.0
  0
LINE
  8
SIZE
  6
CONTINUOUS
 62
    30
 10
-185.5
 20
-238.5
 30
0.0
 11
-751.69495291041039
 21
-238.5
 31
0.0
  0
LINE
  8
SIZE
  6
CONTINUOUS
 62
    30
 10
-177.5
 20
-295.5
 30
0.0
 11
-751.69495291041039
 21
-295.5
 31
0.0
  0
LINE
  8
SIZE
  6
CONTINUOUS
 62
    30
 10
-181.5
 20
-268.5
 30
0.0
 11
-623.01665391041024
 21
-268.5
 31
0.0
  0
LINE
  8
SIZE
  6
CONTINUOUS
 62
    30
 10
-177.5
 20
-295.5
 30
0.0
 11
-623.01665391041024
 21
-295.5
 31
0.0
  0
LINE
  8
SIZE
  6
CONTINUOUS
 62
    30
 10
-177.5
 20
-295.5
 30
0.0
 11
-867.0605049104106
 21
-295.5
 31
0.0
  0
LINE
  8
SIZE
  6
CONTINUOUS
 62
    30
 10
-173.5
 20
-153.5
 30
0.0
 11
-867.0605049104106
 21
-153.5
 31
0.0
  0
LINE
  8
SIZE
  6
CONTINUOUS
 62
    30
 10
-173.5
 20
-153.5
 30
0.0
 11
-867.0605049104106
 21
-153.5
 31
0.0
  0
LINE
  8
SIZE
  6
CONTINUOUS
 62
    30
 10
-210.68088199999971
 20
-100.0
 30
0.0
 11
-619.85381391041028
 21
-100.0
 31
0.0
  0
TEXT
  8
SIZE
  6
CONTINUOUS
 62
    30
 10
-756.3087379104104
 20
-415.78610942857142
 30
0.0
 40
64.0
  1
57
 50
90.0
 41
0.9
 72
     1
 11
-756.3087379104104
 21
-369.15753799999987
 31
0.0
  0
TEXT
  8
SIZE
  6
CONTINUOUS
 62
    30
 10
-628.7946429104104
 20
-414.99669242857141
 30
0.0
 40
64.0
  1
27
 50
90.0
 41
0.9
 72
     1
 11
-628.7946429104104
 21
-368.36812099999997
 31
0.0
  0
TEXT
  8
SIZE
  6
CONTINUOUS
 62
    30
 10
-872.40365391041041
 20
-451.67499257142862
 30
0.0
 40
64.0
  1
142
 50
90.0
 41
0.9
 72
     1
 11
-872.40365391041041
 21
-383.10356400000001
 31
0.0
  0
LINE
  8
SIZE
  6
CONTINUOUS
 62
    30
 10
-847.0605049104106
 20
-278.0
 30
0.0
 11
-847.0605049104106
 21
-467.579835
 31
0.0
  0
LINE
  8
SIZE
  6
CONTINUOUS
 62
    30
 10
-731.69495291041039
 20
-280.0
 30
0.0
 11
-731.69495291041039
 21
-429.19194499999992
 31
0.0
  0
LINE
  8
SIZE
  6
CONTINUOUS
 62
    30
 10
-603.01665391041024
 20
-284.0
 30
0.0
 11
-603.01665391041024
 21
-426.63275299999992
 31
0.0
  0
LINE
  8
SIZE
  6
CONTINUOUS
 62
    30
 10
-847.0605049104106
 20
-153.5
 30
0.0
 11
-847.0605049104106
 21
-165.5
 31
0.0
  0
LINE
  8
SIZE
  6
CONTINUOUS
 62
    30
 10
-847.0605049104106
 20
-165.5
 30
0.0
 11
-847.0605049104106
 21
-283.49999999999989
 31
0.0
  0
LINE
  8
SIZE
  6
CONTINUOUS
 62
    30
 10
-847.0605049104106
 20
-295.5
 30
0.0
 11
-847.0605049104106
 21
-283.49999999999989
 31
0.0
  0
CIRCLE
  8
SIZE
  6
CONTINUOUS
 62
    30
 10
-847.0605049104106
 20
-295.5
 30
0.0
 40
6.0
  0
CIRCLE
  8
SIZE
  6
CONTINUOUS
 62
    30
 10
-847.0605049104106
 20
-153.5
 30
0.0
 40
6.0
  0
LINE
  8
SIZE
  6
CONTINUOUS
 62
    30
 10
-847.0605049104106
 20
-153.5
 30
0.0
 11
-847.0605049104106
 21
-141.5
 31
0.0
  0
CIRCLE
  8
SIZE
  6
CONTINUOUS
 62
    30
 10
-847.0605049104106
 20
-153.5
 30
0.0
 40
6.0
  0
LINE
  8
SIZE
  6
CONTINUOUS
 62
    30
 10
-731.69495291041039
 20
-295.5
 30
0.0
 11
-731.69495291041039
 21
-238.5
 31
0.0
  0
LINE
  8
SIZE
  6
CONTINUOUS
 62
    30
 10
-731.69495291041039
 20
-295.5
 30
0.0
 11
-731.69495291041039
 21
-238.5
 31
0.0
  0
LINE
  8
SIZE
  6
CONTINUOUS
 62
    30
 10
-731.69495291041039
 20
-295.5
 30
0.0
 11
-731.69495291041039
 21
-307.5
 31
0.0
  0
CIRCLE
  8
SIZE
  6
CONTINUOUS
 62
    30
 10
-731.69495291041039
 20
-295.5
 30
0.0
 40
6.0
  0
LINE
  8
SIZE
  6
CONTINUOUS
 62
    30
 10
-731.69495291041039
 20
-307.5
 30
0.0
 11
-731.69495291041039
 21
-319.5
 31
0.0
  0
CIRCLE
  8
SIZE
  6
CONTINUOUS
 62
    30
 10
-731.69495291041039
 20
-238.5
 30
0.0
 40
6.0
  0
LINE
  8
SIZE
  6
CONTINUOUS
 62
    30
 10
-603.01665391041024
 20
-256.49999999999989
 30
0.0
 11
-603.01665391041024
 21
-244.4999999999998
 31
0.0
  0
LINE
  8
SIZE
  6
CONTINUOUS
 62
    30
 10
-603.01665391041024
 20
-268.5
 30
0.0
 11
-603.01665391041024
 21
-256.49999999999989
 31
0.0
  0
CIRCLE
  8
SIZE
  6
CONTINUOUS
 62
    30
 10
-603.01665391041024
 20
-268.5
 30
0.0
 40
6.0
  0
LINE
  8
SIZE
  6
CONTINUOUS
 62
    30
 10
-603.01665391041024
 20
-295.5
 30
0.0
 11
-603.01665391041024
 21
-307.5
 31
0.0
  0
CIRCLE
  8
SIZE
  6
CONTINUOUS
 62
    30
 10
-603.01665391041024
 20
-295.5
 30
0.0
 40
6.0
  0
LINE
  8
SIZE
  6
CONTINUOUS
 62
    30
 10
-603.01665391041024
 20
-295.5
 30
0.0
 11
-603.01665391041024
 21
-268.5
 31
0.0
  0
LINE
  8
SIZE
  6
CONTINUOUS
 62
    30
 10
-603.01665391041024
 20
-295.5
 30
0.0
 11
-603.01665391041024
 21
-268.5
 31
0.0
  0
LINE
  8
SIZE
  6
CONTINUOUS
 62
    30
 10
-603.01665391041024
 20
-307.5
 30
0.0
 11
-603.01665391041024
 21
-319.5
 31
0.0
  0
LINE
  8
SIZE
  6
CONTINUOUS
 62
    30
 10
-599.85381391041051
 20
-100.0
 30
0.0
 11
-599.85381391041051
 21
-88.0
 31
0.0
  0
CIRCLE
  8
SIZE
  6
CONTINUOUS
 62
    30
 10
-599.85381391041051
 20
-100.0
 30
0.0
 40
6.0
  0
LINE
  8
SIZE
  6
CONTINUOUS
 62
    30
 10
-158.0
 20
-315.5
 30
0.0
 11
-158.0
 21
-640.68595500000004
 31
0.0
  0
LINE
  8
SIZE
  6
CONTINUOUS
 62
    30
 10
-14.0
 20
-315.5
 30
0.0
 11
-14.0
 21
-640.68595500000004
 31
0.0
  0
LINE
  8
SIZE
  6
CONTINUOUS
 62
    30
 10
-157.71122999999989
 20
-620.68595500000004
 30
0.0
 11
-420.86528300000009
 21
-620.68595500000004
 31
0.0
  0
TEXT
  8
SIZE
  6
CONTINUOUS
 62
    30
 10
-415.84846814285709
 20
-595.68595500000004
 30
0.0
 40
64.0
  1
φ144
 41
0.9
 72
     1
 11
-305.58561099999997
 21
-595.68595500000004
 31
0.0
  0
LINE
  8
SIZE
  6
CONTINUOUS
 62
    30
 10
-429.3284679999997
 20
-620.68595500000004
 30
0.0
 11
-157.5
 21
-620.68595500000004
 31
0.0
  0
LINE
  8
SIZE
  6
CONTINUOUS
 62
    30
 10
-26.0
 20
-620.68595500000004
 30
0.0
 11
-146.0
 21
-620.68595500000004
 31
0.0
  0
LINE
  8
SIZE
  6
CONTINUOUS
 62
    30
 10
-158.0
 20
-620.68595500000004
 30
0.0
 11
-146.0
 21
-620.68595500000004
 31
0.0
  0
CIRCLE
  8
SIZE
  6
CONTINUOUS
 62
    30
 10
-158.0
 20
-620.68595500000004
 30
0.0
 40
6.0
  0
LINE
  8
SIZE
  6
CONTINUOUS
 62
    30
 10
-14.0
 20
-620.68595500000004
 30
0.0
 11
-26.0
 21
-620.68595500000004
 31
0.0
  0
CIRCLE
  8
SIZE
  6
CONTINUOUS
 62
    30
 10
-14.0
 20
-620.68595500000004
 30
0.0
 40
6.0
  0
LINE
  8
NOTE
  6
CONTINUOUS
 62
     4
 10
-100.0
 20
-186.0
 30
0.0
 11
-100.0
 21
-146.0
 31
0.0
  0
CIRCLE
  8
FIX
  6
CONTINUOUS
 62
    11
 10
-100.0
 20
-166.0
 30
0.0
 40
2.5
  0
CIRCLE
  8
FIX
  6
CONTINUOUS
 62
    11
 10
-100.0
 20
-166.0
 30
0.0
 40
2.5
  0
LINE
  8
BASIS
  6
DASHDOT
 62
     6
 10
-86.0
 20
-321.49999999999972
 30
0.0
 11
-86.0
 21
-127.5986809999999
 31
0.0
  0
LINE
  8
DETAIL
  6
CONTINUOUS
 62
     5
 10
-166.0
 20
-238.5
 30
0.0
 11
-166.0
 21
-156.4999999999998
 31
0.0
  0
LINE
  8
DETAIL
  6
CONTINUOUS
 62
     5
 10
-170.5
 20
-174.5
 30
0.0
 11
-170.5
 21
-156.4999999999998
 31
0.0
  0
LINE
  8
DETAIL
  6
CONTINUOUS
 62
     5
 10
-6.0
 20
-238.5
 30
0.0
 11
-6.0
 21
-156.4999999999998
 31
0.0
  0
LINE
  8
OUTLINE
  6
CONTINUOUS
 62
     3
 10
-166.0
 20
-190.0
 30
0.0
 11
-5.5
 21
-190.0
 31
0.0
  0
LINE
  8
DETAIL
  6
CONTINUOUS
 62
     5
 10
-158.0
 20
-295.5
 30
0.0
 11
-14.0
 21
-295.5
 31
0.0
  0
LINE
  8
NOTE
  6
CONTINUOUS
 62
     4
 10
-80.0
 20
-166.0
 30
0.0
 11
-120.0
 21
-166.0
 31
0.0
  0
LINE
  8
DETAIL
  6
CONTINUOUS
 62
     5
 10
-166.0
 20
-238.5
 30
0.0
 11
-6.0
 21
-238.5
 31
0.0
  0
LINE
  8
DETAIL
  6
CONTINUOUS
 62
     5
 10
-162.0
 20
-268.5
 30
0.0
 11
-10.0
 21
-268.5
 31
0.0
  0
LINE
  8
DETAIL
  6
CONTINUOUS
 62
     5
 10
-162.0
 20
-268.5
 30
0.0
 11
-162.0
 21
-238.5
 31
0.0
  0
LINE
  8
DETAIL
  6
CONTINUOUS
 62
     5
 10
-158.0
 20
-295.5
 30
0.0
 11
-158.0
 21
-268.5
 31
0.0
  0
LINE
  8
DETAIL
  6
CONTINUOUS
 62
     5
 10
-182.0
 20
-189.9999999999998
 30
0.0
 11
-165.5
 21
-190.0
 31
0.0
  0
ARC
  8
OUTLINE
  6
CONTINUOUS
 62
     3
 10
-182.0
 20
-182.0
 30
0.0
 40
8.0
 50
180.0
 51
270.0
  0
ARC
  8
DETAIL
  6
CONTINUOUS
 62
     5
 10
-182.0
 20
-181.9999999999998
 30
0.0
 40
8.0
 50
180.0
 51
270.0
  0
LINE
  8
DETAIL
  6
CONTINUOUS
 62
     5
 10
-170.5
 20
-174.5
 30
0.0
 11
-165.5
 21
-174.5
 31
0.0
  0
LINE
  8
DETAIL
  6
CONTINUOUS
 62
     5
 10
-10.0
 20
-268.5
 30
0.0
 11
-10.0
 21
-238.5
 31
0.0
  0
LINE
  8
DETAIL
  6
CONTINUOUS
 62
     5
 10
-14.0
 20
-295.5
 30
0.0
 11
-14.0
 21
-268.5
 31
0.0
  0
LINE
  8
NOTE
  6
CONTINUOUS
 62
     4
 10
-170.5
 20
-120.0
 30
0.0
 11
-170.5
 21
-80.0
 31
0.0
  0
LINE
  8
DETAIL
  6
CONTINUOUS
 62
     5
 10
-155.25
 20
-130.0
 30
0.0
 11
-155.25
 21
-70.0
 31
0.0
  0
LINE
  8
DETAIL
  6
CONTINUOUS
 62
     5
 10
-185.75
 20
-130.0
 30
0.0
 11
-185.75
 21
-70.0
 31
0.0
  0
LINE
  8
NOTE
  6
CONTINUOUS
 62
     4
 10
-166.0
 20
-80.0
 30
0.0
 11
-166.0
 21
-120.0
 31
0.0
  0
LINE
  8
DETAIL
  6
CONTINUOUS
 62
     5
 10
-149.5
 20
-153.5
 30
0.0
 11
-179.0
 21
-153.5
 31
0.0
  0
LINE
  8
NOTE
  6
CONTINUOUS
 62
     4
 10
-150.5
 20
-100.0
 30
0.0
 11
-190.5
 21
-100.0
 31
0.0
  0
LINE
  8
DETAIL
  6
CONTINUOUS
 62
     5
 10
-155.25
 20
-130.0
 30
0.0
 11
-185.75
 21
-130.0
 31
0.0
  0
ARC
  8
DETAIL
  6
CONTINUOUS
 62
     5
 10
-170.5
 20
-103.5
 30
0.0
 40
7.5
 50
180.0
 51
0.0
  0
ARC
  8
DETAIL
  6
CONTINUOUS
 62
     5
 10
-170.5
 20
-96.5
 30
0.0
 40
7.5
 50
0.0
 51
180.0
  0
CIRCLE
  8
FIX
  6
CONTINUOUS
 62
    11
 10
-170.5
 20
-100.0
 30
0.0
 40
7.5
  0
LINE
  8
NOTE
  6
CONTINUOUS
 62
     4
 10
-146.0
 20
-100.0
 30
0.0
 11
-186.0
 21
-100.0
 31
0.0
  0
LINE
  8
DETAIL
  6
CONTINUOUS
 62
     5
 10
-178.0
 20
-103.5
 30
0.0
 11
-178.0
 21
-96.5
 31
0.0
  0
LINE
  8
DETAIL
  6
CONTINUOUS
 62
     5
 10
-179.0
 20
-156.4999999999998
 30
0.0
 11
-179.0
 21
-153.5
 31
0.0
  0
LINE
  8
DETAIL
  6
CONTINUOUS
 62
     5
 10
-174.5
 20
-153.5
 30
0.0
 11
-174.5
 21
-130.0
 31
0.0
  0
LINE
  8
DETAIL
  6
CONTINUOUS
 62
     5
 10
-163.0
 20
-103.5
 30
0.0
 11
-163.0
 21
-96.5
 31
0.0
  0
CIRCLE
  8
FIX
  6
CONTINUOUS
 62
    11
 10
-166.0
 20
-100.0
 30
0.0
 40
2.5
  0
LINE
  8
DETAIL
  6
CONTINUOUS
 62
     5
 10
-155.25
 20
-70.0
 30
0.0
 11
-185.75
 21
-70.0
 31
0.0
  0
LINE
  8
DETAIL
  6
CONTINUOUS
 62
     5
 10
-155.25
 20
-70.0
 30
0.0
 11
-153.5
 21
-70.0
 31
0.0
  0
TEXT
  8
NOTE
  6
CONTINUOUS
 62
     4
 10
-600.75370881744766
 20
339.02322499999991
 30
0.0
 40
64.0
  1
AH 4
 41
0.9
  0
LINE
  8
NOTE
  6
CONTINUOUS
 62
     4
 10
-391.04410999999982
 20
303.83135799999991
 30
0.0
 11
-617.6161849322225
 21
303.83135799999991
 31
0.0
  0
LINE
  8
SIZE
  6
CONTINUOUS
 62
    30
 10
-190.0
 20
192.0
 30
0.0
 11
-190.0
 21
751.04051506950645
 31
0.0
  0
LINE
  8
SIZE
  6
CONTINUOUS
 62
    30
 10
-173.5
 20
153.5
 30
0.0
 11
-867.0605049104106
 21
153.5
 31
0.0
  0
LINE
  8
SIZE
  6
CONTINUOUS
 62
    30
 10
-210.68088199999971
 20
100.0
 30
0.0
 11
-619.85381391041028
 21
100.0
 31
0.0
  0
LINE
  8
SIZE
  6
CONTINUOUS
 62
    30
 10
-847.0605049104106
 20
153.5
 30
0.0
 11
-847.0605049104106
 21
141.5
 31
0.0
  0
CIRCLE
  8
SIZE
  6
CONTINUOUS
 62
    30
 10
-847.0605049104106
 20
153.5
 30
0.0
 40
6.0
  0
LINE
  8
SIZE
  6
CONTINUOUS
 62
    30
 10
-599.85381391041051
 20
100.0
 30
0.0
 11
-599.85381391041051
 21
88.0
 31
0.0
  0
CIRCLE
  8
SIZE
  6
CONTINUOUS
 62
    30
 10
-599.85381391041051
 20
100.0
 30
0.0
 40
6.0
  0
LINE
  8
SIZE
  6
CONTINUOUS
 62
    30
 10
-174.5
 20
194.5
 30
0.0
 11
-174.5
 21
631.93698006950672
 31
0.0
  0
LINE
  8
SIZE
  6
CONTINUOUS
 62
    30
 10
-170.5
 20
140.0
 30
0.0
 11
-170.5
 21
503.73704806950627
 31
0.0
  0
LINE
  8
NOTE
  6
CONTINUOUS
 62
     4
 10
-170.5
 20
100.0
 30
0.0
 11
-391.04410999999982
 21
303.83135799999991
 31
0.0
  0
ARC
  8
DETAIL
  6
CONTINUOUS
 62
     5
 10
-100.0
 20
164.5
 30
0.0
 40
2.5
 50
180.0
 51
0.0
  0
CIRCLE
  8
FIX
  6
CONTINUOUS
 62
    11
 10
-100.0
 20
166.0
 30
0.0
 40
2.5
  0
LINE
  8
NOTE
  6
CONTINUOUS
 62
     4
 10
-100.0
 20
146.0
 30
0.0
 11
-100.0
 21
186.0
 31
0.0
  0
LINE
  8
DETAIL
  6
CONTINUOUS
 62
     5
 10
-174.5
 20
130.0
 30
0.0
 11
-174.5
 21
174.5
 31
0.0
  0
LINE
  8
NOTE
  6
CONTINUOUS
 62
     4
 10
-170.5
 20
120.0
 30
0.0
 11
-170.5
 21
80.0
 31
0.0
  0
LINE
  8
DETAIL
  6
CONTINUOUS
 62
     5
 10
-185.75
 20
130.0
 30
0.0
 11
-185.75
 21
70.0
 31
0.0
  0
LINE
  8
DETAIL
  6
CONTINUOUS
 62
     5
 10
-155.25
 20
130.0
 30
0.0
 11
-155.25
 21
70.0
 31
0.0
  0
LINE
  8
NOTE
  6
CONTINUOUS
 62
     4
 10
-166.0
 20
120.0
 30
0.0
 11
-166.0
 21
80.0
 31
0.0
  0
LINE
  8
DETAIL
  6
CONTINUOUS
 62
     5
 10
-155.25
 20
70.0
 30
0.0
 11
-185.75
 21
70.0
 31
0.0
  0
LINE
  8
DETAIL
  6
CONTINUOUS
 62
     5
 10
-155.25
 20
70.0
 30
0.0
 11
-153.5
 21
70.0
 31
0.0
  0
CIRCLE
  8
FIX
  6
CONTINUOUS
 62
    11
 10
-170.5
 20
100.0
 30
0.0
 40
7.5
  0
LINE
  8
NOTE
  6
CONTINUOUS
 62
     4
 10
-150.5
 20
100.0
 30
0.0
 11
-190.5
 21
100.0
 31
0.0
  0
ARC
  8
DETAIL
  6
CONTINUOUS
 62
     5
 10
-170.5
 20
96.5
 30
0.0
 40
7.5
 50
180.0
 51
0.0
  0
ARC
  8
DETAIL
  6
CONTINUOUS
 62
     5
 10
-170.5
 20
103.5
 30
0.0
 40
7.5
 50
0.0
 51
180.0
  0
LINE
  8
DETAIL
  6
CONTINUOUS
 62
     5
 10
-155.25
 20
130.0
 30
0.0
 11
-185.75
 21
130.0
 31
0.0
  0
LINE
  8
NOTE
  6
CONTINUOUS
 62
     4
 10
-146.0
 20
100.0
 30
0.0
 11
-186.0
 21
100.0
 31
0.0
  0
LINE
  8
NOTE
  6
CONTINUOUS
 62
     4
 10
-170.5
 20
100.0
 30
0.0
 11
-192.4678899999999
 21
133.42770999999991
 31
0.0
  0
LINE
  8
NOTE
  6
CONTINUOUS
 62
     4
 10
-206.23860599999989
 20
117.965301
 30
0.0
 11
-170.5
 21
100.0
 31
0.0
  0
LINE
  8
DETAIL
  6
CONTINUOUS
 62
     5
 10
-178.0
 20
103.5
 30
0.0
 11
-178.0
 21
96.5
 31
0.0
  0
LINE
  8
DETAIL
  6
CONTINUOUS
 62
     5
 10
-163.0
 20
103.5
 30
0.0
 11
-163.0
 21
96.5
 31
0.0
  0
LINE
  8
DETAIL
  6
CONTINUOUS
 62
     5
 10
-155.25
 20
130.0
 30
0.0
 11
-153.5
 21
130.0
 31
0.0
  0
CIRCLE
  8
FIX
  6
CONTINUOUS
 62
    11
 10
-166.0
 20
100.0
 30
0.0
 40
2.5
  0
LINE
  8
NOTE
  6
CONTINUOUS
 62
     4
 10
-120.0
 20
166.0
 30
0.0
 11
-80.0
 21
166.0
 31
0.0
  0
ARC
  8
OUTLINE
  6
CONTINUOUS
 62
     3
 10
-182.0
 20
182.0
 30
0.0
 40
8.0
 50
90.0
 51
180.0
  0
ARC
  8
DETAIL
  6
CONTINUOUS
 62
     5
 10
-182.0
 20
182.0
 30
0.0
 40
8.0
 50
90.0
 51
180.0
  0
LINE
  8
DETAIL
  6
CONTINUOUS
 62
     5
 10
-102.5
 20
167.5
 30
0.0
 11
-102.5
 21
164.5
 31
0.0
  0
LINE
  8
DETAIL
  6
CONTINUOUS
 62
     5
 10
-97.5
 20
167.5
 30
0.0
 11
-97.5
 21
164.5
 31
0.0
  0
ARC
  8
DETAIL
  6
CONTINUOUS
 62
     5
 10
-100.0
 20
167.5
 30
0.0
 40
2.5
 50
0.0
 51
180.0
  0
CIRCLE
  8
SIZE
  6
CONTINUOUS
 62
    30
 10
-170.5
 20
483.73704806950627
 30
0.0
 40
6.0
  0
LINE
  8
SIZE
  6
CONTINUOUS
 62
    30
 10
-170.5
 20
483.73704806950627
 30
0.0
 11
-158.5
 21
483.73704806950627
 31
0.0
  0
LINE
  8
SIZE
  6
CONTINUOUS
 62
    30
 10
-174.5
 20
611.93698006950672
 30
0.0
 11
-162.5
 21
611.93698006950672
 31
0.0
  0
CIRCLE
  8
SIZE
  6
CONTINUOUS
 62
    30
 10
-174.5
 20
611.93698006950672
 30
0.0
 40
6.0
  0
LINE
  8
SIZE
  6
CONTINUOUS
 62
    30
 10
-190.0
 20
731.04051506950691
 30
0.0
 11
-178.0
 21
731.04051506950691
 31
0.0
  0
CIRCLE
  8
SIZE
  6
CONTINUOUS
 62
    30
 10
-190.0
 20
731.04051506950691
 30
0.0
 40
6.0
  0
LINE
  8
OUTLINE
  6
CONTINUOUS
 62
     3
 10
190.0
 20
-182.0
 30
0.0
 11
190.0
 21
182.0
 31
0.0
  0
LINE
  8
DETAIL
  6
CONTINUOUS
 62
     5
 10
190.0
 20
-182.0
 30
0.0
 11
190.0
 21
182.0
 31
0.0
  0
TEXT
  8
SIZE
  6
CONTINUOUS
 62
    30
 10
868.53762199999983
 20
-72.685714285714283
 30
0.0
 40
64.0
  1
349
 50
90.0
 41
0.9
 72
     1
 11
868.53762199999983
 21
0.0
 31
0.0
  0
LINE
  8
SIZE
  6
CONTINUOUS
 62
    30
 10
896.21124999999984
 20
162.5
 30
0.0
 11
896.21124999999984
 21
-162.5
 31
0.0
  0
TEXT
  8
SIZE
  6
CONTINUOUS
 62
    30
 10
742.92671799999971
 20
-74.05714285714285
 30
0.0
 40
64.0
  1
332
 50
90.0
 41
0.9
 72
     1
 11
742.92671799999971
 21
0.0
 31
0.0
  0
LINE
  8
SIZE
  6
CONTINUOUS
 62
    30
 10
766.834339
 20
154.0
 30
0.0
 11
766.834339
 21
-154.0
 31
0.0
  0
LINE
  8
DETAIL
  6
CONTINUOUS
 62
     5
 10
174.5
 20
-70.0
 30
0.0
 11
174.5
 21
70.0
 31
0.0
  0
LINE
  8
DETAIL
  6
CONTINUOUS
 62
     5
 10
153.5
 20
153.5
 30
0.0
 11
153.5
 21
-153.5
 31
0.0
  0
LINE
  8
SIZE
  6
CONTINUOUS
 62
    30
 10
166.0
 20
140.0
 30
0.0
 11
166.0
 21
393.73861117895473
 31
0.0
  0
LINE
  8
SIZE
  6
CONTINUOUS
 62
    30
 10
100.0
 20
206.0
 30
0.0
 11
100.0
 21
257.65561117895692
 31
0.0
  0
LINE
  8
SIZE
  6
CONTINUOUS
 62
    30
 10
166.0
 20
373.73861117895649
 30
0.0
 11
154.0
 21
373.73861117895649
 31
0.0
  0
CIRCLE
  8
SIZE
  6
CONTINUOUS
 62
    30
 10
166.0
 20
373.73861117895649
 30
0.0
 40
6.0
  0
LINE
  8
SIZE
  6
CONTINUOUS
 62
    30
 10
100.0
 20
237.65561117895601
 30
0.0
 11
88.0
 21
237.65561117895601
 31
0.0
  0
CIRCLE
  8
SIZE
  6
CONTINUOUS
 62
    30
 10
100.0
 20
237.65561117895601
 30
0.0
 40
6.0
  0
LINE
  8
SIZE
  6
CONTINUOUS
 62
    30
 10
194.5
 20
-174.5
 30
0.0
 11
916.21124999999984
 21
-174.5
 31
0.0
  0
LINE
  8
SIZE
  6
CONTINUOUS
 62
    30
 10
140.0
 20
-166.0
 30
0.0
 11
786.834339
 21
-166.0
 31
0.0
  0
TEXT
  8
NOTE
  6
CONTINUOUS
 62
     4
 10
211.93636400000011
 20
-374.51113099999998
 30
0.0
 40
64.0
  1
EL
 41
0.9
  0
LINE
  8
NOTE
  6
CONTINUOUS
 62
     4
 10
200.571203
 20
-401.81120700000002
 30
0.0
 11
322.34251970013429
 21
-401.81120700000002
 31
0.0
  0
LINE
  8
NOTE
  6
CONTINUOUS
 62
     4
 10
130.0
 20
-118.0
 30
0.0
 11
200.571203
 21
-401.81120700000002
 31
0.0
  0
LINE
  8
NOTE
  6
CONTINUOUS
 62
     4
 10
100.0
 20
-186.0
 30
0.0
 11
100.0
 21
-146.0
 31
0.0
  0
CIRCLE
  8
FIX
  6
CONTINUOUS
 62
    11
 10
100.0
 20
-166.0
 30
0.0
 40
2.5
  0
ARC
  8
DETAIL
  6
CONTINUOUS
 62
     5
 10
100.0
 20
-164.5
 30
0.0
 40
2.5
 50
0.0
 51
180.0
  0
LINE
  8
DETAIL
  6
CONTINUOUS
 62
     5
 10
174.5
 20
-174.5
 30
0.0
 11
174.5
 21
-130.0
 31
0.0
  0
LINE
  8
NOTE
  6
CONTINUOUS
 62
     4
 10
80.0
 20
-166.0
 30
0.0
 11
120.0
 21
-166.0
 31
0.0
  0
ARC
  8
DETAIL
  6
CONTINUOUS
 62
     5
 10
100.0
 20
-167.5
 30
0.0
 40
2.5
 50
180.0
 51
0.0
  0
LINE
  8
DETAIL
  6
CONTINUOUS
 62
     5
 10
102.5
 20
-164.5
 30
0.0
 11
102.5
 21
-167.5
 31
0.0
  0
LINE
  8
DETAIL
  6
CONTINUOUS
 62
     5
 10
97.5
 20
-164.5
 30
0.0
 11
97.5
 21
-167.5
 31
0.0
  0
ARC
  8
OUTLINE
  6
CONTINUOUS
 62
     3
 10
182.0
 20
-182.0
 30
0.0
 40
8.0
 50
270.0
 51
0.0
  0
ARC
  8
DETAIL
  6
CONTINUOUS
 62
     5
 10
182.0
 20
-182.0
 30
0.0
 40
8.0
 50
270.0
 51
0.0
  0
LINE
  8
NOTE
  6
CONTINUOUS
 62
     4
 10
110.0
 20
-118.0
 30
0.0
 11
150.0
 21
-118.0
 31
0.0
  0
LINE
  8
DETAIL
  6
CONTINUOUS
 62
     5
 10
6.5
 20
-156.4999999999998
 30
0.0
 11
6.5
 21
-153.5
 31
0.0
  0
LINE
  8
NOTE
  6
CONTINUOUS
 62
     4
 10
170.5
 20
-120.0
 30
0.0
 11
170.5
 21
-80.0
 31
0.0
  0
LINE
  8
DETAIL
  6
CONTINUOUS
 62
     5
 10
185.75
 20
-130.0
 30
0.0
 11
185.75
 21
-70.0
 31
0.0
  0
LINE
  8
DETAIL
  6
CONTINUOUS
 62
     5
 10
155.25
 20
-130.0
 30
0.0
 11
155.25
 21
-70.0
 31
0.0
  0
LINE
  8
NOTE
  6
CONTINUOUS
 62
     4
 10
166.0
 20
-120.0
 30
0.0
 11
166.0
 21
-80.0
 31
0.0
  0
LINE
  8
NOTE
  6
CONTINUOUS
 62
     4
 10
150.5
 20
-100.0
 30
0.0
 11
190.5
 21
-100.0
 31
0.0
  0
CIRCLE
  8
FIX
  6
CONTINUOUS
 62
    11
 10
170.5
 20
-100.0
 30
0.0
 40
7.5
  0
ARC
  8
DETAIL
  6
CONTINUOUS
 62
     5
 10
170.5
 20
-96.5
 30
0.0
 40
7.5
 50
0.0
 51
180.0
  0
ARC
  8
DETAIL
  6
CONTINUOUS
 62
     5
 10
170.5
 20
-103.5
 30
0.0
 40
7.5
 50
180.0
 51
0.0
  0
LINE
  8
DETAIL
  6
CONTINUOUS
 62
     5
 10
155.25
 20
-130.0
 30
0.0
 11
185.75
 21
-130.0
 31
0.0
  0
LINE
  8
NOTE
  6
CONTINUOUS
 62
     4
 10
146.0
 20
-100.0
 30
0.0
 11
186.0
 21
-100.0
 31
0.0
  0
CIRCLE
  8
DETAIL
  6
CONTINUOUS
 62
     5
 10
130.0
 20
-118.0
 30
0.0
 40
9.5
  0
LINE
  8
NOTE
  6
CONTINUOUS
 62
     4
 10
130.0
 20
-138.0
 30
0.0
 11
130.0
 21
-98.0
 31
0.0
  0
LINE
  8
DETAIL
  6
CONTINUOUS
 62
     5
 10
163.0
 20
-103.5
 30
0.0
 11
163.0
 21
-96.5
 31
0.0
  0
LINE
  8
DETAIL
  6
CONTINUOUS
 62
     5
 10
155.25
 20
-130.0
 30
0.0
 11
153.5
 21
-130.0
 31
0.0
  0
CIRCLE
  8
FIX
  6
CONTINUOUS
 62
    11
 10
166.0
 20
-100.0
 30
0.0
 40
2.5
  0
LINE
  8
NOTE
  6
CONTINUOUS
 62
     4
 10
130.0
 20
-118.0
 30
0.0
 11
131.2248890000001
 21
-157.98124100000001
 31
0.0
  0
LINE
  8
NOTE
  6
CONTINUOUS
 62
     4
 10
151.05140599999999
 20
-152.012326
 30
0.0
 11
130.0
 21
-118.0
 31
0.0
  0
LINE
  8
DETAIL
  6
CONTINUOUS
 62
     5
 10
178.0
 20
-103.5
 30
0.0
 11
178.0
 21
-96.5
 31
0.0
  0
LINE
  8
DETAIL
  6
CONTINUOUS
 62
     5
 10
155.25
 20
-70.0
 30
0.0
 11
185.75
 21
-70.0
 31
0.0
  0
LINE
  8
DETAIL
  6
CONTINUOUS
 62
     5
 10
155.25
 20
-70.0
 30
0.0
 11
153.5
 21
-70.0
 31
0.0
  0
LINE
  8
SIZE
  6
CONTINUOUS
 62
    30
 10
896.21124999999984
 20
-174.5
 30
0.0
 11
896.21124999999984
 21
-162.5
 31
0.0
  0
LINE
  8
SIZE
  6
CONTINUOUS
 62
    30
 10
766.834339
 20
-166.0
 30
0.0
 11
766.834339
 21
-154.0
 31
0.0
  0
CIRCLE
  8
SIZE
  6
CONTINUOUS
 62
    30
 10
766.834339
 20
-166.0
 30
0.0
 40
6.0
  0
CIRCLE
  8
SIZE
  6
CONTINUOUS
 62
    30
 10
896.21124999999984
 20
-174.5
 30
0.0
 40
6.0
  0
LINE
  8
SIZE
  6
CONTINUOUS
 62
    30
 10
190.0
 20
192.0
 30
0.0
 11
190.0
 21
751.04051506950645
 31
0.0
  0
LINE
  8
SIZE
  6
CONTINUOUS
 62
    30
 10
194.5
 20
174.5
 30
0.0
 11
916.21124999999984
 21
174.5
 31
0.0
  0
LINE
  8
SIZE
  6
CONTINUOUS
 62
    30
 10
140.0
 20
166.0
 30
0.0
 11
786.834339
 21
166.0
 31
0.0
  0
TEXT
  8
NOTE
  6
CONTINUOUS
 62
     4
 10
263.24072807963648
 20
382.66111333929757
 30
0.0
 40
64.0
  1
8-φ5×8
 41
0.9
  0
LINE
  8
NOTE
  6
CONTINUOUS
 62
     4
 10
647.5310940796362
 20
356.1298583392977
 30
0.0
 11
250.86693807963641
 21
356.1298583392977
 31
0.0
  0
LINE
  8
SIZE
  6
CONTINUOUS
 62
    30
 10
174.5
 20
194.5
 30
0.0
 11
174.5
 21
631.93698006950672
 31
0.0
  0
LINE
  8
SIZE
  6
CONTINUOUS
 62
    30
 10
170.5
 20
140.0
 30
0.0
 11
170.5
 21
503.73704806950627
 31
0.0
  0
LINE
  8
NOTE
  6
CONTINUOUS
 62
     4
 10
100.8559486829804
 20
166.26819163336771
 30
0.0
 11
250.86693807963641
 21
356.1298583392977
 31
0.0
  0
LINE
  8
NOTE
  6
CONTINUOUS
 62
     4
 10
100.0
 20
146.0
 30
0.0
 11
100.0
 21
186.0
 31
0.0
  0
CIRCLE
  8
FIX
  6
CONTINUOUS
 62
    11
 10
100.0
 20
166.0
 30
0.0
 40
2.5
  0
ARC
  8
DETAIL
  6
CONTINUOUS
 62
     5
 10
100.0
 20
164.5
 30
0.0
 40
2.5
 50
180.0
 51
0.0
  0
LINE
  8
DETAIL
  6
CONTINUOUS
 62
     5
 10
174.5
 20
130.0
 30
0.0
 11
174.5
 21
174.5
 31
0.0
  0
LINE
  8
NOTE
  6
CONTINUOUS
 62
     4
 10
170.5
 20
120.0
 30
0.0
 11
170.5
 21
80.0
 31
0.0
  0
LINE
  8
DETAIL
  6
CONTINUOUS
 62
     5
 10
155.25
 20
130.0
 30
0.0
 11
155.25
 21
70.0
 31
0.0
  0
LINE
  8
DETAIL
  6
CONTINUOUS
 62
     5
 10
185.75
 20
130.0
 30
0.0
 11
185.75
 21
70.0
 31
0.0
  0
LINE
  8
NOTE
  6
CONTINUOUS
 62
     4
 10
166.0
 20
120.0
 30
0.0
 11
166.0
 21
80.0
 31
0.0
  0
LINE
  8
DETAIL
  6
CONTINUOUS
 62
     5
 10
155.25
 20
70.0
 30
0.0
 11
185.75
 21
70.0
 31
0.0
  0
LINE
  8
DETAIL
  6
CONTINUOUS
 62
     5
 10
155.25
 20
70.0
 30
0.0
 11
153.5
 21
70.0
 31
0.0
  0
LINE
  8
NOTE
  6
CONTINUOUS
 62
     4
 10
150.5
 20
100.0
 30
0.0
 11
190.5
 21
100.0
 31
0.0
  0
LINE
  8
DETAIL
  6
CONTINUOUS
 62
     5
 10
155.25
 20
130.0
 30
0.0
 11
185.75
 21
130.0
 31
0.0
  0
ARC
  8
DETAIL
  6
CONTINUOUS
 62
     5
 10
170.5
 20
103.5
 30
0.0
 40
7.5
 50
0.0
 51
180.0
  0
ARC
  8
DETAIL
  6
CONTINUOUS
 62
     5
 10
170.5
 20
96.5
 30
0.0
 40
7.5
 50
180.0
 51
0.0
  0
CIRCLE
  8
FIX
  6
CONTINUOUS
 62
    11
 10
170.5
 20
100.0
 30
0.0
 40
7.5
  0
LINE
  8
NOTE
  6
CONTINUOUS
 62
     4
 10
146.0
 20
100.0
 30
0.0
 11
186.0
 21
100.0
 31
0.0
  0
LINE
  8
DETAIL
  6
CONTINUOUS
 62
     5
 10
155.25
 20
130.0
 30
0.0
 11
153.5
 21
130.0
 31
0.0
  0
LINE
  8
DETAIL
  6
CONTINUOUS
 62
     5
 10
163.0
 20
103.5
 30
0.0
 11
163.0
 21
96.5
 31
0.0
  0
CIRCLE
  8
FIX
  6
CONTINUOUS
 62
    11
 10
166.0
 20
100.0
 30
0.0
 40
2.5
  0
LINE
  8
DETAIL
  6
CONTINUOUS
 62
     5
 10
178.0
 20
103.5
 30
0.0
 11
178.0
 21
96.5
 31
0.0
  0
LINE
  8
NOTE
  6
CONTINUOUS
 62
     4
 10
120.0
 20
166.0
 30
0.0
 11
80.0
 21
166.0
 31
0.0
  0
LINE
  8
NOTE
  6
CONTINUOUS
 62
     4
 10
100.8559486829804
 20
166.26819163336771
 30
0.0
 11
132.5306005583561
 21
190.69597185607651
 31
0.0
  0
LINE
  8
NOTE
  6
CONTINUOUS
 62
     4
 10
116.0731109739959
 20
203.26059585471469
 30
0.0
 11
100.8559486829804
 21
166.26819163336771
 31
0.0
  0
ARC
  8
DETAIL
  6
CONTINUOUS
 62
     5
 10
100.0
 20
167.5
 30
0.0
 40
2.5
 50
0.0
 51
180.0
  0
LINE
  8
DETAIL
  6
CONTINUOUS
 62
     5
 10
97.5
 20
167.5
 30
0.0
 11
97.5
 21
164.5
 31
0.0
  0
LINE
  8
DETAIL
  6
CONTINUOUS
 62
     5
 10
102.5
 20
167.5
 30
0.0
 11
102.5
 21
164.5
 31
0.0
  0
ARC
  8
OUTLINE
  6
CONTINUOUS
 62
     3
 10
182.0
 20
182.0
 30
0.0
 40
8.0
 50
0.0
 51
90.0
  0
ARC
  8
DETAIL
  6
CONTINUOUS
 62
     5
 10
182.0
 20
182.0
 30
0.0
 40
8.0
 50
0.0
 51
90.0
  0
CIRCLE
  8
SIZE
  6
CONTINUOUS
 62
    30
 10
170.5
 20
483.73704806950627
 30
0.0
 40
6.0
  0
LINE
  8
SIZE
  6
CONTINUOUS
 62
    30
 10
170.5
 20
483.73704806950627
 30
0.0
 11
158.5
 21
483.73704806950627
 31
0.0
  0
LINE
  8
SIZE
  6
CONTINUOUS
 62
    30
 10
174.5
 20
611.93698006950672
 30
0.0
 11
162.5
 21
611.93698006950672
 31
0.0
  0
CIRCLE
  8
SIZE
  6
CONTINUOUS
 62
    30
 10
174.5
 20
611.93698006950672
 30
0.0
 40
6.0
  0
LINE
  8
SIZE
  6
CONTINUOUS
 62
    30
 10
896.21124999999984
 20
174.5
 30
0.0
 11
896.21124999999984
 21
162.5
 31
0.0
  0
LINE
  8
SIZE
  6
CONTINUOUS
 62
    30
 10
766.834339
 20
166.0
 30
0.0
 11
766.834339
 21
154.0
 31
0.0
  0
CIRCLE
  8
SIZE
  6
CONTINUOUS
 62
    30
 10
766.834339
 20
166.0
 30
0.0
 40
6.0
  0
CIRCLE
  8
SIZE
  6
CONTINUOUS
 62
    30
 10
896.21124999999984
 20
174.5
 30
0.0
 40
6.0
  0
LINE
  8
SIZE
  6
CONTINUOUS
 62
    30
 10
190.0
 20
731.04051506950691
 30
0.0
 11
178.0
 21
731.04051506950691
 31
0.0
  0
CIRCLE
  8
SIZE
  6
CONTINUOUS
 62
    30
 10
190.0
 20
731.04051506950691
 30
0.0
 40
6.0
  0
LINE
  8
SIZE
  6
CONTINUOUS
 62
    30
 10
0.0
 20
-254.13516899999991
 30
0.0
 11
0.0
 21
-441.16730263393669
 31
0.0
  0
LINE
  8
SIZE
  6
CONTINUOUS
 62
    30
 10
-86.0
 20
-341.49999999999972
 30
0.0
 11
-86.0
 21
-441.16730263393669
 31
0.0
  0
LINE
  8
SIZE
  6
CONTINUOUS
 62
    30
 10
-74.0
 20
-421.16730263393669
 30
0.0
 11
-12.0
 21
-421.16730263393669
 31
0.0
  0
LINE
  8
SIZE
  6
CONTINUOUS
 62
    30
 10
0.0
 20
-421.16730263393669
 30
0.0
 11
152.51428571428551
 21
-421.16730263393669
 31
0.0
  0
CIRCLE
  8
SIZE
  6
CONTINUOUS
 62
    30
 10
-86.0
 20
-421.16730263393669
 30
0.0
 40
6.0
  0
LINE
  8
SIZE
  6
CONTINUOUS
 62
    30
 10
-86.0
 20
-421.16730263393669
 30
0.0
 11
-74.0
 21
-421.16730263393669
 31
0.0
  0
CIRCLE
  8
SIZE
  6
CONTINUOUS
 62
    30
 10
0.0
 20
-421.16730263393669
 30
0.0
 40
6.0
  0
LINE
  8
SIZE
  6
CONTINUOUS
 62
    30
 10
0.0
 20
-421.16730263393669
 30
0.0
 11
-12.0
 21
-421.16730263393669
 31
0.0
  0
TEXT
  8
SIZE
  6
CONTINUOUS
 62
    30
 10
36.999999999999893
 20
-396.16730263393669
 30
0.0
 40
64.0
  1
86
 41
0.9
 72
     1
 11
82.257142857142753
 21
-396.16730263393669
 31
0.0
  0
POINT
  8
DEFPOINTS
  6
CONTINUOUS
 62
    30
 10
0.0
 20
-234.13516899999991
 30
0.0
  0
POINT
  8
DEFPOINTS
  6
CONTINUOUS
 62
    30
 10
-86.0
 20
-321.49999999999972
 30
0.0
  0
POINT
  8
DEFPOINTS
  6
CONTINUOUS
 62
    30
 10
-86.0
 20
-421.16730263393669
 30
0.0
  0
LINE
  8
SIZE
  6
CONTINUOUS
 62
    30
 10
407.67931016348939
 20
274.74225860519351
 30
0.0
 11
66.235452329053714
 21
32.654455824597107
 31
0.0
  0
LINE
  8
SIZE
  6
CONTINUOUS
 62
    30
 10
-20.235452329052801
 20
-28.654455824597111
 30
0.0
 11
-30.024611346951591
 21
-35.595087332053033
 31
0.0
  0
TEXT
  8
SIZE
  6
CONTINUOUS
 62
    30
 10
242.60179593851319
 20
188.34646149371659
 30
0.0
 40
64.0
  1
φ82
 50
35.33709948456341
 41
0.9
 72
     1
 11
313.53124527963149
 21
238.6362943591688
 31
0.0
  0
LINE
  8
SIZE
  6
CONTINUOUS
 62
    30
 10
-10.446293311154021
 20
-21.713824317141189
 30
0.0
 11
56.446293311154932
 21
25.713824317141189
 31
0.0
  0
CIRCLE
  8
SIZE
  6
CONTINUOUS
 62
    30
 10
-10.446293311154021
 20
-21.713824317141189
 30
0.0
 40
6.0
  0
LINE
  8
SIZE
  6
CONTINUOUS
 62
    30
 10
-10.446293311154021
 20
-21.713824317141189
 30
0.0
 11
-20.235452329052801
 21
-28.654455824597111
 31
0.0
  0
CIRCLE
  8
SIZE
  6
CONTINUOUS
 62
    30
 10
56.446293311154932
 20
25.713824317141189
 30
0.0
 40
6.0
  0
LINE
  8
SIZE
  6
CONTINUOUS
 62
    30
 10
56.446293311154932
 20
25.713824317141189
 30
0.0
 11
66.235452329053714
 21
32.654455824597107
 31
0.0
  0
POINT
  8
DEFPOINTS
  6
CONTINUOUS
 62
    30
 10
56.446293311154932
 20
25.713824317141189
 30
0.0
  0
POINT
  8
DEFPOINTS
  6
CONTINUOUS
 62
    30
 10
-10.446293311154021
 20
-21.713824317141189
 30
0.0
  0
LINE
  8
SIZE
  6
CONTINUOUS
 62
    30
 10
186.0
 20
100.0
 30
0.0
 11
524.09251651550494
 21
99.999999999999886
 31
0.0
  0
LINE
  8
SIZE
  6
CONTINUOUS
 62
    30
 10
186.0
 20
-100.0
 30
0.0
 11
524.09251651550494
 21
-100.0000000000001
 31
0.0
  0
LINE
  8
SIZE
  6
CONTINUOUS
 62
    30
 10
504.09251651550488
 20
87.999999999999886
 30
0.0
 11
504.09251651550488
 21
-88.000000000000114
 31
0.0
  0
CIRCLE
  8
SIZE
  6
CONTINUOUS
 62
    30
 10
504.09251651550488
 20
99.999999999999886
 30
0.0
 40
6.0
  0
LINE
  8
SIZE
  6
CONTINUOUS
 62
    30
 10
504.09251651550488
 20
99.999999999999886
 30
0.0
 11
504.09251651550488
 21
87.999999999999886
 31
0.0
  0
CIRCLE
  8
SIZE
  6
CONTINUOUS
 62
    30
 10
504.09251651550488
 20
-100.0000000000001
 30
0.0
 40
6.0
  0
LINE
  8
SIZE
  6
CONTINUOUS
 62
    30
 10
504.09251651550488
 20
-100.0000000000001
 30
0.0
 11
504.09251651550488
 21
-88.000000000000114
 31
0.0
  0
TEXT
  8
SIZE
  6
CONTINUOUS
 62
    30
 10
479.09251651550488
 20
-74.05714285714285
 30
0.0
 40
64.0
  1
200
 50
90.0
 41
0.9
 72
     1
 11
479.09251651550488
 21
0.0
 31
0.0
  0
POINT
  8
DEFPOINTS
  6
CONTINUOUS
 62
    30
 10
166.0
 20
100.0
 30
0.0
  0
POINT
  8
DEFPOINTS
  6
CONTINUOUS
 62
    30
 10
166.0
 20
-100.0
 30
0.0
  0
POINT
  8
DEFPOINTS
  6
CONTINUOUS
 62
    30
 10
504.09251651550488
 20
-100.0000000000001
 30
0.0
  0
LINE
  8
SIZE
  6
CONTINUOUS
 62
    30
 10
-153.5
 20
-173.5
 30
0.0
 11
-153.5
 21
-499.76413224008411
 31
0.0
  0
LINE
  8
SIZE
  6
CONTINUOUS
 62
    30
 10
-179.0
 20
-173.5
 30
0.0
 11
-179.0
 21
-499.76413224008411
 31
0.0
  0
LINE
  8
SIZE
  6
CONTINUOUS
 62
    30
 10
-141.5
 20
-479.76413224008411
 30
0.0
 11
-129.5
 21
-479.76413224008411
 31
0.0
  0
LINE
  8
SIZE
  6
CONTINUOUS
 62
    30
 10
-191.0
 20
-479.76413224008411
 30
0.0
 11
-423.22024260863049
 21
-479.76413224008411
 31
0.0
  0
LINE
  8
SIZE
  6
CONTINUOUS
 62
    30
 10
-153.5
 20
-479.76413224008411
 30
0.0
 11
-179.0
 21
-479.76413224008411
 31
0.0
  0
CIRCLE
  8
SIZE
  6
CONTINUOUS
 62
    30
 10
-153.5
 20
-479.76413224008411
 30
0.0
 40
6.0
  0
LINE
  8
SIZE
  6
CONTINUOUS
 62
    30
 10
-153.5
 20
-479.76413224008411
 30
0.0
 11
-141.5
 21
-479.76413224008411
 31
0.0
  0
CIRCLE
  8
SIZE
  6
CONTINUOUS
 62
    30
 10
-179.0
 20
-479.76413224008411
 30
0.0
 40
6.0
  0
LINE
  8
SIZE
  6
CONTINUOUS
 62
    30
 10
-179.0
 20
-479.76413224008411
 30
0.0
 11
-191.0
 21
-479.76413224008411
 31
0.0
  0
TEXT
  8
SIZE
  6
CONTINUOUS
 62
    30
 10
-398.22024260863071
 20
-454.76413224008411
 30
0.0
 40
64.0
  1
26
 41
0.9
 72
     1
 11
-352.96309975148779
 21
-454.76413224008411
 31
0.0
  0
POINT
  8
DEFPOINTS
  6
CONTINUOUS
 62
    30
 10
-153.5
 20
-153.5
 30
0.0
  0
POINT
  8
DEFPOINTS
  6
CONTINUOUS
 62
    30
 10
-179.0
 20
-153.5
 30
0.0
  0
POINT
  8
DEFPOINTS
  6
CONTINUOUS
 62
    30
 10
-179.0
 20
-479.76413224008411
 30
0.0
  0
LINE
  8
SIZE
  6
CONTINUOUS
 62
    30
 10
-174.98472099671201
 20
-295.49999999999937
 30
0.0
 11
-508.7510665215932
 21
-295.49999999999937
 31
0.0
  0
LINE
  8
SIZE
  6
CONTINUOUS
 62
    30
 10
-138.9923604979476
 20
-341.54554870407031
 30
0.0
 11
-508.7510665215932
 21
-341.54554870407031
 31
0.0
  0
LINE
  8
SIZE
  6
CONTINUOUS
 62
    30
 10
-488.7510665215932
 20
-283.49999999999937
 30
0.0
 11
-488.7510665215932
 21
-271.49999999999937
 31
0.0
  0
LINE
  8
SIZE
  6
CONTINUOUS
 62
    30
 10
-488.7510665215932
 20
-353.54554870407031
 30
0.0
 11
-488.7510665215932
 21
-591.53983441835601
 31
0.0
  0
LINE
  8
SIZE
  6
CONTINUOUS
 62
    30
 10
-488.7510665215932
 20
-295.49999999999937
 30
0.0
 11
-488.7510665215932
 21
-341.54554870407031
 31
0.0
  0
CIRCLE
  8
SIZE
  6
CONTINUOUS
 62
    30
 10
-488.7510665215932
 20
-295.49999999999937
 30
0.0
 40
6.0
  0
LINE
  8
SIZE
  6
CONTINUOUS
 62
    30
 10
-488.7510665215932
 20
-295.49999999999937
 30
0.0
 11
-488.7510665215932
 21
-283.49999999999937
 31
0.0
  0
CIRCLE
  8
SIZE
  6
CONTINUOUS
 62
    30
 10
-488.7510665215932
 20
-341.54554870407031
 30
0.0
 40
6.0
  0
LINE
  8
SIZE
  6
CONTINUOUS
 62
    30
 10
-488.7510665215932
 20
-341.54554870407031
 30
0.0
 11
-488.7510665215932
 21
-353.54554870407031
 31
0.0
  0
TEXT
  8
SIZE
  6
CONTINUOUS
 62
    30
 10
-513.7510665215932
 20
-593.419834418356
 30
0.0
 40
64.0
  1
（46）
 50
90.0
 41
0.9
 72
     1
 11
-513.7510665215932
 21
-479.04269156121308
 31
0.0
  0
POINT
  8
DEFPOINTS
  6
CONTINUOUS
 62
    30
 10
-154.98472099671201
 20
-295.49999999999937
 30
0.0
  0
POINT
  8
DEFPOINTS
  6
CONTINUOUS
 62
    30
 10
-118.9923604979476
 20
-341.54554870407043
 30
0.0
  0
POINT
  8
DEFPOINTS
  6
CONTINUOUS
 62
    30
 10
-488.7510665215932
 20
-341.54554870407031
 30
0.0
  0
ARC
  8
DETAIL
  6
DIVIDE
 62
     5
 10
-90.551431259696983
 20
-295.69945317337209
 30
0.0
 40
61.433613514755358
 50
179.81398058054489
 51
199.38703122221821
  0
ARC
  8
DETAIL
  6
DIVIDE
 62
     5
 10
-102.4180232819235
 20
-299.87227966888048
 30
0.0
 40
48.854723387499192
 50
199.39039584754781
 51
215.23646079412251
  0
ARC
  8
DETAIL
  6
DIVIDE
 62
     5
 10
-112.8212188530069
 20
-307.30717854410761
 30
0.0
 40
36.068110688870149
 50
215.12444512108169
 51
234.5372303723677
  0
ARC
  8
DETAIL
  6
DIVIDE
 62
     5
 10
-118.70049451047591
 20
-315.83739630250238
 30
0.0
 40
25.709809133035609
 50
234.17980742520959
 51
269.34954598794172
  0
ARC
  8
DETAIL
  6
DIVIDE
 62
     5
 10
-119.2842264862356
 20
-315.83739630250238
 30
0.0
 40
25.709809133035691
 50
270.65045401205828
 51
305.82019257479038
  0
ARC
  8
DETAIL
  6
DIVIDE
 62
     5
 10
-125.1635021437028
 20
-307.30717854410921
 30
0.0
 40
36.068110688867812
 50
305.46276962763233
 51
324.87555487891831
  0
ARC
  8
DETAIL
  6
DIVIDE
 62
     5
 10
-135.5666977147871
 20
-299.87227966888082
 30
0.0
 40
48.854723387498581
 50
324.76353920587752
 51
340.60960415245222
  0
ARC
  8
DETAIL
  6
DIVIDE
 62
     5
 10
-147.43328973701409
 20
-295.69945317337232
 30
0.0
 40
61.43361351475469
 50
340.61296877778182
 51
0.1860194194550529
  0
LINE
  8
OUTLINE
  6
CONTINUOUS
 62
     3
 10
-166.0
 20
-238.5
 30
0.0
 11
-166.0
 21
-189.99999999999801
 31
0.0
  0
LINE
  8
OUTLINE
  6
CONTINUOUS
 62
     3
 10
-6.0
 20
-238.5
 30
0.0
 11
-6.0
 21
-189.99999999999801
 31
0.0
  0
LINE
  8
OUTLINE
  6
CONTINUOUS
 62
     3
 10
-158.0
 20
-295.5
 30
0.0
 11
-14.0
 21
-295.5
 31
0.0
  0
LINE
  8
OUTLINE
  6
CONTINUOUS
 62
     3
 10
-166.0
 20
-238.5
 30
0.0
 11
-6.0
 21
-238.5
 31
0.0
  0
LINE
  8
OUTLINE
  6
CONTINUOUS
 62
     3
 10
-162.0
 20
-268.5
 30
0.0
 11
-10.0
 21
-268.5
 31
0.0
  0
LINE
  8
OUTLINE
  6
CONTINUOUS
 62
     3
 10
-162.0
 20
-268.5
 30
0.0
 11
-162.0
 21
-238.5
 31
0.0
  0
LINE
  8
OUTLINE
  6
CONTINUOUS
 62
     3
 10
-158.0
 20
-295.5
 30
0.0
 11
-158.0
 21
-268.5
 31
0.0
  0
LINE
  8
OUTLINE
  6
CONTINUOUS
 62
     3
 10
-10.0
 20
-268.5
 30
0.0
 11
-10.0
 21
-238.5
 31
0.0
  0
LINE
  8
OUTLINE
  6
CONTINUOUS
 62
     3
 10
-14.0
 20
-295.5
 30
0.0
 11
-14.0
 21
-268.5
 31
0.0
  0
TEXT
  8
ETC
  6
CONTINUOUS
 62
    61
 10
693.20939774732005
 20
785.86043801541518
 30
0.0
 40
64.0
  1
VD-18ZXP13-X_1
 41
0.9
  0
TEXT
  8
ETC
  6
CONTINUOUS
 62
    61
 10
690.84221974731963
 20
681.07917253974256
 30
0.0
 40
64.0
  1
換気扇
 41
0.9
  0
TEXT
  8
ETC
  6
CONTINUOUS
 62
    61
 10
775.20316109080068
 20
598.01171829100622
 30
0.0
 40
40.0
  1
VD-18ZXP13-X
 41
0.9
  0
TEXT
  8
ETC
  6
CONTINUOUS
 62
    61
 10
775.20316109080068
 20
532.01171829100622
 30
0.0
 40
40.0
  1
VD-18ZLXP13-X
 41
0.9
  0
TEXT
  8
ETC
  6
CONTINUOUS
 62
    61
 10
775.20316109080068
 20
466.01171829100622
 30
0.0
 40
40.0
  1
VD-20ZX13-X
 41
0.9
  0
ENDSEC
  0
EOF
