  0
SECTION
  2
HEADER
  9
$ACADVER
  1
AC1009
  9
$DWGCODEPAGE
  3
dos932
  9
$INSBASE
 10
0.0
 20
0.0
 30
0.0
  9
$EXTMIN
 10
-866.49168293980438
 20
-648.55955884391369
 30
-0.0015258207003583
  9
$EXTMAX
 10
1265.748608037535
 20
795.95948091703394
 30
0.0000000349246037
  9
$LIMMIN
 10
-2970.0
 20
-2100.0
  9
$LIMMAX
 10
2970.0
 20
2100.0
  9
$ORTHOMODE
 70
     1
  9
$REGENMODE
 70
     1
  9
$FILLMODE
 70
     1
  9
$QTEXTMODE
 70
     0
  9
$MIRRTEXT
 70
     0
  9
$LTSCALE
 40
20.0
  9
$ATTMODE
 70
     1
  9
$TEXTSIZE
 40
64.0
  9
$TRACEWID
 40
0.05
  9
$TEXTSTYLE
  7
STANDARD
  9
$CLAYER
  8
SIZE
  9
$CELTYPE
  6
CONTINUOUS
  9
$CECOLOR
 62
     7
  9
$DIMSCALE
 40
1.0
  9
$DIMASZ
 40
12.0
  9
$DIMEXO
 40
20.0
  9
$DIMDLI
 40
200.0
  9
$DIMRND
 40
0.0
  9
$DIMDLE
 40
0.0
  9
$DIMEXE
 40
20.0
  9
$DIMTP
 40
0.0
  9
$DIMTM
 40
0.0
  9
$DIMTXT
 40
64.0
  9
$DIMCEN
 40
0.09
  9
$DIMTSZ
 40
0.0
  9
$DIMTOL
 70
     0
  9
$DIMLIM
 70
     0
  9
$DIMTIH
 70
     0
  9
$DIMTOH
 70
     0
  9
$DIMSE1
 70
     0
  9
$DIMSE2
 70
     0
  9
$DIMTAD
 70
     1
  9
$DIMZIN
 70
     8
  9
$DIMBLK
  1

  9
$DIMASO
 70
     1
  9
$DIMSHO
 70
     0
  9
$DIMPOST
  1

  9
$DIMAPOST
  1

  9
$DIMALT
 70
     0
  9
$DIMALTD
 70
     2
  9
$DIMALTF
 40
25.399999999999999
  9
$DIMLFAC
 40
1.0
  9
$DIMTOFL
 70
     1
  9
$DIMTVP
 40
0.0
  9
$DIMTIX
 70
     1
  9
$DIMSOXD
 70
     0
  9
$DIMSAH
 70
     0
  9
$DIMBLK1
  1

  9
$DIMBLK2
  1

  9
$DIMSTYLE
  2
STANDARD
  9
$DIMCLRD
 70
     7
  9
$DIMCLRE
 70
     7
  9
$DIMCLRT
 70
     7
  9
$DIMTFAC
 40
1.0
  9
$DIMGAP
 40
25.0
  9
$LUNITS
 70
     2
  9
$LUPREC
 70
     4
  9
$SKETCHINC
 40
0.1
  9
$FILLETRAD
 40
3.0
  9
$AUNITS
 70
     1
  9
$AUPREC
 70
     3
  9
$MENU
  1
ACAD
  9
$ELEVATION
 40
0.0
  9
$PELEVATION
 40
0.0
  9
$THICKNESS
 40
0.0
  9
$LIMCHECK
 70
     0
  9
$CHAMFERA
 40
0.0
  9
$CHAMFERB
 40
0.0
  9
$SKPOLY
 70
     0
  9
$TDCREATE
 40
2453019.62301037
  9
$TDUPDATE
 40
2459025.512855972
  9
$TDINDWG
 40
1.7133840394
  9
$TDUSRTIMER
 40
1.7133840394
  9
$USRTIMER
 70
     1
  9
$ANGBASE
 50
0.0
  9
$ANGDIR
 70
     0
  9
$PDMODE
 70
     3
  9
$PDSIZE
 40
-2.0
  9
$PLINEWID
 40
0.0
  9
$SPLFRAME
 70
     0
  9
$SPLINETYPE
 70
     6
  9
$SPLINESEGS
 70
     8
  9
$SURFTAB1
 70
     6
  9
$SURFTAB2
 70
     6
  9
$SURFTYPE
 70
     6
  9
$SURFU
 70
     6
  9
$SURFV
 70
     6
  9
$UCSNAME
  2

  9
$UCSORG
 10
0.0
 20
0.0
 30
0.0
  9
$UCSXDIR
 10
1.0
 20
0.0
 30
0.0
  9
$UCSYDIR
 10
0.0
 20
1.0
 30
0.0
  9
$PUCSNAME
  2

  9
$PUCSORG
 10
0.0
 20
0.0
 30
0.0
  9
$PUCSXDIR
 10
1.0
 20
0.0
 30
0.0
  9
$PUCSYDIR
 10
0.0
 20
1.0
 30
0.0
  9
$USERI1
 70
     0
  9
$USERI2
 70
     0
  9
$USERI3
 70
     0
  9
$USERI4
 70
     0
  9
$USERI5
 70
     0
  9
$USERR1
 40
20.0
  9
$USERR2
 40
0.0
  9
$USERR3
 40
0.0
  9
$USERR4
 40
0.0
  9
$USERR5
 40
0.0
  9
$WORLDVIEW
 70
     1
  9
$SHADEDGE
 70
     3
  9
$SHADEDIF
 70
    70
  9
$TILEMODE
 70
     1
  9
$MAXACTVP
 70
    48
  9
$PINSBASE
 10
0.0
 20
0.0
 30
0.0
  9
$PLIMCHECK
 70
     0
  9
$PEXTMIN
 10
-100000000000000000000.0
 20
-100000000000000000000.0
 30
-100000000000000000000.0
  9
$PEXTMAX
 10
100000000000000000000.0
 20
100000000000000000000.0
 30
100000000000000000000.0
  9
$PLIMMIN
 10
0.0
 20
0.0
  9
$PLIMMAX
 10
12.0
 20
9.0
  9
$UNITMODE
 70
     0
  9
$VISRETAIN
 70
     0
  9
$PLINEGEN
 70
     0
  9
$PSLTSCALE
 70
     0
  9
$TREEDEPTH
 70
  3020
  9
$ATTDIA
 70
     0
  9
$ATTREQ
 70
     1
  9
$BLIPMODE
 70
     1
  9
$COORDS
 70
     1
  9
$DRAGMODE
 70
     2
  9
$OSMODE
 70
     0
  9
$HANDLING
 70
     0
  9
$HANDSEED
  5
F106
  0
ENDSEC
  0
SECTION
  2
TABLES
  0
TABLE
  2
LTYPE
 70
     2
  0
LTYPE
  2
CONTINUOUS
 70
     0
  3
実線
 72
    65
 73
     0
 40
0.0
  0
LTYPE
  2
DASHDOT
 70
     0
  3
____ _ ____ _ ____ _ ____ _ ____ _ ____ _ ____
 72
    65
 73
     4
 40
5.5
 49
4.0
 49
-0.6
 49
0.3
 49
-0.6
  0
ENDTAB
  0
TABLE
  2
LAYER
 70
    12
  0
LAYER
  2
0
 70
     0
 62
     7
  6
CONTINUOUS
  0
LAYER
  2
BASIS
 70
     0
 62
     6
  6
DASHDOT
  0
LAYER
  2
OUTLINE
 70
     0
 62
     3
  6
CONTINUOUS
  0
LAYER
  2
DETAIL
 70
     0
 62
     5
  6
CONTINUOUS
  0
LAYER
  2
SIZE
 70
     0
 62
    30
  6
CONTINUOUS
  0
LAYER
  2
ARRANGE
 70
     0
 62
     1
  6
CONTINUOUS
  0
LAYER
  2
DEFPOINTS
 70
     0
 62
     7
  6
CONTINUOUS
  0
LAYER
  2
ETC
 70
     0
 62
    61
  6
CONTINUOUS
  0
LAYER
  2
FIX
 70
     0
 62
    11
  6
CONTINUOUS
  0
LAYER
  2
NOTE
 70
     0
 62
     4
  6
CONTINUOUS
  0
LAYER
  2
SERVICESPACE
 70
    64
 62
     2
  6
DASHDOT
  0
LAYER
  2
SYMBOLLINE
 70
    64
 62
    15
  6
CONTINUOUS
  0
ENDTAB
  0
TABLE
  2
STYLE
 70
     1
  0
STYLE
  2
STANDARD
 70
     0
 40
64.0
 41
0.9
 50
0.0
 71
     0
 42
64.0
  3
SIMPLEX.shx
  4
BIGFONT.shx
  0
ENDTAB
  0
TABLE
  2
APPID
 70
    19
  0
APPID
  2
ACAD
 70
     0
  0
APPID
  2
AUTOCAD_POSTSCRIPT_FIGURE
 70
     0
  0
APPID
  2
ACAD_EXEMPT_FROM_CAD_STANDARDS
 70
     0
  0
APPID
  2
ACAD_PSEXT
 70
     0
  0
APPID
  2
ACAUTHENVIRON
 70
     0
  0
APPID
  2
GENIUS_GENOENT_13
 70
     0
  0
APPID
  2
GENIUS_GENCFG_13
 70
     0
  0
APPID
  2
GENIUS_GENCFG0_13
 70
     0
  0
APPID
  2
GENIUS_GENCFG1_13
 70
     0
  0
APPID
  2
GENIUS_GENCFG2_13
 70
     0
  0
APPID
  2
GENIUS_GENCFG3_13
 70
     0
  0
APPID
  2
GENIUS_GENCFG4_13
 70
     0
  0
APPID
  2
GENIUS_GEVCFG0_13
 70
     0
  0
APPID
  2
CONTENTBLOCKICON
 70
     0
  0
APPID
  2
CONTENTBLOCKDESCRIPTION
 70
     0
  0
APPID
  2
ACAD_NAV_VCDISPLAY
 70
     0
  0
APPID
  2
ACAD_MLEADERVER
 70
     0
  0
APPID
  2
ACDBDYNAMICBLOCKTRUENAME
 70
     0
  0
APPID
  2
ACDBDYNAMICBLOCKGUID
 70
     0
  0
ENDTAB
  0
TABLE
  2
DIMSTYLE
 70
     1
  0
DIMSTYLE
  2
STANDARD
 70
     0
  3

  4

  5
_ORIGIN
  6

  7

 40
1.0
 41
12.0
 42
20.0
 43
200.0
 44
20.0
 45
0.0
 46
0.0
 47
0.0
 48
0.0
140
64.0
141
0.09
142
0.0
143
25.399999999999999
144
1.0
145
0.0
146
1.0
147
25.0
 71
     0
 72
     0
 73
     0
 74
     0
 75
     0
 76
     0
 77
     1
 78
     8
170
     0
171
     2
172
     1
173
     0
174
     1
175
     0
176
     7
177
     7
178
     7
  0
ENDTAB
  0
TABLE
  2
VIEW
 70
     1
  0
VIEW
  2
ALL
 70
     0
 40
4282.6198079999986
 10
0.0
 20
41.309904000000003
 41
5940.0
 11
0.0
 21
0.0
 31
1.0
 12
0.0
 22
0.0
 32
0.0
 42
50.0
 43
0.0
 44
0.0
 50
0.0
 71
     0
  0
ENDTAB
  0
TABLE
  2
UCS
 70
     0
  0
ENDTAB
  0
TABLE
  2
VPORT
 70
     1
  0
VPORT
  2
*ACTIVE
 70
     0
 10
0.0
 20
0.0
 11
1.0
 21
1.0
 12
199.628462548865
 22
73.699961036560126
 13
0.0
 23
0.0
 14
1.0
 24
1.0
 15
0.0
 25
0.0
 16
0.0
 26
0.0
 36
1.0
 17
0.0
 27
0.0
 37
0.0
 40
1454.0959615715169
 41
1.747787610619469
 42
50.0
 43
0.0
 44
0.0
 50
0.0
 51
0.0
 71
     0
 72
  1000
 73
     1
 74
     3
 75
     0
 76
     0
 77
     0
 78
     0
  0
ENDTAB
  0
ENDSEC
  0
SECTION
  2
BLOCKS
  0
BLOCK
  8
0
  2
_ORIGIN
 70
     0
 10
0.0
 20
0.0
 30
0.0
  3
_ORIGIN
  1
_ORIGIN
  0
CIRCLE
  8
0
  6
CONTINUOUS
 62
     7
 10
0.0
 20
0.0
 30
0.0
 40
0.5
  0
LINE
  8
0
  6
CONTINUOUS
 62
     7
 10
0.0
 20
0.0
 30
0.0
 11
-1.0
 21
0.0
 31
0.0
  0
ENDBLK
  8
0
  0
ENDSEC
  0
SECTION
  2
ENTITIES
  0
POINT
  8
ARRANGE
  6
CONTINUOUS
 62
     1
 10
0.0
 20
0.0
 30
0.0
  0
LINE
  8
OUTLINE
  6
CONTINUOUS
 62
     3
 10
-190.0
 20
0.0
 30
0.0
 11
190.0
 21
0.0
 31
0.0
  0
LINE
  8
OUTLINE
  6
CONTINUOUS
 62
     3
 10
153.99999699999989
 20
0.0
 30
0.0
 11
0.0
 21
0.0
 31
0.0
  0
LINE
  8
OUTLINE
  6
CONTINUOUS
 62
     3
 10
153.5
 20
200.0
 30
0.0
 11
16.5
 21
200.0
 31
0.0
  0
LINE
  8
BASIS
  6
DASHDOT
 62
     6
 10
21.017730999999909
 20
135.0
 30
0.0
 11
-194.4346610000002
 21
135.0
 31
0.0
  0
LINE
  8
DETAIL
  6
CONTINUOUS
 62
     5
 10
-190.0
 20
-7.0
 30
0.0
 11
190.0
 21
-7.0
 31
0.0
  0
LINE
  8
DETAIL
  6
CONTINUOUS
 62
     5
 10
-119.9879718812562
 20
-18.0
 30
0.0
 11
120.03172758908509
 21
-18.0
 31
0.0
  0
LINE
  8
DETAIL
  6
CONTINUOUS
 62
     5
 10
-119.9803176238738
 20
-25.0
 30
0.0
 11
120.0519178730483
 21
-25.0
 31
0.0
  0
LINE
  8
DETAIL
  6
CONTINUOUS
 62
     5
 10
-190.0
 20
0.0
 30
0.0
 11
190.0
 21
0.0
 31
0.0
  0
LINE
  8
DETAIL
  6
CONTINUOUS
 62
     5
 10
153.99999699999989
 20
0.0
 30
0.0
 11
0.0
 21
0.0
 31
0.0
  0
TEXT
  8
SIZE
  6
CONTINUOUS
 62
    30
 10
-118.9451978571427
 20
-601.07814359970632
 30
0.0
 40
64.0
  1
□380
 41
0.9
 72
     1
 11
-8.4080549999998766
 21
-601.07814359970632
 31
0.0
  0
LINE
  8
SIZE
  6
CONTINUOUS
 62
    30
 10
178.0
 20
-628.29406059970631
 30
0.0
 11
-178.0
 21
-628.29406059970631
 31
0.0
  0
TEXT
  8
SIZE
  6
CONTINUOUS
 62
    30
 10
-61.714285714285708
 20
731.77992927709374
 30
0.0
 40
64.0
  1
341
 41
0.9
 72
     1
 11
0.0
 21
731.77992927709374
 31
0.0
  0
LINE
  8
SIZE
  6
CONTINUOUS
 62
    30
 10
158.5
 20
705.28611527709381
 30
0.0
 11
-158.5
 21
705.28611527709381
 31
0.0
  0
LINE
  8
SIZE
  6
CONTINUOUS
 62
    30
 10
-23.71602817240182
 20
243.0
 30
0.0
 11
-562.42338394354647
 21
243.0
 31
0.0
  0
TEXT
  8
SIZE
  6
CONTINUOUS
 62
    30
 10
-74.05714285714285
 20
-465.85833559970632
 30
0.0
 40
64.0
  1
332
 41
0.9
 72
     1
 11
0.0
 21
-465.85833559970632
 31
0.0
  0
LINE
  8
SIZE
  6
CONTINUOUS
 62
    30
 10
154.0
 20
-490.85833559970632
 30
0.0
 11
-154.0
 21
-490.85833559970632
 31
0.0
  0
TEXT
  8
SIZE
  6
CONTINUOUS
 62
    30
 10
-110.5371428571429
 20
597.21027431221137
 30
0.0
 40
64.0
  1
□307
 41
0.9
 72
     1
 11
0.0
 21
597.21027431221137
 31
0.0
  0
LINE
  8
SIZE
  6
CONTINUOUS
 62
    30
 10
141.5
 20
562.68725099874064
 30
0.0
 11
-141.5
 21
562.68725099874064
 31
0.0
  0
TEXT
  8
SIZE
  6
CONTINUOUS
 62
    30
 10
-74.05714285714285
 20
-193.55797216916901
 30
0.0
 40
64.0
  1
200
 41
0.9
 72
     1
 11
0.0
 21
-193.55797216916901
 31
0.0
  0
LINE
  8
SIZE
  6
CONTINUOUS
 62
    30
 10
88.0
 20
-224.83917616916909
 30
0.0
 11
-88.0
 21
-224.83917616916909
 31
0.0
  0
TEXT
  8
SIZE
  6
CONTINUOUS
 62
    30
 10
-63.910580428571251
 20
460.75981474916853
 30
0.0
 40
64.0
  1
φ82
 41
0.9
 72
     1
 11
23.037991000000151
 21
460.75981474916853
 31
0.0
  0
LINE
  8
SIZE
  6
CONTINUOUS
 62
    30
 10
52.037992000000031
 20
434.06866274916871
 30
0.0
 11
-5.9620100000001912
 21
434.06866274916871
 31
0.0
  0
LINE
  8
DETAIL
  6
CONTINUOUS
 62
     5
 10
-25.691327000000001
 20
45.407433999999967
 30
0.0
 11
3.007913999999801
 21
72.006783000000041
 31
0.0
  0
LINE
  8
DETAIL
  6
CONTINUOUS
 62
     5
 10
-25.691327000000001
 20
224.59256600000001
 30
0.0
 11
3.007913999999801
 21
197.99321699999999
 31
0.0
  0
LINE
  8
DETAIL
  6
CONTINUOUS
 62
     5
 10
16.5
 20
229.0
 30
0.0
 11
-160.5
 21
229.0
 31
0.0
  0
LINE
  8
DETAIL
  6
CONTINUOUS
 62
     5
 10
-12.940000000000049
 20
240.9760839999999
 30
0.0
 11
23.0
 21
240.9760839999999
 31
0.0
  0
LINE
  8
DETAIL
  6
CONTINUOUS
 62
     5
 10
23.0
 20
243.0
 30
0.0
 11
-6.4689530000000559
 21
243.0
 31
0.0
  0
CIRCLE
  8
ARRANGE
  6
CONTINUOUS
 62
     1
 10
0.0
 20
0.0
 30
0.0
 40
40.0
  0
LINE
  8
OUTLINE
  6
CONTINUOUS
 62
     3
 10
-153.5
 20
0.0
 30
0.0
 11
-153.5
 21
49.997334000000137
 31
0.0
  0
LINE
  8
SIZE
  6
CONTINUOUS
 62
    30
 10
-542.42338394354647
 20
0.0
 30
0.0
 11
-542.42338394354647
 21
12.0
 31
0.0
  0
CIRCLE
  8
SIZE
  6
CONTINUOUS
 62
    30
 10
-542.42338394354647
 20
0.0
 30
0.0
 40
6.0
  0
LINE
  8
SIZE
  6
CONTINUOUS
 62
    30
 10
-542.42338394354647
 20
0.0
 30
0.0
 11
-542.42338394354647
 21
12.0
 31
0.0
  0
CIRCLE
  8
SIZE
  6
CONTINUOUS
 62
    30
 10
-542.42338394354647
 20
0.0
 30
0.0
 40
6.0
  0
CIRCLE
  8
FIX
  6
CONTINUOUS
 62
    11
 10
-166.0
 20
0.0
 30
0.0
 40
2.5
  0
LINE
  8
NOTE
  6
CONTINUOUS
 62
     4
 10
-166.0
 20
-20.0
 30
0.0
 11
-166.0
 21
20.0
 31
0.0
  0
CIRCLE
  8
FIX
  6
CONTINUOUS
 62
    11
 10
-100.0
 20
0.0
 30
0.0
 40
2.5
  0
LINE
  8
NOTE
  6
CONTINUOUS
 62
     4
 10
-100.0
 20
-20.0
 30
0.0
 11
-100.0
 21
20.0
 31
0.0
  0
LINE
  8
DETAIL
  6
CONTINUOUS
 62
     5
 10
-153.5
 20
0.0
 30
0.0
 11
-153.5
 21
45.997334000000137
 31
0.0
  0
LINE
  8
BASIS
  6
DASHDOT
 62
     6
 10
0.0
 20
-69.693458999999962
 30
0.0
 11
0.0
 21
291.47948300000007
 31
0.0
  0
LINE
  8
DETAIL
  6
CONTINUOUS
 62
     5
 10
-65.0
 20
-18.0
 30
0.0
 11
-65.0
 21
-7.0
 31
0.0
  0
LINE
  8
DETAIL
  6
CONTINUOUS
 62
     5
 10
-60.0
 20
-18.0
 30
0.0
 11
-60.0
 21
-7.0
 31
0.0
  0
LINE
  8
DETAIL
  6
CONTINUOUS
 62
     5
 10
-111.244631283027
 20
-18.0
 30
0.0
 11
-113.491458603411
 21
-7.0
 31
0.0
  0
LINE
  8
DETAIL
  6
CONTINUOUS
 62
     5
 10
-119.9803176238738
 20
-25.0
 30
0.0
 11
-120.0
 21
-7.0
 31
0.0
  0
LINE
  8
DETAIL
  6
CONTINUOUS
 62
     5
 10
-190.0
 20
-0.8571230000000014
 30
0.0
 11
-190.0
 21
-7.0
 31
0.0
  0
LINE
  8
SIZE
  6
CONTINUOUS
 62
    30
 10
-190.0
 20
-20.0
 30
0.0
 11
-190.0
 21
-648.29406059970609
 31
0.0
  0
LINE
  8
SIZE
  6
CONTINUOUS
 62
    30
 10
-166.0
 20
-40.0
 30
0.0
 11
-166.0
 21
-510.85833559970632
 31
0.0
  0
LINE
  8
SIZE
  6
CONTINUOUS
 62
    30
 10
-190.0
 20
-628.29406059970631
 30
0.0
 11
-178.0
 21
-628.29406059970631
 31
0.0
  0
CIRCLE
  8
SIZE
  6
CONTINUOUS
 62
    30
 10
-190.0
 20
-628.29406059970631
 30
0.0
 40
6.0
  0
LINE
  8
SIZE
  6
CONTINUOUS
 62
    30
 10
-166.0
 20
-490.85833559970632
 30
0.0
 11
-154.0
 21
-490.85833559970632
 31
0.0
  0
CIRCLE
  8
SIZE
  6
CONTINUOUS
 62
    30
 10
-166.0
 20
-490.85833559970632
 30
0.0
 40
6.0
  0
LINE
  8
SIZE
  6
CONTINUOUS
 62
    30
 10
-138.438326474371
 20
-25.0
 30
0.0
 11
-562.42338394354647
 21
-25.0
 31
0.0
  0
LINE
  8
SIZE
  6
CONTINUOUS
 62
    30
 10
-206.0
 20
0.0
 30
0.0
 11
-562.42338394354647
 21
0.0
 31
0.0
  0
LINE
  8
SIZE
  6
CONTINUOUS
 62
    30
 10
-210.0
 20
0.0
 30
0.0
 11
-562.42338394354647
 21
0.0
 31
0.0
  0
LINE
  8
NOTE
  6
CONTINUOUS
 62
     4
 10
-453.31714559130478
 20
-311.41596847016348
 30
0.0
 11
-866.35195940409039
 21
-311.41596847016348
 31
0.0
  0
TEXT
  8
NOTE
  6
CONTINUOUS
 62
     4
 10
-853.11004440409056
 20
-278.45169847016371
 30
0.0
 40
64.0
  1
8-φ5×8
 41
0.9
  0
LINE
  8
SIZE
  6
CONTINUOUS
 62
    30
 10
-542.42338394354647
 20
-20.0
 30
0.0
 11
-542.42338394354647
 21
-152.80473799999979
 31
0.0
  0
TEXT
  8
SIZE
  6
CONTINUOUS
 62
    30
 10
-565.79397994354656
 20
-143.9360284285714
 30
0.0
 40
64.0
  1
25
 50
90.0
 41
0.9
 72
     1
 11
-565.79397994354656
 21
-97.307456999999999
 31
0.0
  0
LINE
  8
SIZE
  6
CONTINUOUS
 62
    30
 10
-542.42338394354647
 20
-25.0
 30
0.0
 11
-542.42338394354647
 21
-37.0
 31
0.0
  0
CIRCLE
  8
SIZE
  6
CONTINUOUS
 62
    30
 10
-542.42338394354647
 20
-25.0
 30
0.0
 40
6.0
  0
LINE
  8
SIZE
  6
CONTINUOUS
 62
    30
 10
-542.42338394354647
 20
0.0
 30
0.0
 11
-542.42338394354647
 21
-25.0
 31
0.0
  0
LINE
  8
SIZE
  6
CONTINUOUS
 62
    30
 10
-542.42338394354647
 20
0.0
 30
0.0
 11
-542.42338394354647
 21
-25.0
 31
0.0
  0
LINE
  8
SIZE
  6
CONTINUOUS
 62
    30
 10
-542.42338394354647
 20
-37.0
 30
0.0
 11
-542.42338394354647
 21
-49.0
 31
0.0
  0
LINE
  8
SIZE
  6
CONTINUOUS
 62
    30
 10
-100.0
 20
-40.0
 30
0.0
 11
-100.0
 21
-244.83917616916909
 31
0.0
  0
LINE
  8
SIZE
  6
CONTINUOUS
 62
    30
 10
-153.5
 20
562.68725099874064
 30
0.0
 11
-141.5
 21
562.68725099874064
 31
0.0
  0
CIRCLE
  8
SIZE
  6
CONTINUOUS
 62
    30
 10
-153.5
 20
562.68725099874064
 30
0.0
 40
6.0
  0
LINE
  8
SIZE
  6
CONTINUOUS
 62
    30
 10
-100.0
 20
-224.83917616916909
 30
0.0
 11
-88.0
 21
-224.83917616916909
 31
0.0
  0
CIRCLE
  8
SIZE
  6
CONTINUOUS
 62
    30
 10
-100.0
 20
-224.83917616916909
 30
0.0
 40
6.0
  0
LINE
  8
NOTE
  6
CONTINUOUS
 62
     4
 10
-166.0059670000002
 20
-0.0577739999999949
 30
0.0
 11
-453.31714559130478
 21
-311.41596847016348
 31
0.0
  0
LINE
  8
OUTLINE
  6
CONTINUOUS
 62
     3
 10
-153.99999699999989
 20
0.0
 30
0.0
 11
0.0
 21
0.0
 31
0.0
  0
LINE
  8
DETAIL
  6
CONTINUOUS
 62
     5
 10
-153.99999699999989
 20
0.0
 30
0.0
 11
0.0
 21
0.0
 31
0.0
  0
LINE
  8
NOTE
  6
CONTINUOUS
 62
     4
 10
-80.0
 20
0.0
 30
0.0
 11
-120.0
 21
0.0
 31
0.0
  0
LINE
  8
NOTE
  6
CONTINUOUS
 62
     4
 10
-146.0
 20
0.0
 30
0.0
 11
-186.0
 21
0.0
 31
0.0
  0
LINE
  8
NOTE
  6
CONTINUOUS
 62
     4
 10
-165.9819589999997
 20
-0.0089269999999715
 30
0.0
 11
-197.25182970068821
 21
-17.889415999999979
 31
0.0
  0
LINE
  8
NOTE
  6
CONTINUOUS
 62
     4
 10
-180.87400916679141
 20
-33.384442000000043
 30
0.0
 11
-165.9819589999997
 21
-0.0089269999999715
 31
0.0
  0
LINE
  8
DETAIL
  6
CONTINUOUS
 62
     5
 10
-190.0
 20
-0.8571230000000014
 30
0.0
 11
-190.0
 21
0.0
 31
0.0
  0
LINE
  8
NOTE
  6
CONTINUOUS
 62
     4
 10
235.25579835067671
 20
236.07635497450659
 30
0.0
 11
467.57672660877142
 21
236.07635497450659
 31
0.0
  0
TEXT
  8
NOTE
  6
CONTINUOUS
 62
     4
 10
258.17808487023012
 20
271.26822197450662
 30
0.0
 40
64.0
  1
AH 4
 41
0.9
  0
CIRCLE
  8
SIZE
  6
CONTINUOUS
 62
    30
 10
-170.5
 20
705.28611527709381
 30
0.0
 40
6.0
  0
LINE
  8
SIZE
  6
CONTINUOUS
 62
    30
 10
-170.5
 20
248.0
 30
0.0
 11
-170.5
 21
725.28611527709381
 31
0.0
  0
LINE
  8
NOTE
  6
CONTINUOUS
 62
     4
 10
170.50825480306409
 20
207.02099450586141
 30
0.0
 11
235.25579835067671
 21
236.07635497450659
 31
0.0
  0
TEXT
  8
SIZE
  6
CONTINUOUS
 62
    30
 10
-572.24085194354655
 20
47.44285714285715
 30
0.0
 40
64.0
  1
243
 50
90.0
 41
0.9
 72
     1
 11
-572.24085194354655
 21
121.5
 31
0.0
  0
LINE
  8
SIZE
  6
CONTINUOUS
 62
    30
 10
-542.42338394354647
 20
12.0
 30
0.0
 11
-542.42338394354647
 21
231.0
 31
0.0
  0
LINE
  8
SIZE
  6
CONTINUOUS
 62
    30
 10
-542.42338394354647
 20
12.0
 30
0.0
 11
-542.42338394354647
 21
24.0
 31
0.0
  0
CIRCLE
  8
SIZE
  6
CONTINUOUS
 62
    30
 10
-542.42338394354647
 20
243.0
 30
0.0
 40
6.0
  0
LINE
  8
SIZE
  6
CONTINUOUS
 62
    30
 10
-542.42338394354647
 20
243.0
 30
0.0
 11
-542.42338394354647
 21
231.0
 31
0.0
  0
LINE
  8
SIZE
  6
CONTINUOUS
 62
    30
 10
-17.962010000000191
 20
253.33999999999969
 30
0.0
 11
-17.962010000000191
 21
454.06866274916871
 31
0.0
  0
ARC
  8
DETAIL
  6
CONTINUOUS
 62
     5
 10
-81.181724007856246
 20
200.34549882328179
 30
0.0
 40
2.0
 50
59.999999999999098
 51
150.0000000000077
  0
ARC
  8
DETAIL
  6
CONTINUOUS
 62
     5
 10
-140.18172400785619
 20
98.154501176717986
 30
0.0
 40
2.0
 50
150.0000000000077
 51
239.99999999999909
  0
LINE
  8
DETAIL
  6
CONTINUOUS
 62
     5
 10
-179.5
 20
67.997334000000137
 30
0.0
 11
-179.5
 21
207.0
 31
0.0
  0
LINE
  8
DETAIL
  6
CONTINUOUS
 62
     5
 10
-9.0
 20
85.0
 30
0.0
 11
-9.0
 21
185.0
 31
0.0
  0
CIRCLE
  8
DETAIL
  6
CONTINUOUS
 62
     5
 10
-86.0
 20
135.0
 30
0.0
 40
72.0
  0
CIRCLE
  8
DETAIL
  6
CONTINUOUS
 62
     5
 10
-86.0
 20
135.0
 30
0.0
 40
76.0
  0
LINE
  8
DETAIL
  6
CONTINUOUS
 62
     5
 10
-163.0
 20
85.0
 30
0.0
 11
-163.0
 21
185.0
 31
0.0
  0
LINE
  8
DETAIL
  6
CONTINUOUS
 62
     5
 10
-177.5
 20
85.0
 30
0.0
 11
-177.5
 21
190.4006509999999
 31
0.0
  0
LINE
  8
BASIS
  6
DASHDOT
 62
     6
 10
-86.0
 20
27.787792000000081
 30
0.0
 11
-86.0
 21
240.068172
 31
0.0
  0
LINE
  8
DETAIL
  6
CONTINUOUS
 62
     5
 10
-109.9149889716164
 20
78.578024038710737
 30
0.0
 11
-49.094629971617003
 21
183.92197596128949
 31
0.0
  0
LINE
  8
DETAIL
  6
CONTINUOUS
 62
     5
 10
-133.0
 20
54.0
 30
0.0
 11
-39.0
 21
54.0
 31
0.0
  0
LINE
  8
DETAIL
  6
CONTINUOUS
 62
     5
 10
-32.199241000000256
 20
43.0
 30
0.0
 11
-138.80075899999969
 21
43.0
 31
0.0
  0
TEXT
  8
NOTE
  6
CONTINUOUS
 62
     4
 10
-131.85405499999979
 20
79.456557999999859
 30
0.0
 40
64.0
  1
EA
 41
0.9
  0
LINE
  8
DETAIL
  6
CONTINUOUS
 62
     5
 10
-177.5
 20
85.0
 30
0.0
 11
-177.5
 21
79.599349000000075
 31
0.0
  0
ARC
  8
DETAIL
  6
CONTINUOUS
 62
     5
 10
-132.1325585279474
 20
84.855588521340906
 30
0.0
 40
30.867779280436508
 50
179.7319470782507
 51
268.38967103027642
  0
ARC
  8
DETAIL
  6
CONTINUOUS
 62
     5
 10
-157.70935300000019
 20
71.716104000000087
 30
0.0
 40
21.792462
 50
179.2605829999986
 51
265.28679500000482
  0
ARC
  8
DETAIL
  6
CONTINUOUS
 62
     5
 10
-167.5
 20
79.599349000000075
 30
0.0
 40
10.0
 50
180.0
 51
229.3987049999993
  0
LINE
  8
DETAIL
  6
CONTINUOUS
 62
     5
 10
-160.5
 20
49.997334000000137
 30
0.0
 11
-150.26092375868939
 21
49.997334000000137
 31
0.0
  0
ARC
  8
DETAIL
  6
CONTINUOUS
 62
     5
 10
-138.80075899999969
 20
53.0
 30
0.0
 40
10.0
 50
229.3987049999993
 51
270.0
  0
LINE
  8
DETAIL
  6
CONTINUOUS
 62
     5
 10
-145.308673
 20
45.407433999999967
 30
0.0
 11
-174.0079139999998
 21
72.006783000000041
 31
0.0
  0
LINE
  8
DETAIL
  6
CONTINUOUS
 62
     5
 10
-155.25
 20
49.997334000000137
 30
0.0
 11
-155.25
 21
7.0
 31
0.0
  0
LINE
  8
DETAIL
  6
CONTINUOUS
 62
     5
 10
-158.75
 20
49.997334000000137
 30
0.0
 11
-158.75
 21
7.0
 31
0.0
  0
LINE
  8
DETAIL
  6
CONTINUOUS
 62
     5
 10
-158.75
 20
7.0
 30
0.0
 11
-153.5
 21
7.0
 31
0.0
  0
ARC
  8
DETAIL
  6
CONTINUOUS
 62
     5
 10
-109.72224829879769
 20
80.568714676718173
 30
0.0
 40
2.0
 50
239.99999999999909
 51
284.99999999999437
  0
ARC
  8
DETAIL
  6
CONTINUOUS
 62
     5
 10
-77.250954041228852
 20
74.523110118346949
 30
0.0
 40
10.0
 50
239.99999999999909
 51
277.94346200000541
  0
LINE
  8
DETAIL
  6
CONTINUOUS
 62
     5
 10
-105.8723071349746
 20
78.923300378610293
 30
0.0
 11
-82.500954041228852
 21
65.429843378610258
 31
0.0
  0
ARC
  8
DETAIL
  6
CONTINUOUS
 62
     5
 10
-106.8723071349746
 20
77.191249571041226
 30
0.0
 40
2.0
 50
59.999999999999098
 51
104.9999999999945
  0
ARC
  8
DETAIL
  6
CONTINUOUS
 62
     5
 10
-77.250954041228852
 20
74.523110118346949
 30
0.0
 40
10.0
 50
239.99999999999909
 51
277.94346200000541
  0
LINE
  8
DETAIL
  6
CONTINUOUS
 62
     5
 10
-109.20461091443531
 20
78.63686292633065
 30
0.0
 11
-107.38994451933701
 21
79.123101321428976
 31
0.0
  0
LINE
  8
DETAIL
  6
CONTINUOUS
 62
     5
 10
-141.18172400785619
 20
96.422450369149146
 30
0.0
 11
-110.72224829879769
 21
78.836663869149106
 31
0.0
  0
ARC
  8
DETAIL
  6
CONTINUOUS
 62
     5
 10
-39.867441472052633
 20
84.855588521340906
 30
0.0
 40
30.867779280436491
 50
271.61032896972358
 51
0.2680529217493555
  0
ARC
  8
DETAIL
  6
CONTINUOUS
 62
     5
 10
-32.199241000000256
 20
53.0
 30
0.0
 40
10.0
 50
270.0
 51
310.60129500000062
  0
ARC
  8
DETAIL
  6
CONTINUOUS
 62
     5
 10
-50.722248298797687
 20
182.7597123232816
 30
0.0
 40
2.0
 50
15.00000000000116
 51
59.999999999999098
  0
ARC
  8
DETAIL
  6
CONTINUOUS
 62
     5
 10
-28.750954041228852
 20
158.5275742854374
 30
0.0
 40
10.0
 50
22.056538000001321
 51
59.999999999999098
  0
ARC
  8
DETAIL
  6
CONTINUOUS
 62
     5
 10
-46.372307134974562
 20
181.9803234289584
 30
0.0
 40
2.0
 50
195.00000000000111
 51
239.99999999999909
  0
LINE
  8
DETAIL
  6
CONTINUOUS
 62
     5
 10
-47.372307134974562
 20
180.24827262138959
 30
0.0
 11
-24.000954041228852
 21
166.75481562138981
 31
0.0
  0
LINE
  8
DETAIL
  6
CONTINUOUS
 62
     5
 10
-48.790396914435412
 20
183.27735107366931
 30
0.0
 11
-48.304158519336852
 21
181.46268467857089
 31
0.0
  0
LINE
  8
DETAIL
  6
CONTINUOUS
 62
     5
 10
-80.181724007856246
 20
202.0775496308506
 30
0.0
 11
-49.722248298797687
 21
184.49176313085081
 31
0.0
  0
LINE
  8
DETAIL
  6
CONTINUOUS
 62
     5
 10
-39.000001999999768
 20
215.0
 30
0.0
 11
-133.0000019999998
 21
215.0
 31
0.0
  0
LINE
  8
DETAIL
  6
CONTINUOUS
 62
     5
 10
-32.199241000000256
 20
227.0
 30
0.0
 11
-138.80075899999969
 21
227.0
 31
0.0
  0
LINE
  8
NOTE
  6
CONTINUOUS
 62
     4
 10
170.50825480306409
 20
207.02099450586141
 30
0.0
 11
209.842551398322
 21
214.28825620304499
 31
0.0
  0
LINE
  8
NOTE
  6
CONTINUOUS
 62
     4
 10
200.9391236144734
 20
232.98177643628381
 30
0.0
 11
170.50825480306409
 21
207.02099450586141
 31
0.0
  0
CIRCLE
  8
FIX
  6
CONTINUOUS
 62
    11
 10
-170.5
 20
207.0
 30
0.0
 40
7.5
  0
LINE
  8
NOTE
  6
CONTINUOUS
 62
     4
 10
-150.5
 20
207.0
 30
0.0
 11
-190.5
 21
207.0
 31
0.0
  0
ARC
  8
DETAIL
  6
CONTINUOUS
 62
     5
 10
-167.5
 20
190.4006509999999
 30
0.0
 40
10.0
 50
130.6012950000007
 51
180.0
  0
LINE
  8
DETAIL
  6
CONTINUOUS
 62
     5
 10
-185.75
 20
203.5
 30
0.0
 11
-179.5
 21
203.5
 31
0.0
  0
LINE
  8
DETAIL
  6
CONTINUOUS
 62
     5
 10
-185.75
 20
207.0
 30
0.0
 11
-180.48995800000009
 21
207.0
 31
0.0
  0
LINE
  8
DETAIL
  6
CONTINUOUS
 62
     5
 10
-185.75
 20
207.0
 30
0.0
 11
-185.75
 21
203.5
 31
0.0
  0
LINE
  8
DETAIL
  6
CONTINUOUS
 62
     5
 10
-141.66377481542531
 20
99.587513878610253
 30
0.0
 11
-151.5998626742776
 21
105.3241168786103
 31
0.0
  0
ARC
  8
DETAIL
  6
CONTINUOUS
 62
     5
 10
-150.08240908150219
 20
110.7988675994247
 30
0.0
 40
3.0
 50
200.68936499999981
 51
239.99999999999909
  0
LINE
  8
DETAIL
  6
CONTINUOUS
 62
     5
 10
-140.41377481542531
 20
101.7525773880714
 30
0.0
 11
-141.91377481542531
 21
99.154501176717986
 31
0.0
  0
LINE
  8
DETAIL
  6
CONTINUOUS
 62
     5
 10
-140.41377481542531
 20
101.7525773880714
 30
0.0
 11
-151.58240908150219
 21
108.20079138807139
 31
0.0
  0
LINE
  8
NOTE
  6
CONTINUOUS
 62
     4
 10
-170.5
 20
187.0
 30
0.0
 11
-170.5
 21
227.0
 31
0.0
  0
ARC
  8
DETAIL
  6
CONTINUOUS
 62
     5
 10
-138.80075899999969
 20
217.0
 30
0.0
 40
10.0
 50
90.0
 51
130.6012950000007
  0
LINE
  8
DETAIL
  6
CONTINUOUS
 62
     5
 10
-145.308673
 20
224.59256600000001
 30
0.0
 11
-174.0079139999998
 21
197.99321699999999
 31
0.0
  0
ARC
  8
DETAIL
  6
CONTINUOUS
 62
     5
 10
-133.0
 20
185.0
 30
0.0
 40
30.0
 50
90.0
 51
180.0
  0
LINE
  8
DETAIL
  6
CONTINUOUS
 62
     5
 10
-83.163774815425313
 20
200.91248612138949
 30
0.0
 11
-93.099862674277574
 21
206.64908912138961
 31
0.0
  0
ARC
  8
DETAIL
  6
CONTINUOUS
 62
     5
 10
-97.082409081502192
 20
202.5975604005753
 30
0.0
 40
3.0
 50
59.999999999999098
 51
99.310634999989432
  0
LINE
  8
DETAIL
  6
CONTINUOUS
 62
     5
 10
-84.413774815425313
 20
198.74742261192841
 30
0.0
 11
-95.582409081502192
 21
205.19563661192839
 31
0.0
  0
LINE
  8
DETAIL
  6
CONTINUOUS
 62
     5
 10
-84.413774815425313
 20
198.74742261192841
 30
0.0
 11
-82.913774815425313
 21
201.34549882328179
 31
0.0
  0
ARC
  8
DETAIL
  6
CONTINUOUS
 62
     5
 10
-32.199241000000256
 20
217.0
 30
0.0
 40
10.0
 50
49.398704999999353
 51
90.0
  0
ARC
  8
DETAIL
  6
CONTINUOUS
 62
     5
 10
-39.0
 20
185.0
 30
0.0
 40
30.0
 50
0.0
 51
90.0
  0
LINE
  8
DETAIL
  6
CONTINUOUS
 62
     5
 10
-18.0
 20
229.0
 30
0.0
 11
-18.0
 21
235.920312
 31
0.0
  0
ARC
  8
DETAIL
  6
CONTINUOUS
 62
     5
 10
-12.940000000000049
 20
235.91609799999989
 30
0.0
 40
5.060001999999999
 50
90.0
 51
179.99999899999861
  0
LINE
  8
DETAIL
  6
CONTINUOUS
 62
     5
 10
-7.6374699999996656
 20
240.9760839999999
 30
0.0
 11
-6.4689619999999186
 21
242.99998599999981
 31
0.0
  0
LINE
  8
SIZE
  6
CONTINUOUS
 62
    30
 10
-17.962010000000191
 20
434.06866274916871
 30
0.0
 11
-5.9620100000001912
 21
434.06866274916871
 31
0.0
  0
CIRCLE
  8
SIZE
  6
CONTINUOUS
 62
    30
 10
-17.962010000000191
 20
434.06866274916871
 30
0.0
 40
6.0
  0
LINE
  8
SIZE
  6
CONTINUOUS
 62
    30
 10
-170.5
 20
705.28611527709381
 30
0.0
 11
-158.5
 21
705.28611527709381
 31
0.0
  0
LINE
  8
OUTLINE
  6
CONTINUOUS
 62
     3
 10
153.5
 20
0.0
 30
0.0
 11
153.5
 21
200.0
 31
0.0
  0
LINE
  8
SIZE
  6
CONTINUOUS
 62
    30
 10
483.4283367274802
 20
0.0
 30
0.0
 11
483.4283367274802
 21
12.0
 31
0.0
  0
CIRCLE
  8
SIZE
  6
CONTINUOUS
 62
    30
 10
483.4283367274802
 20
0.0
 30
0.0
 40
6.0
  0
LINE
  8
NOTE
  6
CONTINUOUS
 62
     4
 10
166.0
 20
-20.0
 30
0.0
 11
166.0
 21
20.0
 31
0.0
  0
CIRCLE
  8
FIX
  6
CONTINUOUS
 62
    11
 10
166.0
 20
0.0
 30
0.0
 40
2.5
  0
LINE
  8
NOTE
  6
CONTINUOUS
 62
     4
 10
100.0
 20
-20.0
 30
0.0
 11
100.0
 21
20.0
 31
0.0
  0
CIRCLE
  8
FIX
  6
CONTINUOUS
 62
    11
 10
100.0
 20
0.0
 30
0.0
 40
2.5
  0
LINE
  8
DETAIL
  6
CONTINUOUS
 62
     5
 10
16.5
 20
0.0
 30
0.0
 11
16.5
 21
229.0
 31
0.0
  0
LINE
  8
DETAIL
  6
CONTINUOUS
 62
     5
 10
153.5
 20
0.0
 30
0.0
 11
153.5
 21
207.0
 31
0.0
  0
LINE
  8
DETAIL
  6
CONTINUOUS
 62
     5
 10
65.0
 20
-18.0
 30
0.0
 11
65.0
 21
-7.0
 31
0.0
  0
LINE
  8
DETAIL
  6
CONTINUOUS
 62
     5
 10
60.0
 20
-18.0
 30
0.0
 11
60.0
 21
-7.0
 31
0.0
  0
LINE
  8
DETAIL
  6
CONTINUOUS
 62
     5
 10
120.0519178730483
 20
-25.0
 30
0.0
 11
120.0
 21
-7.0
 31
0.0
  0
LINE
  8
DETAIL
  6
CONTINUOUS
 62
     5
 10
190.0
 20
-0.8571230000000014
 30
0.0
 11
190.0
 21
-7.0
 31
0.0
  0
LINE
  8
SIZE
  6
CONTINUOUS
 62
    30
 10
190.0
 20
-20.0
 30
0.0
 11
190.0
 21
-648.29406059970609
 31
0.0
  0
LINE
  8
SIZE
  6
CONTINUOUS
 62
    30
 10
166.0
 20
-40.0
 30
0.0
 11
166.0
 21
-510.85833559970632
 31
0.0
  0
LINE
  8
SIZE
  6
CONTINUOUS
 62
    30
 10
190.0
 20
-628.29406059970631
 30
0.0
 11
178.0
 21
-628.29406059970631
 31
0.0
  0
CIRCLE
  8
SIZE
  6
CONTINUOUS
 62
    30
 10
190.0
 20
-628.29406059970631
 30
0.0
 40
6.0
  0
LINE
  8
SIZE
  6
CONTINUOUS
 62
    30
 10
166.0
 20
-490.85833559970632
 30
0.0
 11
154.0
 21
-490.85833559970632
 31
0.0
  0
CIRCLE
  8
SIZE
  6
CONTINUOUS
 62
    30
 10
166.0
 20
-490.85833559970632
 30
0.0
 40
6.0
  0
LINE
  8
SIZE
  6
CONTINUOUS
 62
    30
 10
153.5
 20
229.16164070454579
 30
0.0
 11
153.5
 21
582.68725099874064
 31
0.0
  0
LINE
  8
SIZE
  6
CONTINUOUS
 62
    30
 10
100.0
 20
-40.0
 30
0.0
 11
100.0
 21
-244.83917616916909
 31
0.0
  0
LINE
  8
SIZE
  6
CONTINUOUS
 62
    30
 10
153.5
 20
562.68725099874064
 30
0.0
 11
141.5
 21
562.68725099874064
 31
0.0
  0
CIRCLE
  8
SIZE
  6
CONTINUOUS
 62
    30
 10
153.5
 20
562.68725099874064
 30
0.0
 40
6.0
  0
LINE
  8
SIZE
  6
CONTINUOUS
 62
    30
 10
100.0
 20
-224.83917616916909
 30
0.0
 11
88.0
 21
-224.83917616916909
 31
0.0
  0
CIRCLE
  8
SIZE
  6
CONTINUOUS
 62
    30
 10
100.0
 20
-224.83917616916909
 30
0.0
 40
6.0
  0
LINE
  8
SIZE
  6
CONTINUOUS
 62
    30
 10
210.0
 20
0.0
 30
0.0
 11
503.4283367274802
 21
0.0
 31
0.0
  0
LINE
  8
NOTE
  6
CONTINUOUS
 62
     4
 10
80.0
 20
0.0
 30
0.0
 11
120.0
 21
0.0
 31
0.0
  0
LINE
  8
NOTE
  6
CONTINUOUS
 62
     4
 10
146.0
 20
0.0
 30
0.0
 11
186.0
 21
0.0
 31
0.0
  0
LINE
  8
DETAIL
  6
CONTINUOUS
 62
     5
 10
190.0
 20
-0.8571230000000014
 30
0.0
 11
190.0
 21
0.0
 31
0.0
  0
LINE
  8
SIZE
  6
CONTINUOUS
 62
    30
 10
483.4283367274802
 20
0.0
 30
0.0
 11
483.4283367274802
 21
-166.15110299999981
 31
0.0
  0
TEXT
  8
SIZE
  6
CONTINUOUS
 62
    30
 10
453.83483172748038
 20
-159.30163957142861
 30
0.0
 40
64.0
  1
135
 50
90.0
 41
0.9
 72
     1
 11
453.83483172748038
 21
-90.730211000000054
 31
0.0
  0
CIRCLE
  8
SIZE
  6
CONTINUOUS
 62
    30
 10
170.5
 20
705.28611527709381
 30
0.0
 40
6.0
  0
LINE
  8
SIZE
  6
CONTINUOUS
 62
    30
 10
170.5
 20
248.0
 30
0.0
 11
170.5
 21
725.28611527709381
 31
0.0
  0
TEXT
  8
NOTE
  6
CONTINUOUS
 62
     4
 10
284.91010761355352
 20
395.43007815701048
 30
0.0
 40
64.0
  1
EL
 41
0.9
  0
LINE
  8
NOTE
  6
CONTINUOUS
 62
     4
 10
248.80827061355379
 20
376.49448915701049
 30
0.0
 11
382.68858640326113
 21
376.49448915701049
 31
0.0
  0
LINE
  8
SIZE
  6
CONTINUOUS
 62
    30
 10
64.037992000000031
 20
253.33999999999969
 30
0.0
 11
64.037992000000031
 21
454.06866274916871
 31
0.0
  0
LINE
  8
NOTE
  6
CONTINUOUS
 62
     4
 10
130.0
 20
200.0
 30
0.0
 11
248.80827061355379
 21
376.49448915701049
 31
0.0
  0
LINE
  8
SIZE
  6
CONTINUOUS
 62
    30
 10
41.517730999999912
 20
135.0
 30
0.0
 11
503.4283367274802
 21
135.0
 31
0.0
  0
LINE
  8
DETAIL
  6
CONTINUOUS
 62
     5
 10
6.5
 20
190.4006509999999
 30
0.0
 11
6.5
 21
79.599349000000075
 31
0.0
  0
LINE
  8
DETAIL
  6
CONTINUOUS
 62
     5
 10
158.75
 20
203.5
 30
0.0
 11
158.75
 21
7.0
 31
0.0
  0
LINE
  8
DETAIL
  6
CONTINUOUS
 62
     5
 10
155.25
 20
207.0
 30
0.0
 11
155.25
 21
7.0
 31
0.0
  0
ARC
  8
DETAIL
  6
CONTINUOUS
 62
     5
 10
-3.5
 20
79.599349000000075
 30
0.0
 40
10.0
 50
310.60129500000062
 51
0.0
  0
LINE
  8
DETAIL
  6
CONTINUOUS
 62
     5
 10
158.75
 20
7.0
 30
0.0
 11
153.5
 21
7.0
 31
0.0
  0
LINE
  8
DETAIL
  6
CONTINUOUS
 62
     5
 10
153.5
 20
192.0
 30
0.0
 11
16.5
 21
192.0
 31
0.0
  0
LINE
  8
DETAIL
  6
CONTINUOUS
 62
     5
 10
153.5
 20
200.0
 30
0.0
 11
16.5
 21
200.0
 31
0.0
  0
LINE
  8
NOTE
  6
CONTINUOUS
 62
     4
 10
110.0
 20
200.0
 30
0.0
 11
150.0
 21
200.0
 31
0.0
  0
LINE
  8
DETAIL
  6
CONTINUOUS
 62
     5
 10
64.0
 20
213.0
 30
0.0
 11
16.5
 21
213.0
 31
0.0
  0
LINE
  8
DETAIL
  6
CONTINUOUS
 62
     5
 10
58.940000000000047
 20
240.9760839999999
 30
0.0
 11
23.0
 21
240.9760839999999
 31
0.0
  0
LINE
  8
DETAIL
  6
CONTINUOUS
 62
     5
 10
81.0
 20
208.0
 30
0.0
 11
16.5
 21
208.0
 31
0.0
  0
ARC
  8
DETAIL
  6
CONTINUOUS
 62
     5
 10
-3.5
 20
190.4006509999999
 30
0.0
 40
10.0
 50
0.0
 51
49.398704999999353
  0
LINE
  8
DETAIL
  6
CONTINUOUS
 62
     5
 10
53.637469999999666
 20
240.9760839999999
 30
0.0
 11
52.468961999999919
 21
242.99998599999981
 31
0.0
  0
LINE
  8
DETAIL
  6
CONTINUOUS
 62
     5
 10
23.0
 20
243.0
 30
0.0
 11
52.468953000000063
 21
243.0
 31
0.0
  0
LINE
  8
DETAIL
  6
CONTINUOUS
 62
     5
 10
23.0
 20
243.0
 30
0.0
 11
0.9200000000000728
 21
243.0
 31
0.0
  0
LINE
  8
DETAIL
  6
CONTINUOUS
 62
     5
 10
0.9200000000000728
 20
240.9760839999999
 30
0.0
 11
23.0
 21
240.9760839999999
 31
0.0
  0
LINE
  8
DETAIL
  6
CONTINUOUS
 62
     5
 10
81.0
 20
208.0
 30
0.0
 11
87.394960000000083
 21
200.0
 31
0.0
  0
LINE
  8
DETAIL
  6
CONTINUOUS
 62
     5
 10
64.0
 20
208.0
 30
0.0
 11
64.0
 21
235.91609799999989
 31
0.0
  0
ARC
  8
DETAIL
  6
CONTINUOUS
 62
     5
 10
58.940000000000047
 20
235.91609799999989
 30
0.0
 40
5.060001999999999
 50
0.0000010000014034
 51
90.0
  0
CIRCLE
  8
FIX
  6
CONTINUOUS
 62
    11
 10
170.5
 20
207.0
 30
0.0
 40
7.5
  0
LINE
  8
NOTE
  6
CONTINUOUS
 62
     4
 10
150.5
 20
207.0
 30
0.0
 11
190.5
 21
207.0
 31
0.0
  0
LINE
  8
DETAIL
  6
CONTINUOUS
 62
     5
 10
185.75
 20
203.5
 30
0.0
 11
158.75
 21
203.5
 31
0.0
  0
LINE
  8
DETAIL
  6
CONTINUOUS
 62
     5
 10
185.75
 20
207.0
 30
0.0
 11
153.5
 21
207.0
 31
0.0
  0
LINE
  8
DETAIL
  6
CONTINUOUS
 62
     5
 10
153.5
 20
200.0
 30
0.0
 11
153.5
 21
207.0
 31
0.0
  0
LINE
  8
NOTE
  6
CONTINUOUS
 62
     4
 10
130.0
 20
200.0
 30
0.0
 11
160.5801510153228
 21
225.46181189482701
 31
0.0
  0
LINE
  8
NOTE
  6
CONTINUOUS
 62
     4
 10
142.89951444463171
 20
237.86294347827919
 30
0.0
 11
130.0
 21
200.0
 31
0.0
  0
LINE
  8
NOTE
  6
CONTINUOUS
 62
     4
 10
130.0
 20
180.0
 30
0.0
 11
130.0
 21
220.0
 31
0.0
  0
LINE
  8
NOTE
  6
CONTINUOUS
 62
     4
 10
170.5
 20
188.0
 30
0.0
 11
170.5
 21
228.0
 31
0.0
  0
LINE
  8
DETAIL
  6
CONTINUOUS
 62
     5
 10
185.75
 20
207.0
 30
0.0
 11
185.75
 21
203.5
 31
0.0
  0
LINE
  8
SIZE
  6
CONTINUOUS
 62
    30
 10
483.4283367274802
 20
12.0
 30
0.0
 11
483.4283367274802
 21
123.0
 31
0.0
  0
LINE
  8
SIZE
  6
CONTINUOUS
 62
    30
 10
483.4283367274802
 20
135.0
 30
0.0
 11
483.4283367274802
 21
123.0
 31
0.0
  0
CIRCLE
  8
SIZE
  6
CONTINUOUS
 62
    30
 10
483.4283367274802
 20
135.0
 30
0.0
 40
6.0
  0
LINE
  8
SIZE
  6
CONTINUOUS
 62
    30
 10
64.037992000000031
 20
434.06866274916871
 30
0.0
 11
52.037992000000031
 21
434.06866274916871
 31
0.0
  0
CIRCLE
  8
SIZE
  6
CONTINUOUS
 62
    30
 10
64.037992000000031
 20
434.06866274916871
 30
0.0
 40
6.0
  0
LINE
  8
SIZE
  6
CONTINUOUS
 62
    30
 10
170.5
 20
705.28611527709381
 30
0.0
 11
158.5
 21
705.28611527709381
 31
0.0
  0
LINE
  8
SIZE
  6
CONTINUOUS
 62
    30
 10
-179.50181500000011
 20
222.28389599999991
 30
0.0
 11
-179.50181500000011
 21
582.68725099874064
 31
0.0
  0
LINE
  8
SIZE
  6
CONTINUOUS
 62
    30
 10
-153.5
 20
248.33899606072831
 30
0.0
 11
-153.5
 21
582.68725099874064
 31
0.0
  0
LINE
  8
SIZE
  6
CONTINUOUS
 62
    30
 10
-141.5
 20
562.68725099874064
 30
0.0
 11
-129.5
 21
562.68725099874064
 31
0.0
  0
LINE
  8
SIZE
  6
CONTINUOUS
 62
    30
 10
-191.50181500000011
 20
562.68725099874064
 30
0.0
 11
-346.38571428571402
 21
562.68725099874064
 31
0.0
  0
LINE
  8
SIZE
  6
CONTINUOUS
 62
    30
 10
-153.5
 20
562.68725099874064
 30
0.0
 11
-179.50181500000011
 21
562.68725099874064
 31
0.0
  0
CIRCLE
  8
SIZE
  6
CONTINUOUS
 62
    30
 10
-153.5
 20
562.68725099874064
 30
0.0
 40
6.0
  0
LINE
  8
SIZE
  6
CONTINUOUS
 62
    30
 10
-153.5
 20
562.68725099874064
 30
0.0
 11
-141.5
 21
562.68725099874064
 31
0.0
  0
CIRCLE
  8
SIZE
  6
CONTINUOUS
 62
    30
 10
-179.50181500000011
 20
562.68725099874064
 30
0.0
 40
6.0
  0
LINE
  8
SIZE
  6
CONTINUOUS
 62
    30
 10
-179.50181500000011
 20
562.68725099874064
 30
0.0
 11
-191.50181500000011
 21
562.68725099874064
 31
0.0
  0
TEXT
  8
SIZE
  6
CONTINUOUS
 62
    30
 10
-321.38571428571419
 20
587.68725099874064
 30
0.0
 40
64.0
  1
26
 41
0.9
 72
     1
 11
-276.12857142857138
 21
587.68725099874064
 31
0.0
  0
POINT
  8
DEFPOINTS
  6
CONTINUOUS
 62
    30
 10
-179.50181500000011
 20
202.28389599999991
 30
0.0
  0
POINT
  8
DEFPOINTS
  6
CONTINUOUS
 62
    30
 10
-153.5
 20
228.33899606072831
 30
0.0
  0
POINT
  8
DEFPOINTS
  6
CONTINUOUS
 62
    30
 10
-153.5
 20
562.68725099874064
 30
0.0
  0
LINE
  8
SIZE
  6
CONTINUOUS
 62
    30
 10
0.0
 20
311.47948300000007
 30
0.0
 11
0.0
 21
373.62182000000013
 31
0.0
  0
LINE
  8
SIZE
  6
CONTINUOUS
 62
    30
 10
-86.0
 20
260.068172
 30
0.0
 11
-86.0
 21
373.62182000000013
 31
0.0
  0
LINE
  8
SIZE
  6
CONTINUOUS
 62
    30
 10
-12.0
 20
353.62182000000013
 30
0.0
 11
-74.0
 21
353.62182000000013
 31
0.0
  0
LINE
  8
SIZE
  6
CONTINUOUS
 62
    30
 10
-86.0
 20
353.62182000000013
 30
0.0
 11
-308.77142857142837
 21
353.62182000000013
 31
0.0
  0
CIRCLE
  8
SIZE
  6
CONTINUOUS
 62
    30
 10
0.0
 20
353.62182000000013
 30
0.0
 40
6.0
  0
LINE
  8
SIZE
  6
CONTINUOUS
 62
    30
 10
0.0
 20
353.62182000000013
 30
0.0
 11
-12.0
 21
353.62182000000013
 31
0.0
  0
CIRCLE
  8
SIZE
  6
CONTINUOUS
 62
    30
 10
-86.0
 20
353.62182000000013
 30
0.0
 40
6.0
  0
LINE
  8
SIZE
  6
CONTINUOUS
 62
    30
 10
-86.0
 20
353.62182000000013
 30
0.0
 11
-74.0
 21
353.62182000000013
 31
0.0
  0
TEXT
  8
SIZE
  6
CONTINUOUS
 62
    30
 10
-283.77142857142837
 20
378.62182000000013
 30
0.0
 40
64.0
  1
86
 41
0.9
 72
     1
 11
-238.51428571428551
 21
378.62182000000013
 31
0.0
  0
POINT
  8
DEFPOINTS
  6
CONTINUOUS
 62
    30
 10
0.0
 20
291.47948300000007
 30
0.0
  0
POINT
  8
DEFPOINTS
  6
CONTINUOUS
 62
    30
 10
-86.0
 20
240.068172
 30
0.0
  0
POINT
  8
DEFPOINTS
  6
CONTINUOUS
 62
    30
 10
-86.0
 20
353.62182000000013
 30
0.0
  0
LINE
  8
SIZE
  6
CONTINUOUS
 62
    30
 10
210.0
 20
0.0
 30
0.0
 11
623.64898170260403
 21
-0.0000000000001137
 31
0.0
  0
LINE
  8
SIZE
  6
CONTINUOUS
 62
    30
 10
205.75
 20
207.0
 30
0.0
 11
623.64898170260403
 21
206.99999999999989
 31
0.0
  0
LINE
  8
SIZE
  6
CONTINUOUS
 62
    30
 10
603.64898170260403
 20
11.99999999999989
 30
0.0
 11
603.64898170260403
 21
194.99999999999989
 31
0.0
  0
CIRCLE
  8
SIZE
  6
CONTINUOUS
 62
    30
 10
603.64898170260403
 20
-0.0000000000001137
 30
0.0
 40
6.0
  0
LINE
  8
SIZE
  6
CONTINUOUS
 62
    30
 10
603.64898170260403
 20
-0.0000000000001137
 30
0.0
 11
603.64898170260403
 21
11.99999999999989
 31
0.0
  0
CIRCLE
  8
SIZE
  6
CONTINUOUS
 62
    30
 10
603.64898170260403
 20
206.99999999999989
 30
0.0
 40
6.0
  0
LINE
  8
SIZE
  6
CONTINUOUS
 62
    30
 10
603.64898170260403
 20
206.99999999999989
 30
0.0
 11
603.64898170260403
 21
194.99999999999989
 31
0.0
  0
TEXT
  8
SIZE
  6
CONTINUOUS
 62
    30
 10
578.64898170260403
 20
29.44285714285715
 30
0.0
 40
64.0
  1
207
 50
90.0
 41
0.9
 72
     1
 11
578.64898170260403
 21
103.5
 31
0.0
  0
POINT
  8
DEFPOINTS
  6
CONTINUOUS
 62
    30
 10
190.0
 20
0.0
 30
0.0
  0
POINT
  8
DEFPOINTS
  6
CONTINUOUS
 62
    30
 10
185.75
 20
207.0
 30
0.0
  0
POINT
  8
DEFPOINTS
  6
CONTINUOUS
 62
    30
 10
603.64898170260403
 20
206.99999999999989
 30
0.0
  0
LINE
  8
SIZE
  6
CONTINUOUS
 62
    30
 10
-210.0
 20
0.0
 30
0.0
 11
-409.13768210562102
 21
0.0000000000001137
 31
0.0
  0
LINE
  8
SIZE
  6
CONTINUOUS
 62
    30
 10
-178.75
 20
49.997334000000137
 30
0.0
 11
-409.13768210562102
 21
49.997334000000251
 31
0.0
  0
LINE
  8
SIZE
  6
CONTINUOUS
 62
    30
 10
-389.13768210562102
 20
61.997334000000251
 30
0.0
 11
-389.13768210562102
 21
73.997334000000137
 31
0.0
  0
LINE
  8
SIZE
  6
CONTINUOUS
 62
    30
 10
-389.13768210562102
 20
-11.99999999999989
 30
0.0
 11
-389.13768210562102
 21
-167.25714285714281
 31
0.0
  0
LINE
  8
SIZE
  6
CONTINUOUS
 62
    30
 10
-389.13768210562102
 20
49.997334000000251
 30
0.0
 11
-389.13768210562102
 21
0.0
 31
0.0
  0
CIRCLE
  8
SIZE
  6
CONTINUOUS
 62
    30
 10
-389.13768210562102
 20
49.997334000000251
 30
0.0
 40
6.0
  0
LINE
  8
SIZE
  6
CONTINUOUS
 62
    30
 10
-389.13768210562102
 20
49.997334000000251
 30
0.0
 11
-389.13768210562102
 21
61.997334000000251
 31
0.0
  0
CIRCLE
  8
SIZE
  6
CONTINUOUS
 62
    30
 10
-389.13768210562102
 20
0.0
 30
0.0
 40
6.0
  0
LINE
  8
SIZE
  6
CONTINUOUS
 62
    30
 10
-389.13768210562102
 20
0.0
 30
0.0
 11
-389.13768210562102
 21
-12.0
 31
0.0
  0
TEXT
  8
SIZE
  6
CONTINUOUS
 62
    30
 10
-414.13768210562102
 20
-142.25714285714281
 30
0.0
 40
64.0
  1
50
 50
90.0
 41
0.9
 72
     1
 11
-414.13768210562102
 21
-95.628571428571377
 31
0.0
  0
POINT
  8
DEFPOINTS
  6
CONTINUOUS
 62
    30
 10
-190.0
 20
0.0
 30
0.0
  0
POINT
  8
DEFPOINTS
  6
CONTINUOUS
 62
    30
 10
-158.75
 20
49.997334000000137
 30
0.0
  0
POINT
  8
DEFPOINTS
  6
CONTINUOUS
 62
    30
 10
-389.13768210562102
 20
49.997334000000251
 30
0.0
  0
LINE
  8
SIZE
  6
CONTINUOUS
 62
    30
 10
-612.00306000510272
 20
317.86376717466828
 30
0.0
 11
-169.1203172127872
 21
163.89658918359899
 31
0.0
  0
LINE
  8
SIZE
  6
CONTINUOUS
 62
    30
 10
-2.8796827872141648
 20
106.1034108164004
 30
0.0
 11
8.4549059236204585
 21
102.1629668368186
 31
0.0
  0
TEXT
  8
SIZE
  6
CONTINUOUS
 62
    30
 10
-593.65204352970841
 20
337.9517344947954
 30
0.0
 40
64.0
  1
φ152
 50
340.83010892841878
 41
0.9
 72
     1
 11
-490.7987471136783
 21
302.19501998293367
 31
0.0
  0
LINE
  8
SIZE
  6
CONTINUOUS
 62
    30
 10
-14.214271498048671
 20
110.043854795982
 30
0.0
 11
-157.78572850195269
 21
159.9561452040173
 31
0.0
  0
CIRCLE
  8
SIZE
  6
CONTINUOUS
 62
    30
 10
-14.214271498048671
 20
110.043854795982
 30
0.0
 40
6.0
  0
LINE
  8
SIZE
  6
CONTINUOUS
 62
    30
 10
-14.214271498048671
 20
110.043854795982
 30
0.0
 11
-2.8796827872141648
 21
106.1034108164002
 31
0.0
  0
CIRCLE
  8
SIZE
  6
CONTINUOUS
 62
    30
 10
-157.78572850195269
 20
159.9561452040173
 30
0.0
 40
6.0
  0
LINE
  8
SIZE
  6
CONTINUOUS
 62
    30
 10
-157.78572850195269
 20
159.9561452040173
 30
0.0
 11
-169.12031721278731
 21
163.89658918359899
 31
0.0
  0
POINT
  8
DEFPOINTS
  6
CONTINUOUS
 62
    30
 10
-157.78572850195269
 20
159.9561452040173
 30
0.0
  0
POINT
  8
DEFPOINTS
  6
CONTINUOUS
 62
    30
 10
-14.214271498048671
 20
110.043854795982
 30
0.0
  0
LINE
  8
SIZE
  6
CONTINUOUS
 62
    30
 10
-496.40623151518389
 20
59.741695886567413
 30
0.0
 11
-168.62233793997419
 21
119.8491164174263
 31
0.0
  0
LINE
  8
SIZE
  6
CONTINUOUS
 62
    30
 10
-3.3776620600259548
 20
150.1508835825739
 30
0.0
 11
8.4255290742561328
 21
152.3152955229416
 31
0.0
  0
TEXT
  8
SIZE
  6
CONTINUOUS
 62
    30
 10
-490.35437727603778
 20
86.268310766774405
 30
0.0
 40
64.0
  1
φ144
 50
10.391175785498771
 41
0.9
 72
     1
 11
-381.89991245360642
 21
106.1561644816958
 31
0.0
  0
LINE
  8
SIZE
  6
CONTINUOUS
 62
    30
 10
-15.180853194307931
 20
147.9864716422062
 30
0.0
 11
-156.8191468056921
 21
122.013528357794
 31
0.0
  0
CIRCLE
  8
SIZE
  6
CONTINUOUS
 62
    30
 10
-15.180853194307931
 20
147.9864716422062
 30
0.0
 40
6.0
  0
LINE
  8
SIZE
  6
CONTINUOUS
 62
    30
 10
-15.180853194307931
 20
147.9864716422062
 30
0.0
 11
-3.3776620600259548
 21
150.1508835825739
 31
0.0
  0
CIRCLE
  8
SIZE
  6
CONTINUOUS
 62
    30
 10
-156.8191468056921
 20
122.013528357794
 30
0.0
 40
6.0
  0
LINE
  8
SIZE
  6
CONTINUOUS
 62
    30
 10
-156.8191468056921
 20
122.013528357794
 30
0.0
 11
-168.62233793997419
 21
119.8491164174263
 31
0.0
  0
POINT
  8
DEFPOINTS
  6
CONTINUOUS
 62
    30
 10
-156.8191468056921
 20
122.013528357794
 30
0.0
  0
POINT
  8
DEFPOINTS
  6
CONTINUOUS
 62
    30
 10
-15.180853194307931
 20
147.9864716422062
 30
0.0
  0
LINE
  8
SIZE
  6
CONTINUOUS
 62
    30
 10
210.0
 20
0.0
 30
0.0
 11
386.17887783715651
 21
0.0
 31
0.0
  0
LINE
  8
SIZE
  6
CONTINUOUS
 62
    30
 10
-19.000000000000909
 20
54.0
 30
0.0
 11
386.17887783715651
 21
53.999999999999893
 31
0.0
  0
LINE
  8
SIZE
  6
CONTINUOUS
 62
    30
 10
366.17887783715651
 20
65.999999999999886
 30
0.0
 11
366.17887783715651
 21
77.999999999999886
 31
0.0
  0
LINE
  8
SIZE
  6
CONTINUOUS
 62
    30
 10
366.17887783715651
 20
-12.0
 30
0.0
 11
366.17887783715651
 21
-170.00000000000011
 31
0.0
  0
LINE
  8
SIZE
  6
CONTINUOUS
 62
    30
 10
366.17887783715651
 20
53.999999999999893
 30
0.0
 11
366.17887783715651
 21
0.0
 31
0.0
  0
CIRCLE
  8
SIZE
  6
CONTINUOUS
 62
    30
 10
366.17887783715651
 20
53.999999999999893
 30
0.0
 40
6.0
  0
LINE
  8
SIZE
  6
CONTINUOUS
 62
    30
 10
366.17887783715651
 20
53.999999999999893
 30
0.0
 11
366.17887783715651
 21
65.999999999999886
 31
0.0
  0
CIRCLE
  8
SIZE
  6
CONTINUOUS
 62
    30
 10
366.17887783715651
 20
0.0
 30
0.0
 40
6.0
  0
LINE
  8
SIZE
  6
CONTINUOUS
 62
    30
 10
366.17887783715651
 20
0.0
 30
0.0
 11
366.17887783715651
 21
-12.0
 31
0.0
  0
TEXT
  8
SIZE
  6
CONTINUOUS
 62
    30
 10
341.17887783715651
 20
-145.0
 30
0.0
 40
64.0
  1
54
 50
90.0
 41
0.9
 72
     1
 11
341.17887783715651
 21
-97.0
 31
0.0
  0
POINT
  8
DEFPOINTS
  6
CONTINUOUS
 62
    30
 10
190.0
 20
0.0
 30
0.0
  0
POINT
  8
DEFPOINTS
  6
CONTINUOUS
 62
    30
 10
-39.000000000000909
 20
54.0
 30
0.0
  0
POINT
  8
DEFPOINTS
  6
CONTINUOUS
 62
    30
 10
366.17887783715651
 20
53.999999999999893
 30
0.0
  0
LINE
  8
DETAIL
  6
CONTINUOUS
 62
     5
 10
156.5
 20
28.0
 30
0.0
 11
156.5
 21
8.0
 31
0.0
  0
LINE
  8
DETAIL
  6
CONTINUOUS
 62
     5
 10
156.5
 20
8.0
 30
0.0
 11
153.5
 21
8.0
 31
0.0
  0
LINE
  8
DETAIL
  6
CONTINUOUS
 62
     5
 10
156.5
 20
28.0
 30
0.0
 11
153.5
 21
28.0
 31
0.0
  0
LINE
  8
DETAIL
  6
CONTINUOUS
 62
     5
 10
-156.5
 20
28.0
 30
0.0
 11
-156.5
 21
8.0
 31
0.0
  0
LINE
  8
DETAIL
  6
CONTINUOUS
 62
     5
 10
-156.5
 20
8.0
 30
0.0
 11
-153.5
 21
8.0
 31
0.0
  0
LINE
  8
DETAIL
  6
CONTINUOUS
 62
     5
 10
-156.5
 20
28.0
 30
0.0
 11
-153.5
 21
28.0
 31
0.0
  0
LINE
  8
SIZE
  6
CONTINUOUS
 62
    30
 10
-156.5
 20
-12.0
 30
0.0
 11
-156.5
 21
-385.85514449990552
 31
0.0
  0
LINE
  8
SIZE
  6
CONTINUOUS
 62
    30
 10
156.5
 20
-12.000000000000449
 30
0.0
 11
156.5
 21
-385.85514449990552
 31
0.0
  0
LINE
  8
SIZE
  6
CONTINUOUS
 62
    30
 10
-144.5
 20
-365.85514449990552
 30
0.0
 11
144.5
 21
-365.85514449990552
 31
0.0
  0
CIRCLE
  8
SIZE
  6
CONTINUOUS
 62
    30
 10
-156.5
 20
-365.85514449990552
 30
0.0
 40
6.0
  0
LINE
  8
SIZE
  6
CONTINUOUS
 62
    30
 10
-156.5
 20
-365.85514449990552
 30
0.0
 11
-144.5
 21
-365.85514449990552
 31
0.0
  0
CIRCLE
  8
SIZE
  6
CONTINUOUS
 62
    30
 10
156.5
 20
-365.85514449990552
 30
0.0
 40
6.0
  0
LINE
  8
SIZE
  6
CONTINUOUS
 62
    30
 10
156.5
 20
-365.85514449990552
 30
0.0
 11
144.5
 21
-365.85514449990552
 31
0.0
  0
TEXT
  8
SIZE
  6
CONTINUOUS
 62
    30
 10
-68.571428571428555
 20
-340.85514449990552
 30
0.0
 40
64.0
  1
313
 41
0.9
 72
     1
 11
0.0
 21
-340.85514449990552
 31
0.0
  0
POINT
  8
DEFPOINTS
  6
CONTINUOUS
 62
    30
 10
-156.5
 20
8.0
 30
0.0
  0
POINT
  8
DEFPOINTS
  6
CONTINUOUS
 62
    30
 10
156.5
 20
7.9999999999995453
 30
0.0
  0
POINT
  8
DEFPOINTS
  6
CONTINUOUS
 62
    30
 10
156.5
 20
-365.85514449990552
 30
0.0
  0
ARC
  8
DETAIL
  6
CONTINUOUS
 62
     5
 10
-158.70935257604421
 20
207.28122973498441
 30
0.0
 40
21.792462
 50
94.713204999995241
 51
180.7394170000014
  0
LINE
  8
OUTLINE
  6
CONTINUOUS
 62
     3
 10
16.5
 20
229.0
 30
0.0
 11
-160.5
 21
229.0
 31
0.0
  0
LINE
  8
OUTLINE
  6
CONTINUOUS
 62
     3
 10
-179.5
 20
67.997334000000137
 30
0.0
 11
-179.5
 21
207.0
 31
0.0
  0
ARC
  8
OUTLINE
  6
CONTINUOUS
 62
     3
 10
-157.70935300000019
 20
71.716104000000087
 30
0.0
 40
21.792462
 50
179.2605829999986
 51
265.28679500000482
  0
LINE
  8
OUTLINE
  6
CONTINUOUS
 62
     3
 10
-160.5
 20
49.997334000000137
 30
0.0
 11
-150.26092375868939
 21
49.997334000000137
 31
0.0
  0
LINE
  8
OUTLINE
  6
CONTINUOUS
 62
     3
 10
-185.75
 20
203.5
 30
0.0
 11
-179.5
 21
203.5
 31
0.0
  0
LINE
  8
OUTLINE
  6
CONTINUOUS
 62
     3
 10
-185.75
 20
207.0
 30
0.0
 11
-180.48995800000009
 21
207.0
 31
0.0
  0
LINE
  8
OUTLINE
  6
CONTINUOUS
 62
     3
 10
-185.75
 20
207.0
 30
0.0
 11
-185.75
 21
203.5
 31
0.0
  0
LINE
  8
OUTLINE
  6
CONTINUOUS
 62
     3
 10
16.5
 20
200.0
 30
0.0
 11
16.5
 21
229.0
 31
0.0
  0
ARC
  8
OUTLINE
  6
CONTINUOUS
 62
     3
 10
-158.70935257604421
 20
207.28122973498441
 30
0.0
 40
21.792462
 50
94.713204999995241
 51
180.7394170000014
  0
LINE
  8
DETAIL
  6
CONTINUOUS
 62
     5
 10
111.244631283027
 20
-18.0
 30
0.0
 11
113.491458603411
 21
-7.0
 31
0.0
  0
TEXT
  8
ETC
  6
CONTINUOUS
 62
    61
 10
486.46081854623691
 20
719.55222405906716
 30
0.0
 40
64.0
  1
VD-18ZXP13-X_2
 41
0.9
  0
TEXT
  8
ETC
  6
CONTINUOUS
 62
    61
 10
484.09364054623671
 20
614.77095858339453
 30
0.0
 40
64.0
  1
換気扇
 41
0.9
  0
TEXT
  8
ETC
  6
CONTINUOUS
 62
    61
 10
568.4545818897177
 20
531.70350433465819
 30
0.0
 40
40.0
  1
VD-18ZXP13-X
 41
0.9
  0
TEXT
  8
ETC
  6
CONTINUOUS
 62
    61
 10
568.4545818897177
 20
465.70350433465819
 30
0.0
 40
40.0
  1
VD-18ZLXP13-X
 41
0.9
  0
TEXT
  8
ETC
  6
CONTINUOUS
 62
    61
 10
568.4545818897177
 20
399.70350433465819
 30
0.0
 40
40.0
  1
VD-20ZX13-X
 41
0.9
  0
ENDSEC
  0
EOF
