  0
SECTION
  2
HEADER
  9
$ACADVER
  1
AC1009
  9
$DWGCODEPAGE
  3
dos932
  9
$INSBASE
 10
0.0
 20
0.0
 30
0.0
  9
$EXTMIN
 10
-1119.822676887065
 20
-756.22557459425479
 30
-0.0015258207003583
  9
$EXTMAX
 10
1249.4339107529181
 20
724.82300622484399
 30
0.0000000349246037
  9
$LIMMIN
 10
-2970.0
 20
-2100.0
  9
$LIMMAX
 10
2970.0
 20
2100.0
  9
$ORTHOMODE
 70
     1
  9
$REGENMODE
 70
     1
  9
$FILLMODE
 70
     1
  9
$QTEXTMODE
 70
     0
  9
$MIRRTEXT
 70
     0
  9
$LTSCALE
 40
20.0
  9
$ATTMODE
 70
     1
  9
$TEXTSIZE
 40
64.0
  9
$TRACEWID
 40
0.05
  9
$TEXTSTYLE
  7
STANDARD
  9
$CLAYER
  8
SIZE
  9
$CELTYPE
  6
CONTINUOUS
  9
$CECOLOR
 62
     7
  9
$DIMSCALE
 40
1.0
  9
$DIMASZ
 40
12.0
  9
$DIMEXO
 40
20.0
  9
$DIMDLI
 40
200.0
  9
$DIMRND
 40
0.0
  9
$DIMDLE
 40
0.0
  9
$DIMEXE
 40
20.0
  9
$DIMTP
 40
0.0
  9
$DIMTM
 40
0.0
  9
$DIMTXT
 40
64.0
  9
$DIMCEN
 40
0.09
  9
$DIMTSZ
 40
0.0
  9
$DIMTOL
 70
     0
  9
$DIMLIM
 70
     0
  9
$DIMTIH
 70
     0
  9
$DIMTOH
 70
     0
  9
$DIMSE1
 70
     0
  9
$DIMSE2
 70
     0
  9
$DIMTAD
 70
     1
  9
$DIMZIN
 70
     8
  9
$DIMBLK
  1

  9
$DIMASO
 70
     1
  9
$DIMSHO
 70
     0
  9
$DIMPOST
  1

  9
$DIMAPOST
  1

  9
$DIMALT
 70
     0
  9
$DIMALTD
 70
     2
  9
$DIMALTF
 40
25.399999999999999
  9
$DIMLFAC
 40
1.0
  9
$DIMTOFL
 70
     1
  9
$DIMTVP
 40
0.0
  9
$DIMTIX
 70
     1
  9
$DIMSOXD
 70
     0
  9
$DIMSAH
 70
     0
  9
$DIMBLK1
  1

  9
$DIMBLK2
  1

  9
$DIMSTYLE
  2
STANDARD
  9
$DIMCLRD
 70
     7
  9
$DIMCLRE
 70
     7
  9
$DIMCLRT
 70
     7
  9
$DIMTFAC
 40
1.0
  9
$DIMGAP
 40
25.0
  9
$LUNITS
 70
     2
  9
$LUPREC
 70
     4
  9
$SKETCHINC
 40
0.1
  9
$FILLETRAD
 40
3.0
  9
$AUNITS
 70
     1
  9
$AUPREC
 70
     3
  9
$MENU
  1
ACAD
  9
$ELEVATION
 40
0.0
  9
$PELEVATION
 40
0.0
  9
$THICKNESS
 40
0.0
  9
$LIMCHECK
 70
     0
  9
$CHAMFERA
 40
0.0
  9
$CHAMFERB
 40
0.0
  9
$SKPOLY
 70
     0
  9
$TDCREATE
 40
2453019.62301037
  9
$TDUPDATE
 40
2459025.512976759
  9
$TDINDWG
 40
1.7137659838
  9
$TDUSRTIMER
 40
1.7137659838
  9
$USRTIMER
 70
     1
  9
$ANGBASE
 50
0.0
  9
$ANGDIR
 70
     0
  9
$PDMODE
 70
     3
  9
$PDSIZE
 40
-2.0
  9
$PLINEWID
 40
0.0
  9
$SPLFRAME
 70
     0
  9
$SPLINETYPE
 70
     6
  9
$SPLINESEGS
 70
     8
  9
$SURFTAB1
 70
     6
  9
$SURFTAB2
 70
     6
  9
$SURFTYPE
 70
     6
  9
$SURFU
 70
     6
  9
$SURFV
 70
     6
  9
$UCSNAME
  2

  9
$UCSORG
 10
0.0
 20
0.0
 30
0.0
  9
$UCSXDIR
 10
1.0
 20
0.0
 30
0.0
  9
$UCSYDIR
 10
0.0
 20
1.0
 30
0.0
  9
$PUCSNAME
  2

  9
$PUCSORG
 10
0.0
 20
0.0
 30
0.0
  9
$PUCSXDIR
 10
1.0
 20
0.0
 30
0.0
  9
$PUCSYDIR
 10
0.0
 20
1.0
 30
0.0
  9
$USERI1
 70
     0
  9
$USERI2
 70
     0
  9
$USERI3
 70
     0
  9
$USERI4
 70
     0
  9
$USERI5
 70
     0
  9
$USERR1
 40
20.0
  9
$USERR2
 40
0.0
  9
$USERR3
 40
0.0
  9
$USERR4
 40
0.0
  9
$USERR5
 40
0.0
  9
$WORLDVIEW
 70
     1
  9
$SHADEDGE
 70
     3
  9
$SHADEDIF
 70
    70
  9
$TILEMODE
 70
     1
  9
$MAXACTVP
 70
    48
  9
$PINSBASE
 10
0.0
 20
0.0
 30
0.0
  9
$PLIMCHECK
 70
     0
  9
$PEXTMIN
 10
-100000000000000000000.0
 20
-100000000000000000000.0
 30
-100000000000000000000.0
  9
$PEXTMAX
 10
100000000000000000000.0
 20
100000000000000000000.0
 30
100000000000000000000.0
  9
$PLIMMIN
 10
0.0
 20
0.0
  9
$PLIMMAX
 10
12.0
 20
9.0
  9
$UNITMODE
 70
     0
  9
$VISRETAIN
 70
     0
  9
$PLINEGEN
 70
     0
  9
$PSLTSCALE
 70
     0
  9
$TREEDEPTH
 70
  3020
  9
$ATTDIA
 70
     0
  9
$ATTREQ
 70
     1
  9
$BLIPMODE
 70
     1
  9
$COORDS
 70
     1
  9
$DRAGMODE
 70
     2
  9
$OSMODE
 70
     0
  9
$HANDLING
 70
     0
  9
$HANDSEED
  5
FCCC
  0
ENDSEC
  0
SECTION
  2
TABLES
  0
TABLE
  2
LTYPE
 70
     2
  0
LTYPE
  2
CONTINUOUS
 70
     0
  3
実線
 72
    65
 73
     0
 40
0.0
  0
LTYPE
  2
DASHDOT
 70
     0
  3
____ _ ____ _ ____ _ ____ _ ____ _ ____ _ ____
 72
    65
 73
     4
 40
5.5
 49
4.0
 49
-0.6
 49
0.3
 49
-0.6
  0
ENDTAB
  0
TABLE
  2
LAYER
 70
    12
  0
LAYER
  2
0
 70
     0
 62
     7
  6
CONTINUOUS
  0
LAYER
  2
BASIS
 70
     0
 62
     6
  6
DASHDOT
  0
LAYER
  2
OUTLINE
 70
     0
 62
     3
  6
CONTINUOUS
  0
LAYER
  2
DETAIL
 70
     0
 62
     5
  6
CONTINUOUS
  0
LAYER
  2
SIZE
 70
     0
 62
    30
  6
CONTINUOUS
  0
LAYER
  2
ARRANGE
 70
     0
 62
     1
  6
CONTINUOUS
  0
LAYER
  2
DEFPOINTS
 70
     0
 62
     7
  6
CONTINUOUS
  0
LAYER
  2
ETC
 70
     0
 62
    61
  6
CONTINUOUS
  0
LAYER
  2
FIX
 70
     0
 62
    11
  6
CONTINUOUS
  0
LAYER
  2
NOTE
 70
     0
 62
     4
  6
CONTINUOUS
  0
LAYER
  2
SERVICESPACE
 70
    64
 62
     2
  6
DASHDOT
  0
LAYER
  2
SYMBOLLINE
 70
    64
 62
    15
  6
CONTINUOUS
  0
ENDTAB
  0
TABLE
  2
STYLE
 70
     1
  0
STYLE
  2
STANDARD
 70
     0
 40
64.0
 41
0.9
 50
0.0
 71
     0
 42
64.0
  3
SIMPLEX.shx
  4
BIGFONT.shx
  0
ENDTAB
  0
TABLE
  2
APPID
 70
    19
  0
APPID
  2
ACAD
 70
     0
  0
APPID
  2
AUTOCAD_POSTSCRIPT_FIGURE
 70
     0
  0
APPID
  2
ACAD_EXEMPT_FROM_CAD_STANDARDS
 70
     0
  0
APPID
  2
ACAD_PSEXT
 70
     0
  0
APPID
  2
ACAUTHENVIRON
 70
     0
  0
APPID
  2
GENIUS_GENOENT_13
 70
     0
  0
APPID
  2
GENIUS_GENCFG_13
 70
     0
  0
APPID
  2
GENIUS_GENCFG0_13
 70
     0
  0
APPID
  2
GENIUS_GENCFG1_13
 70
     0
  0
APPID
  2
GENIUS_GENCFG2_13
 70
     0
  0
APPID
  2
GENIUS_GENCFG3_13
 70
     0
  0
APPID
  2
GENIUS_GENCFG4_13
 70
     0
  0
APPID
  2
GENIUS_GEVCFG0_13
 70
     0
  0
APPID
  2
CONTENTBLOCKICON
 70
     0
  0
APPID
  2
CONTENTBLOCKDESCRIPTION
 70
     0
  0
APPID
  2
ACAD_NAV_VCDISPLAY
 70
     0
  0
APPID
  2
ACAD_MLEADERVER
 70
     0
  0
APPID
  2
ACDBDYNAMICBLOCKTRUENAME
 70
     0
  0
APPID
  2
ACDBDYNAMICBLOCKGUID
 70
     0
  0
ENDTAB
  0
TABLE
  2
DIMSTYLE
 70
     1
  0
DIMSTYLE
  2
STANDARD
 70
     0
  3

  4

  5
_ORIGIN
  6

  7

 40
1.0
 41
12.0
 42
20.0
 43
200.0
 44
20.0
 45
0.0
 46
0.0
 47
0.0
 48
0.0
140
64.0
141
0.09
142
0.0
143
25.399999999999999
144
1.0
145
0.0
146
1.0
147
25.0
 71
     0
 72
     0
 73
     0
 74
     0
 75
     0
 76
     0
 77
     1
 78
     8
170
     0
171
     2
172
     1
173
     0
174
     1
175
     0
176
     7
177
     7
178
     7
  0
ENDTAB
  0
TABLE
  2
VIEW
 70
     1
  0
VIEW
  2
ALL
 70
     0
 40
4282.6198079999986
 10
0.0
 20
41.309904000000003
 41
5940.0
 11
0.0
 21
0.0
 31
1.0
 12
0.0
 22
0.0
 32
0.0
 42
50.0
 43
0.0
 44
0.0
 50
0.0
 71
     0
  0
ENDTAB
  0
TABLE
  2
UCS
 70
     0
  0
ENDTAB
  0
TABLE
  2
VPORT
 70
     1
  0
VPORT
  2
*ACTIVE
 70
     0
 10
0.0
 20
0.0
 11
1.0
 21
1.0
 12
64.80561693292654
 22
-15.701284184705401
 13
0.0
 23
0.0
 14
1.0
 24
1.0
 15
0.0
 25
0.0
 16
0.0
 26
0.0
 36
1.0
 17
0.0
 27
0.0
 37
0.0
 40
1490.8676874322639
 41
1.747787610619469
 42
50.0
 43
0.0
 44
0.0
 50
0.0
 51
0.0
 71
     0
 72
  1000
 73
     1
 74
     3
 75
     0
 76
     0
 77
     0
 78
     0
  0
ENDTAB
  0
ENDSEC
  0
SECTION
  2
BLOCKS
  0
BLOCK
  8
0
  2
_ORIGIN
 70
     0
 10
0.0
 20
0.0
 30
0.0
  3
_ORIGIN
  1
_ORIGIN
  0
CIRCLE
  8
0
  6
CONTINUOUS
 62
     7
 10
0.0
 20
0.0
 30
0.0
 40
0.5
  0
LINE
  8
0
  6
CONTINUOUS
 62
     7
 10
0.0
 20
0.0
 30
0.0
 11
-1.0
 21
0.0
 31
0.0
  0
ENDBLK
  8
0
  0
ENDSEC
  0
SECTION
  2
ENTITIES
  0
POINT
  8
ARRANGE
  6
CONTINUOUS
 62
     1
 10
0.0
 20
0.0
 30
0.0
  0
LINE
  8
OUTLINE
  6
CONTINUOUS
 62
     3
 10
153.99999699999989
 20
0.0
 30
0.0
 11
0.0
 21
0.0
 31
0.0
  0
LINE
  8
OUTLINE
  6
CONTINUOUS
 62
     3
 10
-190.0
 20
0.0
 30
0.0
 11
190.0
 21
0.0
 31
0.0
  0
LINE
  8
OUTLINE
  6
CONTINUOUS
 62
     3
 10
153.5
 20
200.0
 30
0.0
 11
-153.5
 21
200.0
 31
0.0
  0
LINE
  8
DETAIL
  6
CONTINUOUS
 62
     5
 10
153.99999699999989
 20
0.0
 30
0.0
 11
0.0
 21
0.0
 31
0.0
  0
LINE
  8
DETAIL
  6
CONTINUOUS
 62
     5
 10
-190.0
 20
0.0
 30
0.0
 11
190.0
 21
0.0
 31
0.0
  0
LINE
  8
DETAIL
  6
CONTINUOUS
 62
     5
 10
-190.0
 20
-7.0
 30
0.0
 11
190.0
 21
-7.0
 31
0.0
  0
TEXT
  8
SIZE
  6
CONTINUOUS
 62
    30
 10
-110.5371428571429
 20
-711.16515727624085
 30
0.0
 40
64.0
  1
□380
 41
0.9
 72
     1
 11
0.0
 21
-711.16515727624085
 31
0.0
  0
LINE
  8
SIZE
  6
CONTINUOUS
 62
    30
 10
-178.0
 20
-736.16515727624073
 30
0.0
 11
178.0
 21
-736.16515727624073
 31
0.0
  0
TEXT
  8
SIZE
  6
CONTINUOUS
 62
    30
 10
-110.5371428571429
 20
648.55560217370339
 30
0.0
 40
64.0
  1
□307
 41
0.9
 72
     1
 11
0.0
 21
648.55560217370339
 31
0.0
  0
LINE
  8
SIZE
  6
CONTINUOUS
 62
    30
 10
-141.5
 20
623.55560217370339
 30
0.0
 11
141.5
 21
623.55560217370339
 31
0.0
  0
TEXT
  8
SIZE
  6
CONTINUOUS
 62
    30
 10
-74.05714285714285
 20
521.62046217370289
 30
0.0
 40
64.0
  1
200
 41
0.9
 72
     1
 11
0.0
 21
521.62046217370289
 31
0.0
  0
LINE
  8
SIZE
  6
CONTINUOUS
 62
    30
 10
-88.0
 20
496.62046217370289
 30
0.0
 11
88.0
 21
496.62046217370289
 31
0.0
  0
TEXT
  8
SIZE
  6
CONTINUOUS
 62
    30
 10
-84.948571428571398
 20
411.12742317300439
 30
0.0
 40
64.0
  1
φ82
 41
0.9
 72
     1
 11
2.0
 21
411.12742317300439
 31
0.0
  0
LINE
  8
SIZE
  6
CONTINUOUS
 62
    30
 10
-39.000001999999768
 20
376.21650617370318
 30
0.0
 11
43.000001999999768
 21
376.21650617370318
 31
0.0
  0
LINE
  8
DETAIL
  6
CONTINUOUS
 62
     5
 10
75.0
 20
200.0
 30
0.0
 11
-75.0
 21
200.0
 31
0.0
  0
LINE
  8
DETAIL
  6
CONTINUOUS
 62
     5
 10
75.0
 20
192.0
 30
0.0
 11
-75.0
 21
192.0
 31
0.0
  0
TEXT
  8
SIZE
  6
CONTINUOUS
 62
    30
 10
-74.05714285714285
 20
-582.45902327624094
 30
0.0
 40
64.0
  1
332
 41
0.9
 72
     1
 11
0.0
 21
-582.45902327624094
 31
0.0
  0
LINE
  8
SIZE
  6
CONTINUOUS
 62
    30
 10
154.0
 20
-607.45902327624094
 30
0.0
 11
-154.0
 21
-607.45902327624094
 31
0.0
  0
TEXT
  8
SIZE
  6
CONTINUOUS
 62
    30
 10
-74.05714285714285
 20
-457.79544427624091
 30
0.0
 40
64.0
  1
200
 41
0.9
 72
     1
 11
0.0
 21
-457.79544427624091
 31
0.0
  0
LINE
  8
SIZE
  6
CONTINUOUS
 62
    30
 10
88.0
 20
-482.79544427624091
 30
0.0
 11
-88.0
 21
-482.79544427624091
 31
0.0
  0
LINE
  8
DETAIL
  6
CONTINUOUS
 62
     5
 10
43.0
 20
213.0
 30
0.0
 11
-39.0
 21
213.0
 31
0.0
  0
LINE
  8
DETAIL
  6
CONTINUOUS
 62
     5
 10
2.0
 20
243.0
 30
0.0
 11
-20.079999999999931
 21
243.0
 31
0.0
  0
LINE
  8
DETAIL
  6
CONTINUOUS
 62
     5
 10
-20.079999999999931
 20
240.9760839999999
 30
0.0
 11
2.0
 21
240.9760839999999
 31
0.0
  0
LINE
  8
DETAIL
  6
CONTINUOUS
 62
     5
 10
-33.940000000000047
 20
240.9760839999999
 30
0.0
 11
2.0
 21
240.9760839999999
 31
0.0
  0
LINE
  8
DETAIL
  6
CONTINUOUS
 62
     5
 10
2.0
 20
243.0
 30
0.0
 11
-27.468953000000059
 21
243.0
 31
0.0
  0
LINE
  8
DETAIL
  6
CONTINUOUS
 62
     5
 10
60.0
 20
208.0
 30
0.0
 11
-56.0
 21
208.0
 31
0.0
  0
LINE
  8
SIZE
  6
CONTINUOUS
 62
    30
 10
-749.1576311277513
 20
0.0
 30
0.0
 11
-749.1576311277513
 21
12.0
 31
0.0
  0
CIRCLE
  8
SIZE
  6
CONTINUOUS
 62
    30
 10
-749.1576311277513
 20
0.0
 30
0.0
 40
6.0
  0
LINE
  8
DETAIL
  6
CONTINUOUS
 62
     5
 10
-153.5
 20
0.0
 30
0.0
 11
-153.5
 21
200.0
 31
0.0
  0
LINE
  8
DETAIL
  6
CONTINUOUS
 62
     5
 10
-158.75
 20
54.0
 30
0.0
 11
-158.75
 21
0.0
 31
0.0
  0
LINE
  8
DETAIL
  6
CONTINUOUS
 62
     5
 10
-155.25
 20
229.0
 30
0.0
 11
-155.25
 21
0.0
 31
0.0
  0
LINE
  8
DETAIL
  6
CONTINUOUS
 62
     5
 10
-153.5
 20
0.0
 30
0.0
 11
-153.5
 21
229.0
 31
0.0
  0
LINE
  8
DETAIL
  6
CONTINUOUS
 62
     5
 10
-153.5
 20
0.0
 30
0.0
 11
-153.5
 21
208.0
 31
0.0
  0
CIRCLE
  8
FIX
  6
CONTINUOUS
 62
    11
 10
-166.0
 20
0.0
 30
0.0
 40
2.5
  0
LINE
  8
NOTE
  6
CONTINUOUS
 62
     4
 10
-166.0
 20
-20.0
 30
0.0
 11
-166.0
 21
20.0
 31
0.0
  0
CIRCLE
  8
FIX
  6
CONTINUOUS
 62
    11
 10
-100.0
 20
0.0
 30
0.0
 40
2.5
  0
LINE
  8
NOTE
  6
CONTINUOUS
 62
     4
 10
-100.0
 20
-20.0
 30
0.0
 11
-100.0
 21
20.0
 31
0.0
  0
LINE
  8
DETAIL
  6
CONTINUOUS
 62
     5
 10
-153.5
 20
0.0
 30
0.0
 11
-153.5
 21
43.0
 31
0.0
  0
LINE
  8
BASIS
  6
DASHDOT
 62
     6
 10
0.0
 20
-70.84348
 30
0.0
 11
0.0
 21
293.87911200000008
 31
0.0
  0
LINE
  8
DETAIL
  6
CONTINUOUS
 62
     5
 10
-190.0
 20
-0.8571230000000014
 30
0.0
 11
-190.0
 21
-7.0
 31
0.0
  0
LINE
  8
SIZE
  6
CONTINUOUS
 62
    30
 10
-210.0
 20
0.0
 30
0.0
 11
-769.1576311277513
 21
0.0
 31
0.0
  0
TEXT
  8
SIZE
  6
CONTINUOUS
 62
    30
 10
-774.1576311277513
 20
-174.14285757142849
 30
0.0
 40
64.0
  1
135
 50
90.0
 41
0.9
 72
     1
 11
-774.1576311277513
 21
-105.57142899999999
 31
0.0
  0
LINE
  8
SIZE
  6
CONTINUOUS
 62
    30
 10
-749.1576311277513
 20
0.0
 30
0.0
 11
-749.1576311277513
 21
-199.14285699999999
 31
0.0
  0
LINE
  8
SIZE
  6
CONTINUOUS
 62
    30
 10
-190.0
 20
-20.0
 30
0.0
 11
-190.0
 21
-756.16515727624073
 31
0.0
  0
LINE
  8
SIZE
  6
CONTINUOUS
 62
    30
 10
-166.0
 20
-40.0
 30
0.0
 11
-166.0
 21
-627.45902327624094
 31
0.0
  0
LINE
  8
SIZE
  6
CONTINUOUS
 62
    30
 10
-190.0
 20
-736.16515727624073
 30
0.0
 11
-178.0
 21
-736.16515727624073
 31
0.0
  0
CIRCLE
  8
SIZE
  6
CONTINUOUS
 62
    30
 10
-190.0
 20
-736.16515727624073
 30
0.0
 40
6.0
  0
LINE
  8
SIZE
  6
CONTINUOUS
 62
    30
 10
-100.0
 20
-40.0
 30
0.0
 11
-100.0
 21
-502.79544427624091
 31
0.0
  0
LINE
  8
SIZE
  6
CONTINUOUS
 62
    30
 10
-166.0
 20
-607.45902327624094
 30
0.0
 11
-154.0
 21
-607.45902327624094
 31
0.0
  0
CIRCLE
  8
SIZE
  6
CONTINUOUS
 62
    30
 10
-166.0
 20
-607.45902327624094
 30
0.0
 40
6.0
  0
LINE
  8
SIZE
  6
CONTINUOUS
 62
    30
 10
-100.0
 20
-482.79544427624091
 30
0.0
 11
-88.0
 21
-482.79544427624091
 31
0.0
  0
CIRCLE
  8
SIZE
  6
CONTINUOUS
 62
    30
 10
-100.0
 20
-482.79544427624091
 30
0.0
 40
6.0
  0
LINE
  8
OUTLINE
  6
CONTINUOUS
 62
     3
 10
-153.99999699999989
 20
0.0
 30
0.0
 11
0.0
 21
0.0
 31
0.0
  0
LINE
  8
DETAIL
  6
CONTINUOUS
 62
     5
 10
-153.99999699999989
 20
0.0
 30
0.0
 11
0.0
 21
0.0
 31
0.0
  0
LINE
  8
NOTE
  6
CONTINUOUS
 62
     4
 10
-80.0
 20
0.0
 30
0.0
 11
-120.0
 21
0.0
 31
0.0
  0
LINE
  8
NOTE
  6
CONTINUOUS
 62
     4
 10
-146.0
 20
0.0
 30
0.0
 11
-186.0
 21
0.0
 31
0.0
  0
LINE
  8
DETAIL
  6
CONTINUOUS
 62
     5
 10
-190.0
 20
-0.8571230000000014
 30
0.0
 11
-190.0
 21
0.0
 31
0.0
  0
LINE
  8
SIZE
  6
CONTINUOUS
 62
    30
 10
-153.5
 20
247.0
 30
0.0
 11
-153.5
 21
643.55560217370339
 31
0.0
  0
LINE
  8
SIZE
  6
CONTINUOUS
 62
    30
 10
-295.5
 20
227.0
 30
0.0
 11
-295.5
 21
643.55560217370339
 31
0.0
  0
LINE
  8
SIZE
  6
CONTINUOUS
 62
    30
 10
-153.5
 20
247.0
 30
0.0
 11
-153.5
 21
643.55560217370339
 31
0.0
  0
TEXT
  8
SIZE
  6
CONTINUOUS
 62
    30
 10
-484.58005765216041
 20
520.85640317370326
 30
0.0
 40
64.0
  1
57
 41
0.9
 72
     1
 11
-437.95148622358897
 21
520.85640317370326
 31
0.0
  0
LINE
  8
SIZE
  6
CONTINUOUS
 62
    30
 10
-307.5
 20
495.85640317370331
 30
0.0
 11
-509.58005822358882
 21
495.85640317370331
 31
0.0
  0
LINE
  8
SIZE
  6
CONTINUOUS
 62
    30
 10
-307.5
 20
374.30574117370321
 30
0.0
 11
-509.58005822358882
 21
374.30574117370321
 31
0.0
  0
LINE
  8
SIZE
  6
CONTINUOUS
 62
    30
 10
-364.67376235364372
 20
135.0
 30
0.0
 11
-769.1576311277513
 21
135.0
 31
0.0
  0
LINE
  8
SIZE
  6
CONTINUOUS
 62
    30
 10
-315.5
 20
207.0
 30
0.0
 11
-899.31678112775126
 21
207.0
 31
0.0
  0
LINE
  8
SIZE
  6
CONTINUOUS
 62
    30
 10
-318.5
 20
63.0
 30
0.0
 11
-899.31678112775126
 21
63.0
 31
0.0
  0
LINE
  8
SIZE
  6
CONTINUOUS
 62
    30
 10
-288.5
 20
59.0
 30
0.0
 11
-1026.5834341277509
 21
59.0
 31
0.0
  0
LINE
  8
SIZE
  6
CONTINUOUS
 62
    30
 10
-288.5
 20
211.0
 30
0.0
 11
-1026.5834341277509
 21
211.0
 31
0.0
  0
TEXT
  8
SIZE
  6
CONTINUOUS
 62
    30
 10
-904.31678112775126
 20
-171.0057141428573
 30
0.0
 40
64.0
  1
φ144
 50
90.0
 41
0.9
 72
     1
 11
-904.31678112775126
 21
-60.742857000000193
 31
0.0
  0
LINE
  8
SIZE
  6
CONTINUOUS
 62
    30
 10
-879.31678112775126
 20
-200.61656099999999
 30
0.0
 11
-879.31678112775126
 21
63.0
 31
0.0
  0
TEXT
  8
SIZE
  6
CONTINUOUS
 62
    30
 10
-1055.5650270111339
 20
26.945161323180439
 30
0.0
 40
64.0
  1
φ152
 50
90.0
 41
0.9
 72
     1
 11
-1055.5650270111339
 21
135.83658989460901
 31
0.0
  0
LINE
  8
SIZE
  6
CONTINUOUS
 62
    30
 10
-1006.583434127751
 20
71.0
 30
0.0
 11
-1006.583434127751
 21
199.0
 31
0.0
  0
LINE
  8
SIZE
  6
CONTINUOUS
 62
    30
 10
-1006.583434127751
 20
59.0
 30
0.0
 11
-1006.583434127751
 21
71.0
 31
0.0
  0
CIRCLE
  8
SIZE
  6
CONTINUOUS
 62
    30
 10
-1006.583434127751
 20
59.0
 30
0.0
 40
6.0
  0
LINE
  8
SIZE
  6
CONTINUOUS
 62
    30
 10
-1006.583434127751
 20
211.0
 30
0.0
 11
-1006.583434127751
 21
199.0
 31
0.0
  0
CIRCLE
  8
SIZE
  6
CONTINUOUS
 62
    30
 10
-1006.583434127751
 20
211.0
 30
0.0
 40
6.0
  0
LINE
  8
SIZE
  6
CONTINUOUS
 62
    30
 10
-879.31678112775126
 20
75.0
 30
0.0
 11
-879.31678112775126
 21
195.0
 31
0.0
  0
LINE
  8
SIZE
  6
CONTINUOUS
 62
    30
 10
-879.31678112775126
 20
63.0
 30
0.0
 11
-879.31678112775126
 21
75.0
 31
0.0
  0
CIRCLE
  8
SIZE
  6
CONTINUOUS
 62
    30
 10
-879.31678112775126
 20
63.0
 30
0.0
 40
6.0
  0
LINE
  8
SIZE
  6
CONTINUOUS
 62
    30
 10
-749.1576311277513
 20
123.0
 30
0.0
 11
-749.1576311277513
 21
12.0
 31
0.0
  0
CIRCLE
  8
SIZE
  6
CONTINUOUS
 62
    30
 10
-749.1576311277513
 20
135.0
 30
0.0
 40
6.0
  0
LINE
  8
SIZE
  6
CONTINUOUS
 62
    30
 10
-749.1576311277513
 20
135.0
 30
0.0
 11
-749.1576311277513
 21
123.0
 31
0.0
  0
LINE
  8
SIZE
  6
CONTINUOUS
 62
    30
 10
-879.31678112775126
 20
207.0
 30
0.0
 11
-879.31678112775126
 21
195.0
 31
0.0
  0
CIRCLE
  8
SIZE
  6
CONTINUOUS
 62
    30
 10
-879.31678112775126
 20
207.0
 30
0.0
 40
6.0
  0
LINE
  8
SIZE
  6
CONTINUOUS
 62
    30
 10
-100.0
 20
248.0
 30
0.0
 11
-100.0
 21
516.62046217370289
 31
0.0
  0
LINE
  8
SIZE
  6
CONTINUOUS
 62
    30
 10
-39.000001999999768
 20
253.33999999999969
 30
0.0
 11
-39.000001999999768
 21
396.21650617370318
 31
0.0
  0
LINE
  8
SIZE
  6
CONTINUOUS
 62
    30
 10
-238.5
 20
235.0
 30
0.0
 11
-238.5
 21
515.85640317370326
 31
0.0
  0
LINE
  8
SIZE
  6
CONTINUOUS
 62
    30
 10
-295.5
 20
227.0
 30
0.0
 11
-295.5
 21
515.85640317370326
 31
0.0
  0
LINE
  8
SIZE
  6
CONTINUOUS
 62
    30
 10
-268.5
 20
231.0
 30
0.0
 11
-268.5
 21
394.30574117370321
 31
0.0
  0
LINE
  8
SIZE
  6
CONTINUOUS
 62
    30
 10
-295.5
 20
227.0
 30
0.0
 11
-295.5
 21
394.30574117370321
 31
0.0
  0
LINE
  8
BASIS
  6
DASHDOT
 62
     6
 10
-353.99575395966622
 20
135.0
 30
0.0
 11
-130.21645200000009
 21
135.0
 31
0.0
  0
LINE
  8
DETAIL
  6
CONTINUOUS
 62
     5
 10
-238.5
 20
216.0
 30
0.0
 11
-155.25
 21
216.0
 31
0.0
  0
LINE
  8
DETAIL
  6
CONTINUOUS
 62
     5
 10
-238.5
 20
54.0
 30
0.0
 11
-153.5
 21
54.0
 31
0.0
  0
LINE
  8
DETAIL
  6
CONTINUOUS
 62
     5
 10
-295.5
 20
63.0
 30
0.0
 11
-295.5
 21
207.0
 31
0.0
  0
LINE
  8
DETAIL
  6
CONTINUOUS
 62
     5
 10
-268.5
 20
59.0
 30
0.0
 11
-268.5
 21
211.0
 31
0.0
  0
LINE
  8
DETAIL
  6
CONTINUOUS
 62
     5
 10
-238.5
 20
54.0
 30
0.0
 11
-238.5
 21
216.0
 31
0.0
  0
TEXT
  8
NOTE
  6
CONTINUOUS
 62
     4
 10
-457.60746899999998
 20
83.469680000000153
 30
0.0
 40
64.0
  1
EA
 41
0.9
  0
LINE
  8
DETAIL
  6
CONTINUOUS
 62
     5
 10
-295.5
 20
63.0
 30
0.0
 11
-268.5
 21
63.0
 31
0.0
  0
LINE
  8
DETAIL
  6
CONTINUOUS
 62
     5
 10
-268.5
 20
59.0
 30
0.0
 11
-238.5
 21
59.0
 31
0.0
  0
LINE
  8
DETAIL
  6
CONTINUOUS
 62
     5
 10
-295.5
 20
207.0
 30
0.0
 11
-268.5
 21
207.0
 31
0.0
  0
LINE
  8
DETAIL
  6
CONTINUOUS
 62
     5
 10
-268.5
 20
211.0
 30
0.0
 11
-238.5
 21
211.0
 31
0.0
  0
LINE
  8
DETAIL
  6
CONTINUOUS
 62
     5
 10
-75.0
 20
7.0
 30
0.0
 11
-75.0
 21
207.0
 31
0.0
  0
LINE
  8
DETAIL
  6
CONTINUOUS
 62
     5
 10
-125.0
 20
7.0
 30
0.0
 11
-125.0
 21
207.0
 31
0.0
  0
LINE
  8
DETAIL
  6
CONTINUOUS
 62
     5
 10
-125.0
 20
7.0
 30
0.0
 11
-75.0
 21
7.0
 31
0.0
  0
LINE
  8
DETAIL
  6
CONTINUOUS
 62
     5
 10
-64.75077999999985
 20
28.0
 30
0.0
 11
-43.75077999999985
 21
28.0
 31
0.0
  0
LINE
  8
DETAIL
  6
CONTINUOUS
 62
     5
 10
-64.75077999999985
 20
8.0
 30
0.0
 11
-43.75077999999985
 21
8.0
 31
0.0
  0
LINE
  8
DETAIL
  6
CONTINUOUS
 62
     5
 10
-64.75077999999985
 20
25.0
 30
0.0
 11
-43.75077999999985
 21
25.0
 31
0.0
  0
LINE
  8
DETAIL
  6
CONTINUOUS
 62
     5
 10
-64.75077999999985
 20
11.0
 30
0.0
 11
-43.75077999999985
 21
11.0
 31
0.0
  0
LINE
  8
BASIS
  6
DASHDOT
 62
     6
 10
-79.284600999999839
 20
18.0
 30
0.0
 11
-28.718519000000011
 21
18.0
 31
0.0
  0
LINE
  8
DETAIL
  6
CONTINUOUS
 62
     5
 10
-74.750780000000077
 20
18.0
 30
0.0
 11
-74.750780000000077
 21
18.0
 31
0.0
  0
ARC
  8
DETAIL
  6
CONTINUOUS
 62
     5
 10
-64.75077999999985
 20
18.0
 30
0.0
 40
10.0
 50
90.0
 51
180.0
  0
ARC
  8
DETAIL
  6
CONTINUOUS
 62
     5
 10
-64.75077999999985
 20
18.0
 30
0.0
 40
10.0
 50
180.0
 51
270.0
  0
ARC
  8
DETAIL
  6
CONTINUOUS
 62
     5
 10
-64.75077999999985
 20
18.0
 30
0.0
 40
7.0
 50
90.0
 51
180.0
  0
ARC
  8
DETAIL
  6
CONTINUOUS
 62
     5
 10
-64.75077999999985
 20
18.0
 30
0.0
 40
7.0
 50
180.0
 51
270.0
  0
ARC
  8
DETAIL
  6
CONTINUOUS
 62
     5
 10
-43.75077999999985
 20
18.0
 30
0.0
 40
10.0
 50
0.0
 51
90.0
  0
ARC
  8
DETAIL
  6
CONTINUOUS
 62
     5
 10
-43.75077999999985
 20
18.0
 30
0.0
 40
10.0
 50
270.0
 51
0.0
  0
ARC
  8
DETAIL
  6
CONTINUOUS
 62
     5
 10
-43.75077999999985
 20
18.0
 30
0.0
 40
7.0
 50
270.0
 51
0.0
  0
ARC
  8
DETAIL
  6
CONTINUOUS
 62
     5
 10
-43.75077999999985
 20
18.0
 30
0.0
 40
7.0
 50
0.0
 51
90.0
  0
LINE
  8
BASIS
  6
DASHDOT
 62
     6
 10
-54.25077999999985
 20
3.5238910000000492
 30
0.0
 11
-54.25077999999985
 21
33.438380999999943
 31
0.0
  0
LINE
  8
NOTE
  6
CONTINUOUS
 62
     4
 10
-80.0
 20
207.0
 30
0.0
 11
-120.0
 21
207.0
 31
0.0
  0
LINE
  8
DETAIL
  6
CONTINUOUS
 62
     5
 10
-125.0
 20
207.0
 30
0.0
 11
-75.0
 21
207.0
 31
0.0
  0
LINE
  8
DETAIL
  6
CONTINUOUS
 62
     5
 10
-125.0
 20
207.0
 30
0.0
 11
-75.0
 21
207.0
 31
0.0
  0
LINE
  8
DETAIL
  6
CONTINUOUS
 62
     5
 10
-125.0
 20
203.5
 30
0.0
 11
-75.0
 21
203.5
 31
0.0
  0
LINE
  8
DETAIL
  6
CONTINUOUS
 62
     5
 10
-125.0
 20
192.0
 30
0.0
 11
-153.5
 21
192.0
 31
0.0
  0
LINE
  8
DETAIL
  6
CONTINUOUS
 62
     5
 10
-125.0
 20
200.0
 30
0.0
 11
-153.5
 21
200.0
 31
0.0
  0
LINE
  8
DETAIL
  6
CONTINUOUS
 62
     5
 10
-158.75
 20
229.0
 30
0.0
 11
-158.75
 21
216.0
 31
0.0
  0
LINE
  8
DETAIL
  6
CONTINUOUS
 62
     5
 10
-158.75
 20
229.0
 30
0.0
 11
-153.5
 21
229.0
 31
0.0
  0
LINE
  8
DETAIL
  6
CONTINUOUS
 62
     5
 10
-56.0
 20
208.0
 30
0.0
 11
-62.394960000000083
 21
200.0
 31
0.0
  0
CIRCLE
  8
FIX
  6
CONTINUOUS
 62
    11
 10
-100.0
 20
207.0
 30
0.0
 40
7.5
  0
LINE
  8
NOTE
  6
CONTINUOUS
 62
     4
 10
-100.0
 20
188.0
 30
0.0
 11
-100.0
 21
227.0
 31
0.0
  0
LINE
  8
DETAIL
  6
CONTINUOUS
 62
     5
 10
-39.0
 20
208.0
 30
0.0
 11
-39.0
 21
235.920312
 31
0.0
  0
ARC
  8
DETAIL
  6
CONTINUOUS
 62
     5
 10
-33.940000000000047
 20
235.91609800000009
 30
0.0
 40
5.060001999999999
 50
90.0
 51
179.99999899999861
  0
LINE
  8
DETAIL
  6
CONTINUOUS
 62
     5
 10
-28.63746999999967
 20
240.9760839999999
 30
0.0
 11
-27.468961999999919
 21
242.99998599999981
 31
0.0
  0
TEXT
  8
SIZE
  6
CONTINUOUS
 62
    30
 10
-486.4434967022691
 20
399.30574117370321
 30
0.0
 40
64.0
  1
27
 41
0.9
 72
     1
 11
-439.81492527369772
 21
399.30574117370321
 31
0.0
  0
CIRCLE
  8
SIZE
  6
CONTINUOUS
 62
    30
 10
-295.5
 20
374.30574117370321
 30
0.0
 40
6.0
  0
LINE
  8
SIZE
  6
CONTINUOUS
 62
    30
 10
-268.5
 20
374.30574117370321
 30
0.0
 11
-295.5
 21
374.30574117370321
 31
0.0
  0
LINE
  8
SIZE
  6
CONTINUOUS
 62
    30
 10
-295.5
 20
374.30574117370321
 30
0.0
 11
-307.5
 21
374.30574117370321
 31
0.0
  0
LINE
  8
SIZE
  6
CONTINUOUS
 62
    30
 10
-268.5
 20
374.30574117370321
 30
0.0
 11
-256.5
 21
374.30574117370321
 31
0.0
  0
CIRCLE
  8
SIZE
  6
CONTINUOUS
 62
    30
 10
-268.5
 20
374.30574117370321
 30
0.0
 40
6.0
  0
LINE
  8
SIZE
  6
CONTINUOUS
 62
    30
 10
-256.5
 20
374.30574117370321
 30
0.0
 11
-244.4999999999998
 21
374.30574117370321
 31
0.0
  0
CIRCLE
  8
SIZE
  6
CONTINUOUS
 62
    30
 10
-295.5
 20
495.85640317370331
 30
0.0
 40
6.0
  0
LINE
  8
SIZE
  6
CONTINUOUS
 62
    30
 10
-238.5
 20
495.85640317370331
 30
0.0
 11
-295.5
 21
495.85640317370331
 31
0.0
  0
LINE
  8
SIZE
  6
CONTINUOUS
 62
    30
 10
-295.5
 20
495.85640317370331
 30
0.0
 11
-307.5
 21
495.85640317370331
 31
0.0
  0
CIRCLE
  8
SIZE
  6
CONTINUOUS
 62
    30
 10
-238.5
 20
495.85640317370331
 30
0.0
 40
6.0
  0
CIRCLE
  8
SIZE
  6
CONTINUOUS
 62
    30
 10
-39.000001999999768
 20
376.21650617370318
 30
0.0
 40
6.0
  0
LINE
  8
SIZE
  6
CONTINUOUS
 62
    30
 10
-100.0
 20
496.62046217370289
 30
0.0
 11
-88.0
 21
496.62046217370289
 31
0.0
  0
CIRCLE
  8
SIZE
  6
CONTINUOUS
 62
    30
 10
-100.0
 20
496.62046217370289
 30
0.0
 40
6.0
  0
TEXT
  8
SIZE
  6
CONTINUOUS
 62
    30
 10
-293.07142857142861
 20
648.55560217370339
 30
0.0
 40
64.0
  1
142
 41
0.9
 72
     1
 11
-224.5
 21
648.55560217370339
 31
0.0
  0
LINE
  8
SIZE
  6
CONTINUOUS
 62
    30
 10
-153.5
 20
623.55560217370339
 30
0.0
 11
-295.5
 21
623.55560217370339
 31
0.0
  0
CIRCLE
  8
SIZE
  6
CONTINUOUS
 62
    30
 10
-295.5
 20
623.55560217370339
 30
0.0
 40
6.0
  0
LINE
  8
SIZE
  6
CONTINUOUS
 62
    30
 10
-153.5
 20
623.55560217370339
 30
0.0
 11
-141.5
 21
623.55560217370339
 31
0.0
  0
CIRCLE
  8
SIZE
  6
CONTINUOUS
 62
    30
 10
-153.5
 20
623.55560217370339
 30
0.0
 40
6.0
  0
LINE
  8
SIZE
  6
CONTINUOUS
 62
    30
 10
-153.5
 20
623.55560217370339
 30
0.0
 11
-141.5
 21
623.55560217370339
 31
0.0
  0
CIRCLE
  8
SIZE
  6
CONTINUOUS
 62
    30
 10
-153.5
 20
623.55560217370339
 30
0.0
 40
6.0
  0
LINE
  8
SIZE
  6
CONTINUOUS
 62
    30
 10
-141.5
 20
623.55560217370339
 30
0.0
 11
-129.49999999999949
 21
623.55560217370339
 31
0.0
  0
LINE
  8
OUTLINE
  6
CONTINUOUS
 62
     3
 10
153.5
 20
0.0
 30
0.0
 11
153.5
 21
200.0
 31
0.0
  0
LINE
  8
SIZE
  6
CONTINUOUS
 62
    30
 10
795.90036699999973
 20
0.0
 30
0.0
 11
795.90036699999973
 21
12.0
 31
0.0
  0
CIRCLE
  8
SIZE
  6
CONTINUOUS
 62
    30
 10
795.90036699999973
 20
0.0
 30
0.0
 40
6.0
  0
LINE
  8
SIZE
  6
CONTINUOUS
 62
    30
 10
795.90036699999973
 20
0.0
 30
0.0
 11
795.90036699999973
 21
12.0
 31
0.0
  0
CIRCLE
  8
SIZE
  6
CONTINUOUS
 62
    30
 10
795.90036699999973
 20
0.0
 30
0.0
 40
6.0
  0
LINE
  8
NOTE
  6
CONTINUOUS
 62
     4
 10
166.00336299999981
 20
0.0010899999999765
 30
0.0
 11
195.12044999999989
 21
-27.425089000000071
 31
0.0
  0
LINE
  8
NOTE
  6
CONTINUOUS
 62
     4
 10
177.50640999999999
 20
-38.30922099999998
 30
0.0
 11
166.00336299999981
 21
0.0010899999999765
 31
0.0
  0
LINE
  8
NOTE
  6
CONTINUOUS
 62
     4
 10
166.0
 20
-20.0
 30
0.0
 11
166.0
 21
20.0
 31
0.0
  0
CIRCLE
  8
FIX
  6
CONTINUOUS
 62
    11
 10
166.0
 20
0.0
 30
0.0
 40
2.5
  0
LINE
  8
NOTE
  6
CONTINUOUS
 62
     4
 10
100.0
 20
-20.0
 30
0.0
 11
100.0
 21
20.0
 31
0.0
  0
CIRCLE
  8
FIX
  6
CONTINUOUS
 62
    11
 10
100.0
 20
0.0
 30
0.0
 40
2.5
  0
LINE
  8
DETAIL
  6
CONTINUOUS
 62
     5
 10
153.5
 20
0.0
 30
0.0
 11
153.5
 21
200.0
 31
0.0
  0
LINE
  8
DETAIL
  6
CONTINUOUS
 62
     5
 10
190.0
 20
-0.8571230000000014
 30
0.0
 11
190.0
 21
-7.0
 31
0.0
  0
LINE
  8
SIZE
  6
CONTINUOUS
 62
    30
 10
119.8917499999998
 20
-25.0
 30
0.0
 11
815.90036699999973
 21
-25.0
 31
0.0
  0
LINE
  8
SIZE
  6
CONTINUOUS
 62
    30
 10
210.0
 20
0.0
 30
0.0
 11
815.90036699999973
 21
0.0
 31
0.0
  0
LINE
  8
SIZE
  6
CONTINUOUS
 62
    30
 10
210.0
 20
0.0
 30
0.0
 11
815.90036699999973
 21
0.0
 31
0.0
  0
LINE
  8
NOTE
  6
CONTINUOUS
 62
     4
 10
277.2510299999999
 20
-185.72582700000001
 30
0.0
 11
668.04225599999972
 21
-185.72582700000001
 31
0.0
  0
TEXT
  8
NOTE
  6
CONTINUOUS
 62
     4
 10
280.88134200000007
 20
-152.76155600000001
 30
0.0
 40
64.0
  1
8-φ5×8
 41
0.9
  0
LINE
  8
SIZE
  6
CONTINUOUS
 62
    30
 10
190.0
 20
-20.0
 30
0.0
 11
190.0
 21
-756.16515727624073
 31
0.0
  0
LINE
  8
SIZE
  6
CONTINUOUS
 62
    30
 10
166.0
 20
-40.0
 30
0.0
 11
166.0
 21
-627.45902327624094
 31
0.0
  0
LINE
  8
SIZE
  6
CONTINUOUS
 62
    30
 10
190.0
 20
-736.16515727624073
 30
0.0
 11
178.0
 21
-736.16515727624073
 31
0.0
  0
CIRCLE
  8
SIZE
  6
CONTINUOUS
 62
    30
 10
190.0
 20
-736.16515727624073
 30
0.0
 40
6.0
  0
LINE
  8
NOTE
  6
CONTINUOUS
 62
     4
 10
166.01228899999981
 20
-0.0526009999999815
 30
0.0
 11
277.2510299999999
 21
-185.72582700000001
 31
0.0
  0
LINE
  8
SIZE
  6
CONTINUOUS
 62
    30
 10
100.0
 20
-40.0
 30
0.0
 11
100.0
 21
-502.79544427624091
 31
0.0
  0
LINE
  8
SIZE
  6
CONTINUOUS
 62
    30
 10
100.0
 20
-482.79544427624091
 30
0.0
 11
88.0
 21
-482.79544427624091
 31
0.0
  0
CIRCLE
  8
SIZE
  6
CONTINUOUS
 62
    30
 10
100.0
 20
-482.79544427624091
 30
0.0
 40
6.0
  0
LINE
  8
SIZE
  6
CONTINUOUS
 62
    30
 10
166.0
 20
-607.45902327624094
 30
0.0
 11
154.0
 21
-607.45902327624094
 31
0.0
  0
CIRCLE
  8
SIZE
  6
CONTINUOUS
 62
    30
 10
166.0
 20
-607.45902327624094
 30
0.0
 40
6.0
  0
LINE
  8
NOTE
  6
CONTINUOUS
 62
     4
 10
80.0
 20
0.0
 30
0.0
 11
120.0
 21
0.0
 31
0.0
  0
LINE
  8
NOTE
  6
CONTINUOUS
 62
     4
 10
146.0
 20
0.0
 30
0.0
 11
186.0
 21
0.0
 31
0.0
  0
LINE
  8
DETAIL
  6
CONTINUOUS
 62
     5
 10
190.0
 20
-0.8571230000000014
 30
0.0
 11
190.0
 21
0.0
 31
0.0
  0
TEXT
  8
SIZE
  6
CONTINUOUS
 62
    30
 10
770.90036699999973
 20
-167.2571424285712
 30
0.0
 40
64.0
  1
25
 50
90.0
 41
0.9
 72
     1
 11
770.90036699999973
 21
-120.6285709999997
 31
0.0
  0
LINE
  8
SIZE
  6
CONTINUOUS
 62
    30
 10
795.90036699999973
 20
-37.0
 30
0.0
 11
795.90036699999973
 21
-192.2571429999999
 31
0.0
  0
LINE
  8
SIZE
  6
CONTINUOUS
 62
    30
 10
795.90036699999973
 20
-25.0
 30
0.0
 11
795.90036699999973
 21
-37.0
 31
0.0
  0
CIRCLE
  8
SIZE
  6
CONTINUOUS
 62
    30
 10
795.90036699999973
 20
-25.0
 30
0.0
 40
6.0
  0
LINE
  8
SIZE
  6
CONTINUOUS
 62
    30
 10
795.90036699999973
 20
0.0
 30
0.0
 11
795.90036699999973
 21
-25.0
 31
0.0
  0
TEXT
  8
NOTE
  6
CONTINUOUS
 62
     4
 10
219.00656326830989
 20
325.5546605895679
 30
0.0
 40
64.0
  1
AH 4
 41
0.9
  0
LINE
  8
NOTE
  6
CONTINUOUS
 62
     4
 10
215.39370726830981
 20
305.91292523950762
 30
0.0
 11
437.57888888491112
 21
305.91292523950762
 31
0.0
  0
LINE
  8
SIZE
  6
CONTINUOUS
 62
    30
 10
153.5
 20
220.0
 30
0.0
 11
153.5
 21
643.55560217370339
 31
0.0
  0
LINE
  8
SIZE
  6
CONTINUOUS
 62
    30
 10
49.295710064423467
 20
243.0
 30
0.0
 11
815.90036699999973
 21
243.0
 31
0.0
  0
LINE
  8
NOTE
  6
CONTINUOUS
 62
     4
 10
100.0
 20
207.0
 30
0.0
 11
215.39370726830981
 21
305.91292523950762
 31
0.0
  0
LINE
  8
SIZE
  6
CONTINUOUS
 62
    30
 10
100.0
 20
248.0
 30
0.0
 11
100.0
 21
516.62046217370289
 31
0.0
  0
LINE
  8
SIZE
  6
CONTINUOUS
 62
    30
 10
43.000001999999768
 20
253.33999999999969
 30
0.0
 11
43.000001999999768
 21
396.21650617370318
 31
0.0
  0
LINE
  8
DETAIL
  6
CONTINUOUS
 62
     5
 10
125.0
 20
7.0
 30
0.0
 11
125.0
 21
207.0
 31
0.0
  0
LINE
  8
DETAIL
  6
CONTINUOUS
 62
     5
 10
75.0
 20
7.0
 30
0.0
 11
75.0
 21
207.0
 31
0.0
  0
LINE
  8
DETAIL
  6
CONTINUOUS
 62
     5
 10
125.0
 20
7.0
 30
0.0
 11
75.0
 21
7.0
 31
0.0
  0
LINE
  8
DETAIL
  6
CONTINUOUS
 62
     5
 10
65.24922000000015
 20
11.0
 30
0.0
 11
44.24922000000015
 21
11.0
 31
0.0
  0
LINE
  8
DETAIL
  6
CONTINUOUS
 62
     5
 10
65.24922000000015
 20
25.0
 30
0.0
 11
44.24922000000015
 21
25.0
 31
0.0
  0
LINE
  8
DETAIL
  6
CONTINUOUS
 62
     5
 10
65.24922000000015
 20
8.0
 30
0.0
 11
44.24922000000015
 21
8.0
 31
0.0
  0
LINE
  8
DETAIL
  6
CONTINUOUS
 62
     5
 10
65.24922000000015
 20
28.0
 30
0.0
 11
44.24922000000015
 21
28.0
 31
0.0
  0
LINE
  8
BASIS
  6
DASHDOT
 62
     6
 10
79.783041000000139
 20
18.0
 30
0.0
 11
29.216959000000319
 21
18.0
 31
0.0
  0
ARC
  8
DETAIL
  6
CONTINUOUS
 62
     5
 10
44.24922000000015
 20
18.0
 30
0.0
 40
7.0
 50
90.0
 51
180.0
  0
ARC
  8
DETAIL
  6
CONTINUOUS
 62
     5
 10
44.24922000000015
 20
18.0
 30
0.0
 40
7.0
 50
180.0
 51
270.0
  0
ARC
  8
DETAIL
  6
CONTINUOUS
 62
     5
 10
44.24922000000015
 20
18.0
 30
0.0
 40
10.0
 50
180.0
 51
270.0
  0
ARC
  8
DETAIL
  6
CONTINUOUS
 62
     5
 10
44.24922000000015
 20
18.0
 30
0.0
 40
10.0
 50
90.0
 51
180.0
  0
LINE
  8
BASIS
  6
DASHDOT
 62
     6
 10
54.749219999999703
 20
3.5238910000000492
 30
0.0
 11
54.749219999999703
 21
33.438380999999943
 31
0.0
  0
ARC
  8
DETAIL
  6
CONTINUOUS
 62
     5
 10
65.24922000000015
 20
18.0
 30
0.0
 40
7.0
 50
270.0
 51
0.0
  0
ARC
  8
DETAIL
  6
CONTINUOUS
 62
     5
 10
65.24922000000015
 20
18.0
 30
0.0
 40
7.0
 50
0.0
 51
90.0
  0
ARC
  8
DETAIL
  6
CONTINUOUS
 62
     5
 10
65.24922000000015
 20
18.0
 30
0.0
 40
10.0
 50
270.0
 51
0.0
  0
ARC
  8
DETAIL
  6
CONTINUOUS
 62
     5
 10
65.24922000000015
 20
18.0
 30
0.0
 40
10.0
 50
0.0
 51
90.0
  0
LINE
  8
DETAIL
  6
CONTINUOUS
 62
     5
 10
75.249219999999696
 20
18.0
 30
0.0
 11
75.249219999999696
 21
18.0
 31
0.0
  0
LINE
  8
NOTE
  6
CONTINUOUS
 62
     4
 10
100.0
 20
207.0
 30
0.0
 11
117.0240736581668
 21
233.35557095015929
 31
0.0
  0
LINE
  8
NOTE
  6
CONTINUOUS
 62
     4
 10
80.0
 20
207.0
 30
0.0
 11
120.0
 21
207.0
 31
0.0
  0
LINE
  8
DETAIL
  6
CONTINUOUS
 62
     5
 10
125.0
 20
203.5
 30
0.0
 11
75.0
 21
203.5
 31
0.0
  0
LINE
  8
DETAIL
  6
CONTINUOUS
 62
     5
 10
125.0
 20
207.0
 30
0.0
 11
75.0
 21
207.0
 31
0.0
  0
LINE
  8
DETAIL
  6
CONTINUOUS
 62
     5
 10
125.0
 20
207.0
 30
0.0
 11
75.0
 21
207.0
 31
0.0
  0
LINE
  8
DETAIL
  6
CONTINUOUS
 62
     5
 10
32.637469999999666
 20
240.9760839999999
 30
0.0
 11
31.468961999999919
 21
242.99998599999981
 31
0.0
  0
LINE
  8
DETAIL
  6
CONTINUOUS
 62
     5
 10
37.940000000000047
 20
240.9760839999999
 30
0.0
 11
2.0
 21
240.9760839999999
 31
0.0
  0
LINE
  8
DETAIL
  6
CONTINUOUS
 62
     5
 10
2.0
 20
243.0
 30
0.0
 11
31.468953000000059
 21
243.0
 31
0.0
  0
LINE
  8
DETAIL
  6
CONTINUOUS
 62
     5
 10
43.0
 20
208.0
 30
0.0
 11
43.0
 21
235.91609800000009
 31
0.0
  0
ARC
  8
DETAIL
  6
CONTINUOUS
 62
     5
 10
37.940000000000047
 20
235.91609800000009
 30
0.0
 40
5.060001999999999
 50
0.0000010000014034
 51
90.0
  0
CIRCLE
  8
FIX
  6
CONTINUOUS
 62
    11
 10
100.0
 20
207.0
 30
0.0
 40
7.5
  0
LINE
  8
NOTE
  6
CONTINUOUS
 62
     4
 10
100.0
 20
188.0
 30
0.0
 11
100.0
 21
228.0
 31
0.0
  0
LINE
  8
DETAIL
  6
CONTINUOUS
 62
     5
 10
60.0
 20
208.0
 30
0.0
 11
66.394960000000083
 21
200.0
 31
0.0
  0
LINE
  8
DETAIL
  6
CONTINUOUS
 62
     5
 10
153.5
 20
192.0
 30
0.0
 11
125.0
 21
192.0
 31
0.0
  0
LINE
  8
DETAIL
  6
CONTINUOUS
 62
     5
 10
153.5
 20
200.0
 30
0.0
 11
125.0
 21
200.0
 31
0.0
  0
CIRCLE
  8
SIZE
  6
CONTINUOUS
 62
    30
 10
43.000001999999768
 20
376.21650617370318
 30
0.0
 40
6.0
  0
LINE
  8
SIZE
  6
CONTINUOUS
 62
    30
 10
100.0
 20
496.62046217370289
 30
0.0
 11
88.0
 21
496.62046217370289
 31
0.0
  0
CIRCLE
  8
SIZE
  6
CONTINUOUS
 62
    30
 10
100.0
 20
496.62046217370289
 30
0.0
 40
6.0
  0
TEXT
  8
SIZE
  6
CONTINUOUS
 62
    30
 10
770.90036699999973
 20
47.44285714285715
 30
0.0
 40
64.0
  1
243
 50
90.0
 41
0.9
 72
     1
 11
770.90036699999973
 21
121.5
 31
0.0
  0
LINE
  8
SIZE
  6
CONTINUOUS
 62
    30
 10
795.90036699999973
 20
12.0
 30
0.0
 11
795.90036699999973
 21
231.0
 31
0.0
  0
LINE
  8
SIZE
  6
CONTINUOUS
 62
    30
 10
795.90036699999973
 20
12.0
 30
0.0
 11
795.90036699999973
 21
24.0
 31
0.0
  0
CIRCLE
  8
SIZE
  6
CONTINUOUS
 62
    30
 10
795.90036699999973
 20
243.0
 30
0.0
 40
6.0
  0
LINE
  8
SIZE
  6
CONTINUOUS
 62
    30
 10
795.90036699999973
 20
243.0
 30
0.0
 11
795.90036699999973
 21
231.0
 31
0.0
  0
LINE
  8
SIZE
  6
CONTINUOUS
 62
    30
 10
153.5
 20
623.55560217370339
 30
0.0
 11
141.5
 21
623.55560217370339
 31
0.0
  0
CIRCLE
  8
SIZE
  6
CONTINUOUS
 62
    30
 10
153.5
 20
623.55560217370339
 30
0.0
 40
6.0
  0
LINE
  8
SIZE
  6
CONTINUOUS
 62
    30
 10
-210.0
 20
0.0
 30
0.0
 11
-666.63251436894404
 21
0.0000000000001137
 31
0.0
  0
LINE
  8
SIZE
  6
CONTINUOUS
 62
    30
 10
-258.5
 20
54.0
 30
0.0
 11
-666.63251436894404
 21
54.000000000000107
 31
0.0
  0
LINE
  8
SIZE
  6
CONTINUOUS
 62
    30
 10
-646.63251436894404
 20
66.000000000000114
 30
0.0
 11
-646.63251436894404
 21
78.000000000000114
 31
0.0
  0
LINE
  8
SIZE
  6
CONTINUOUS
 62
    30
 10
-646.63251436894404
 20
-11.99999999999989
 30
0.0
 11
-646.63251436894404
 21
-169.99999999999989
 31
0.0
  0
LINE
  8
SIZE
  6
CONTINUOUS
 62
    30
 10
-646.63251436894404
 20
54.000000000000107
 30
0.0
 11
-646.63251436894404
 21
0.0000000000001137
 31
0.0
  0
CIRCLE
  8
SIZE
  6
CONTINUOUS
 62
    30
 10
-646.63251436894404
 20
54.000000000000107
 30
0.0
 40
6.0
  0
LINE
  8
SIZE
  6
CONTINUOUS
 62
    30
 10
-646.63251436894404
 20
54.000000000000107
 30
0.0
 11
-646.63251436894404
 21
66.000000000000114
 31
0.0
  0
CIRCLE
  8
SIZE
  6
CONTINUOUS
 62
    30
 10
-646.63251436894404
 20
0.0000000000001137
 30
0.0
 40
6.0
  0
LINE
  8
SIZE
  6
CONTINUOUS
 62
    30
 10
-646.63251436894404
 20
0.0000000000001137
 30
0.0
 11
-646.63251436894404
 21
-11.99999999999989
 31
0.0
  0
TEXT
  8
SIZE
  6
CONTINUOUS
 62
    30
 10
-671.63251436894404
 20
-145.0
 30
0.0
 40
64.0
  1
54
 50
90.0
 41
0.9
 72
     1
 11
-671.63251436894404
 21
-97.0
 31
0.0
  0
POINT
  8
DEFPOINTS
  6
CONTINUOUS
 62
    30
 10
-190.0
 20
0.0
 30
0.0
  0
POINT
  8
DEFPOINTS
  6
CONTINUOUS
 62
    30
 10
-238.5
 20
54.0
 30
0.0
  0
POINT
  8
DEFPOINTS
  6
CONTINUOUS
 62
    30
 10
-646.63251436894404
 20
54.000000000000107
 30
0.0
  0
LINE
  8
SIZE
  6
CONTINUOUS
 62
    30
 10
-54.25077999999985
 20
-16.476108999999951
 30
0.0
 11
-54.25077999999985
 21
-369.83555802090859
 31
0.0
  0
LINE
  8
SIZE
  6
CONTINUOUS
 62
    30
 10
54.749219999999703
 20
-16.476108999999951
 30
0.0
 11
54.749219999999703
 21
-369.83555802090859
 31
0.0
  0
LINE
  8
SIZE
  6
CONTINUOUS
 62
    30
 10
42.749219999999703
 20
-349.83555802090859
 30
0.0
 11
-42.25077999999985
 21
-349.83555802090859
 31
0.0
  0
LINE
  8
SIZE
  6
CONTINUOUS
 62
    30
 10
-54.25077999999985
 20
-349.83555802090859
 30
0.0
 11
-379.14247366526251
 21
-349.83555802090859
 31
0.0
  0
CIRCLE
  8
SIZE
  6
CONTINUOUS
 62
    30
 10
54.749219999999703
 20
-349.83555802090859
 30
0.0
 40
6.0
  0
LINE
  8
SIZE
  6
CONTINUOUS
 62
    30
 10
54.749219999999703
 20
-349.83555802090859
 30
0.0
 11
42.749219999999703
 21
-349.83555802090859
 31
0.0
  0
CIRCLE
  8
SIZE
  6
CONTINUOUS
 62
    30
 10
-54.25077999999985
 20
-349.83555802090859
 30
0.0
 40
6.0
  0
LINE
  8
SIZE
  6
CONTINUOUS
 62
    30
 10
-54.25077999999985
 20
-349.83555802090859
 30
0.0
 11
-42.25077999999985
 21
-349.83555802090859
 31
0.0
  0
TEXT
  8
SIZE
  6
CONTINUOUS
 62
    30
 10
-354.14247366526268
 20
-324.83555802090848
 30
0.0
 40
64.0
  1
109
 41
0.9
 72
     1
 11
-286.9424736652627
 21
-324.83555802090848
 31
0.0
  0
POINT
  8
DEFPOINTS
  6
CONTINUOUS
 62
    30
 10
-54.25077999999985
 20
3.5238910000000492
 30
0.0
  0
POINT
  8
DEFPOINTS
  6
CONTINUOUS
 62
    30
 10
54.749219999999703
 20
3.5238910000000492
 30
0.0
  0
POINT
  8
DEFPOINTS
  6
CONTINUOUS
 62
    30
 10
54.749219999999703
 20
-349.83555802090859
 30
0.0
  0
LINE
  8
SIZE
  6
CONTINUOUS
 62
    30
 10
-74.75077999999985
 20
-2.0
 30
0.0
 11
-74.75077999999985
 21
-227.5915748541012
 31
0.0
  0
LINE
  8
SIZE
  6
CONTINUOUS
 62
    30
 10
-33.75077999999985
 20
-2.0
 30
0.0
 11
-33.75077999999985
 21
-227.5915748541012
 31
0.0
  0
LINE
  8
SIZE
  6
CONTINUOUS
 62
    30
 10
-21.75077999999985
 20
-207.5915748541012
 30
0.0
 11
-9.7507799999998497
 21
-207.5915748541012
 31
0.0
  0
LINE
  8
SIZE
  6
CONTINUOUS
 62
    30
 10
-86.75077999999985
 20
-207.5915748541012
 30
0.0
 11
-335.39232913144087
 21
-207.5915748541012
 31
0.0
  0
LINE
  8
SIZE
  6
CONTINUOUS
 62
    30
 10
-33.75077999999985
 20
-207.5915748541012
 30
0.0
 11
-74.75077999999985
 21
-207.5915748541012
 31
0.0
  0
CIRCLE
  8
SIZE
  6
CONTINUOUS
 62
    30
 10
-33.75077999999985
 20
-207.5915748541012
 30
0.0
 40
6.0
  0
LINE
  8
SIZE
  6
CONTINUOUS
 62
    30
 10
-33.75077999999985
 20
-207.5915748541012
 30
0.0
 11
-21.75077999999985
 21
-207.5915748541012
 31
0.0
  0
CIRCLE
  8
SIZE
  6
CONTINUOUS
 62
    30
 10
-74.75077999999985
 20
-207.5915748541012
 30
0.0
 40
6.0
  0
LINE
  8
SIZE
  6
CONTINUOUS
 62
    30
 10
-74.75077999999985
 20
-207.5915748541012
 30
0.0
 11
-86.75077999999985
 21
-207.5915748541012
 31
0.0
  0
TEXT
  8
SIZE
  6
CONTINUOUS
 62
    30
 10
-310.39232913144087
 20
-182.5915748541012
 30
0.0
 40
64.0
  1
41
 41
0.9
 72
     1
 11
-276.10661484572671
 21
-182.5915748541012
 31
0.0
  0
POINT
  8
DEFPOINTS
  6
CONTINUOUS
 62
    30
 10
-74.75077999999985
 20
18.0
 30
0.0
  0
POINT
  8
DEFPOINTS
  6
CONTINUOUS
 62
    30
 10
-33.75077999999985
 20
18.0
 30
0.0
  0
POINT
  8
DEFPOINTS
  6
CONTINUOUS
 62
    30
 10
-33.75077999999985
 20
-207.5915748541012
 30
0.0
  0
LINE
  8
SIZE
  6
CONTINUOUS
 62
    30
 10
-210.0
 20
0.0
 30
0.0
 11
-432.5777426423283
 21
0.0000000000001137
 31
0.0
  0
LINE
  8
SIZE
  6
CONTINUOUS
 62
    30
 10
-99.284600999999839
 20
18.0
 30
0.0
 11
-432.5777426423283
 21
18.00000000000011
 31
0.0
  0
LINE
  8
SIZE
  6
CONTINUOUS
 62
    30
 10
-412.5777426423283
 20
30.00000000000011
 30
0.0
 11
-412.5777426423283
 21
42.000000000000107
 31
0.0
  0
LINE
  8
SIZE
  6
CONTINUOUS
 62
    30
 10
-412.5777426423283
 20
-11.99999999999989
 30
0.0
 11
-412.5777426423283
 21
-156.28571428571419
 31
0.0
  0
LINE
  8
SIZE
  6
CONTINUOUS
 62
    30
 10
-412.5777426423283
 20
18.00000000000011
 30
0.0
 11
-412.5777426423283
 21
0.0000000000001137
 31
0.0
  0
CIRCLE
  8
SIZE
  6
CONTINUOUS
 62
    30
 10
-412.5777426423283
 20
18.00000000000011
 30
0.0
 40
6.0
  0
LINE
  8
SIZE
  6
CONTINUOUS
 62
    30
 10
-412.5777426423283
 20
18.00000000000011
 30
0.0
 11
-412.5777426423283
 21
30.00000000000011
 31
0.0
  0
CIRCLE
  8
SIZE
  6
CONTINUOUS
 62
    30
 10
-412.5777426423283
 20
0.0000000000001137
 30
0.0
 40
6.0
  0
LINE
  8
SIZE
  6
CONTINUOUS
 62
    30
 10
-412.5777426423283
 20
0.0000000000001137
 30
0.0
 11
-412.5777426423283
 21
-11.99999999999989
 31
0.0
  0
TEXT
  8
SIZE
  6
CONTINUOUS
 62
    30
 10
-437.5777426423283
 20
-131.28571428571419
 30
0.0
 40
64.0
  1
18
 50
90.0
 41
0.9
 72
     1
 11
-437.5777426423283
 21
-90.14285714285711
 31
0.0
  0
POINT
  8
DEFPOINTS
  6
CONTINUOUS
 62
    30
 10
-190.0
 20
0.0
 30
0.0
  0
POINT
  8
DEFPOINTS
  6
CONTINUOUS
 62
    30
 10
-79.284600999999839
 20
18.0
 30
0.0
  0
POINT
  8
DEFPOINTS
  6
CONTINUOUS
 62
    30
 10
-412.5777426423283
 20
18.00000000000011
 30
0.0
  0
LINE
  8
SIZE
  6
CONTINUOUS
 62
    30
 10
-74.25077999999985
 20
8.0
 30
0.0
 11
-548.8262560193707
 21
8.0000000000001137
 31
0.0
  0
LINE
  8
SIZE
  6
CONTINUOUS
 62
    30
 10
-74.25077999999985
 20
28.0
 30
0.0
 11
-548.8262560193707
 21
28.00000000000011
 31
0.0
  0
LINE
  8
SIZE
  6
CONTINUOUS
 62
    30
 10
-528.8262560193707
 20
40.000000000000107
 30
0.0
 11
-528.8262560193707
 21
52.000000000000107
 31
0.0
  0
LINE
  8
SIZE
  6
CONTINUOUS
 62
    30
 10
-528.8262560193707
 20
-3.9999999999998859
 30
0.0
 11
-528.8262560193707
 21
-159.25714285714281
 31
0.0
  0
LINE
  8
SIZE
  6
CONTINUOUS
 62
    30
 10
-528.8262560193707
 20
28.00000000000011
 30
0.0
 11
-528.8262560193707
 21
8.0000000000001137
 31
0.0
  0
CIRCLE
  8
SIZE
  6
CONTINUOUS
 62
    30
 10
-528.8262560193707
 20
28.00000000000011
 30
0.0
 40
6.0
  0
LINE
  8
SIZE
  6
CONTINUOUS
 62
    30
 10
-528.8262560193707
 20
28.00000000000011
 30
0.0
 11
-528.8262560193707
 21
40.000000000000107
 31
0.0
  0
CIRCLE
  8
SIZE
  6
CONTINUOUS
 62
    30
 10
-528.8262560193707
 20
8.0000000000001137
 30
0.0
 40
6.0
  0
LINE
  8
SIZE
  6
CONTINUOUS
 62
    30
 10
-528.8262560193707
 20
8.0000000000001137
 30
0.0
 11
-528.8262560193707
 21
-3.9999999999998859
 31
0.0
  0
TEXT
  8
SIZE
  6
CONTINUOUS
 62
    30
 10
-553.8262560193707
 20
-134.25714285714281
 30
0.0
 40
64.0
  1
20
 50
90.0
 41
0.9
 72
     1
 11
-553.8262560193707
 21
-87.628571428571377
 31
0.0
  0
POINT
  8
DEFPOINTS
  6
CONTINUOUS
 62
    30
 10
-54.25077999999985
 20
8.0
 30
0.0
  0
POINT
  8
DEFPOINTS
  6
CONTINUOUS
 62
    30
 10
-54.25077999999985
 20
28.0
 30
0.0
  0
POINT
  8
DEFPOINTS
  6
CONTINUOUS
 62
    30
 10
-528.8262560193707
 20
28.00000000000011
 30
0.0
  0
LINE
  8
SIZE
  6
CONTINUOUS
 62
    30
 10
210.0
 20
0.0
 30
0.0
 11
652.97695570994438
 21
-0.0000000000001137
 31
0.0
  0
LINE
  8
SIZE
  6
CONTINUOUS
 62
    30
 10
145.0
 20
207.0
 30
0.0
 11
652.97695570994438
 21
206.99999999999989
 31
0.0
  0
LINE
  8
SIZE
  6
CONTINUOUS
 62
    30
 10
632.97695570994438
 20
11.99999999999989
 30
0.0
 11
632.97695570994438
 21
194.99999999999989
 31
0.0
  0
CIRCLE
  8
SIZE
  6
CONTINUOUS
 62
    30
 10
632.97695570994438
 20
-0.0000000000001137
 30
0.0
 40
6.0
  0
LINE
  8
SIZE
  6
CONTINUOUS
 62
    30
 10
632.97695570994438
 20
-0.0000000000001137
 30
0.0
 11
632.97695570994438
 21
11.99999999999989
 31
0.0
  0
CIRCLE
  8
SIZE
  6
CONTINUOUS
 62
    30
 10
632.97695570994438
 20
206.99999999999989
 30
0.0
 40
6.0
  0
LINE
  8
SIZE
  6
CONTINUOUS
 62
    30
 10
632.97695570994438
 20
206.99999999999989
 30
0.0
 11
632.97695570994438
 21
194.99999999999989
 31
0.0
  0
TEXT
  8
SIZE
  6
CONTINUOUS
 62
    30
 10
607.97695570994438
 20
29.44285714285715
 30
0.0
 40
64.0
  1
207
 50
90.0
 41
0.9
 72
     1
 11
607.97695570994438
 21
103.5
 31
0.0
  0
POINT
  8
DEFPOINTS
  6
CONTINUOUS
 62
    30
 10
190.0
 20
0.0
 30
0.0
  0
POINT
  8
DEFPOINTS
  6
CONTINUOUS
 62
    30
 10
125.0
 20
207.0
 30
0.0
  0
POINT
  8
DEFPOINTS
  6
CONTINUOUS
 62
    30
 10
632.97695570994438
 20
206.99999999999989
 30
0.0
  0
LINE
  8
DETAIL
  6
CONTINUOUS
 62
     5
 10
-317.44380245468761
 20
194.99149616013119
 30
0.0
 11
-317.58113828574159
 21
194.8780432286045
 31
0.0
  0
LINE
  8
DETAIL
  6
CONTINUOUS
 62
     5
 10
-317.58113828574159
 20
194.8780432286045
 30
0.0
 11
-317.71820007116139
 21
194.76426710074179
 31
0.0
  0
LINE
  8
DETAIL
  6
CONTINUOUS
 62
     5
 10
-317.71820007116139
 20
194.76426710074179
 30
0.0
 11
-317.8550036671993
 21
194.6501527145044
 31
0.0
  0
LINE
  8
DETAIL
  6
CONTINUOUS
 62
     5
 10
-317.8550036671993
 20
194.6501527145044
 30
0.0
 11
-317.99156493010872
 21
194.53568500785451
 31
0.0
  0
LINE
  8
DETAIL
  6
CONTINUOUS
 62
     5
 10
-317.99156493010872
 20
194.53568500785451
 30
0.0
 11
-318.1278997161412
 21
194.42084891875291
 31
0.0
  0
LINE
  8
DETAIL
  6
CONTINUOUS
 62
     5
 10
-318.1278997161412
 20
194.42084891875291
 30
0.0
 11
-318.26402388155037
 21
194.30562938516121
 31
0.0
  0
LINE
  8
DETAIL
  6
CONTINUOUS
 62
     5
 10
-318.26402388155037
 20
194.30562938516121
 30
0.0
 11
-318.39995328258851
 21
194.19001134504131
 31
0.0
  0
LINE
  8
DETAIL
  6
CONTINUOUS
 62
     5
 10
-318.39898898071942
 20
102.7878808330986
 30
0.0
 11
-318.26304237638658
 21
102.6874389332925
 31
0.0
  0
LINE
  8
DETAIL
  6
CONTINUOUS
 62
     5
 10
-318.26304237638658
 20
102.6874389332925
 30
0.0
 11
-318.12693845292858
 21
102.5874446063508
 31
0.0
  0
LINE
  8
DETAIL
  6
CONTINUOUS
 62
     5
 10
-318.12693845292858
 20
102.5874446063508
 30
0.0
 11
-317.99062629935912
 21
102.4878622351777
 31
0.0
  0
LINE
  8
DETAIL
  6
CONTINUOUS
 62
     5
 10
-317.99062629935912
 20
102.4878622351777
 30
0.0
 11
-317.85405500469187
 21
102.3886562026769
 31
0.0
  0
LINE
  8
DETAIL
  6
CONTINUOUS
 62
     5
 10
-317.85405500469187
 20
102.3886562026769
 30
0.0
 11
-317.71717365794052
 21
102.2897908917523
 31
0.0
  0
LINE
  8
DETAIL
  6
CONTINUOUS
 62
     5
 10
-317.71717365794052
 20
102.2897908917523
 30
0.0
 11
-317.57993134811909
 21
102.191230685308
 31
0.0
  0
LINE
  8
DETAIL
  6
CONTINUOUS
 62
     5
 10
-317.57993134811909
 20
102.191230685308
 30
0.0
 11
-317.44227716424069
 21
102.0929399662477
 31
0.0
  0
LINE
  8
DETAIL
  6
CONTINUOUS
 62
     5
 10
-295.34805998959018
 20
96.517509000000018
 30
0.0
 11
-306.60936998958982
 21
95.887917000000016
 31
0.0
  0
LINE
  8
DETAIL
  6
CONTINUOUS
 62
     5
 10
-310.67558198958977
 20
97.87496699999997
 30
0.0
 11
-306.60936998958982
 21
95.887917000000016
 31
0.0
  0
LINE
  8
DETAIL
  6
CONTINUOUS
 62
     5
 10
-310.67558198958977
 20
97.87496699999997
 30
0.0
 11
-310.62072398958981
 21
97.845236999999997
 31
0.0
  0
LINE
  8
DETAIL
  6
CONTINUOUS
 62
     5
 10
-311.45166347241462
 20
98.3026009158325
 30
0.0
 11
-311.34098707967507
 21
98.240965774042593
 31
0.0
  0
LINE
  8
DETAIL
  6
CONTINUOUS
 62
     5
 10
-311.34098707967507
 20
98.240965774042593
 30
0.0
 11
-311.23022189682519
 21
98.179582024599426
 31
0.0
  0
LINE
  8
DETAIL
  6
CONTINUOUS
 62
     5
 10
-311.23022189682519
 20
98.179582024599426
 30
0.0
 11
-311.1193827222171
 21
98.118407768778638
 31
0.0
  0
LINE
  8
DETAIL
  6
CONTINUOUS
 62
     5
 10
-311.1193827222171
 20
98.118407768778638
 30
0.0
 11
-311.00848435420198
 21
98.05740110785564
 31
0.0
  0
LINE
  8
DETAIL
  6
CONTINUOUS
 62
     5
 10
-311.00848435420198
 20
98.05740110785564
 30
0.0
 11
-310.89754159113181
 21
97.996520143106068
 31
0.0
  0
LINE
  8
DETAIL
  6
CONTINUOUS
 62
     5
 10
-310.89754159113181
 20
97.996520143106068
 30
0.0
 11
-310.78656923135821
 21
97.935722975805447
 31
0.0
  0
LINE
  8
DETAIL
  6
CONTINUOUS
 62
     5
 10
-310.78656923135821
 20
97.935722975805447
 30
0.0
 11
-310.67558207323282
 21
97.874967707229189
 31
0.0
  0
LINE
  8
DETAIL
  6
CONTINUOUS
 62
     5
 10
-312.22207223928399
 20
98.740511792774214
 30
0.0
 11
-312.11265270289869
 21
98.677459444228816
 31
0.0
  0
LINE
  8
DETAIL
  6
CONTINUOUS
 62
     5
 10
-312.11265270289869
 20
98.677459444228816
 30
0.0
 11
-312.00297815028409
 21
98.61452213073585
 31
0.0
  0
LINE
  8
DETAIL
  6
CONTINUOUS
 62
     5
 10
-312.00297815028409
 20
98.61452213073585
 30
0.0
 11
-311.89307381940148
 21
98.551729561631646
 31
0.0
  0
LINE
  8
DETAIL
  6
CONTINUOUS
 62
     5
 10
-311.89307381940148
 20
98.551729561631646
 30
0.0
 11
-311.78296494821188
 21
98.489111446252764
 31
0.0
  0
LINE
  8
DETAIL
  6
CONTINUOUS
 62
     5
 10
-311.78296494821188
 20
98.489111446252764
 30
0.0
 11
-311.6726767746768
 21
98.426697493935649
 31
0.0
  0
LINE
  8
DETAIL
  6
CONTINUOUS
 62
     5
 10
-311.6726767746768
 20
98.426697493935649
 30
0.0
 11
-311.56223453675739
 21
98.364517414016746
 31
0.0
  0
LINE
  8
DETAIL
  6
CONTINUOUS
 62
     5
 10
-311.56223453675739
 20
98.364517414016746
 30
0.0
 11
-311.45166347241462
 21
98.3026009158325
 31
0.0
  0
LINE
  8
DETAIL
  6
CONTINUOUS
 62
     5
 10
-312.98661213040867
 20
99.188671469432393
 30
0.0
 11
-312.87677278276408
 21
99.123399044130565
 31
0.0
  0
LINE
  8
DETAIL
  6
CONTINUOUS
 62
     5
 10
-312.87677278276408
 20
99.123399044130565
 30
0.0
 11
-312.76732708513032
 21
99.058670546330632
 31
0.0
  0
LINE
  8
DETAIL
  6
CONTINUOUS
 62
     5
 10
-312.76732708513032
 20
99.058670546330632
 30
0.0
 11
-312.65816272014081
 21
98.994409542401627
 31
0.0
  0
LINE
  8
DETAIL
  6
CONTINUOUS
 62
     5
 10
-312.65816272014081
 20
98.994409542401627
 30
0.0
 11
-312.54916737042822
 21
98.930539598712471
 31
0.0
  0
LINE
  8
DETAIL
  6
CONTINUOUS
 62
     5
 10
-312.54916737042822
 20
98.930539598712471
 30
0.0
 11
-312.4402287186258
 21
98.866984281632199
 31
0.0
  0
LINE
  8
DETAIL
  6
CONTINUOUS
 62
     5
 10
-312.4402287186258
 20
98.866984281632199
 30
0.0
 11
-312.3312344473668
 21
98.803667157529844
 31
0.0
  0
LINE
  8
DETAIL
  6
CONTINUOUS
 62
     5
 10
-312.3312344473668
 20
98.803667157529844
 30
0.0
 11
-312.22207223928399
 21
98.740511792774214
 31
0.0
  0
LINE
  8
DETAIL
  6
CONTINUOUS
 62
     5
 10
-313.74508690235552
 20
99.647051077184642
 30
0.0
 11
-313.6407724977422
 21
99.583302084993193
 31
0.0
  0
LINE
  8
DETAIL
  6
CONTINUOUS
 62
     5
 10
-313.6407724977422
 20
99.583302084993193
 30
0.0
 11
-313.53439927448989
 21
99.518514272866241
 31
0.0
  0
LINE
  8
DETAIL
  6
CONTINUOUS
 62
     5
 10
-313.53439927448989
 20
99.518514272866241
 30
0.0
 11
-313.42639469693489
 21
99.452964170982
 31
0.0
  0
LINE
  8
DETAIL
  6
CONTINUOUS
 62
     5
 10
-313.42639469693489
 20
99.452964170982
 30
0.0
 11
-313.3171862294131
 21
99.386928309518453
 31
0.0
  0
LINE
  8
DETAIL
  6
CONTINUOUS
 62
     5
 10
-313.3171862294131
 20
99.386928309518453
 30
0.0
 11
-313.2072013362606
 21
99.320683218653585
 31
0.0
  0
LINE
  8
DETAIL
  6
CONTINUOUS
 62
     5
 10
-313.2072013362606
 20
99.320683218653585
 30
0.0
 11
-313.09686748181389
 21
99.254505428565608
 31
0.0
  0
LINE
  8
DETAIL
  6
CONTINUOUS
 62
     5
 10
-313.09686748181389
 20
99.254505428565608
 30
0.0
 11
-312.98661213040867
 21
99.188671469432393
 31
0.0
  0
LINE
  8
DETAIL
  6
CONTINUOUS
 62
     5
 10
-314.49730031169253
 20
100.1156217474086
 30
0.0
 11
-314.37657670921891
 21
100.0392497633943
 31
0.0
  0
LINE
  8
DETAIL
  6
CONTINUOUS
 62
     5
 10
-314.37657670921891
 20
100.0392497633943
 30
0.0
 11
-314.26293146665728
 21
99.967737521811159
 31
0.0
  0
LINE
  8
DETAIL
  6
CONTINUOUS
 62
     5
 10
-314.26293146665728
 20
99.967737521811159
 30
0.0
 11
-314.15477047685999
 21
99.900055840568257
 31
0.0
  0
LINE
  8
DETAIL
  6
CONTINUOUS
 62
     5
 10
-314.15477047685999
 20
99.900055840568257
 30
0.0
 11
-314.05049963267902
 21
99.835175537574969
 31
0.0
  0
LINE
  8
DETAIL
  6
CONTINUOUS
 62
     5
 10
-314.05049963267902
 20
99.835175537574969
 30
0.0
 11
-313.9485248269666
 21
99.772067430740321
 31
0.0
  0
LINE
  8
DETAIL
  6
CONTINUOUS
 62
     5
 10
-313.9485248269666
 20
99.772067430740321
 30
0.0
 11
-313.84725195257488
 21
99.709702337973908
 31
0.0
  0
LINE
  8
DETAIL
  6
CONTINUOUS
 62
     5
 10
-313.84725195257488
 20
99.709702337973908
 30
0.0
 11
-313.74508690235552
 21
99.647051077184642
 31
0.0
  0
LINE
  8
DETAIL
  6
CONTINUOUS
 62
     5
 10
-315.49101542278208
 20
100.75673358027279
 30
0.0
 11
-315.34403263428641
 21
100.66048271365609
 31
0.0
  0
LINE
  8
DETAIL
  6
CONTINUOUS
 62
     5
 10
-315.34403263428641
 20
100.66048271365609
 30
0.0
 11
-315.19603281395769
 21
100.5641192431103
 31
0.0
  0
LINE
  8
DETAIL
  6
CONTINUOUS
 62
     5
 10
-315.19603281395769
 20
100.5641192431103
 30
0.0
 11
-315.048630878278
 21
100.4686434233772
 31
0.0
  0
LINE
  8
DETAIL
  6
CONTINUOUS
 62
     5
 10
-315.048630878278
 20
100.4686434233772
 30
0.0
 11
-314.90344174372939
 21
100.3750555091988
 31
0.0
  0
LINE
  8
DETAIL
  6
CONTINUOUS
 62
     5
 10
-314.90344174372939
 20
100.3750555091988
 30
0.0
 11
-314.76208032679398
 21
100.2843557553166
 31
0.0
  0
LINE
  8
DETAIL
  6
CONTINUOUS
 62
     5
 10
-314.76208032679398
 20
100.2843557553166
 30
0.0
 11
-314.62616154395448
 21
100.1975444164726
 31
0.0
  0
LINE
  8
DETAIL
  6
CONTINUOUS
 62
     5
 10
-314.62616154395448
 20
100.1975444164726
 30
0.0
 11
-314.49730031169253
 21
100.1156217474086
 31
0.0
  0
LINE
  8
DETAIL
  6
CONTINUOUS
 62
     5
 10
-316.4728135092796
 20
101.41586526759561
 30
0.0
 11
-316.33482896883902
 21
101.3215472509754
 31
0.0
  0
LINE
  8
DETAIL
  6
CONTINUOUS
 62
     5
 10
-316.33482896883902
 20
101.3215472509754
 30
0.0
 11
-316.19680794895407
 21
101.22772941707601
 31
0.0
  0
LINE
  8
DETAIL
  6
CONTINUOUS
 62
     5
 10
-316.19680794895407
 20
101.22772941707601
 30
0.0
 11
-316.0583178714794
 21
101.1341429256655
 31
0.0
  0
LINE
  8
DETAIL
  6
CONTINUOUS
 62
     5
 10
-316.0583178714794
 20
101.1341429256655
 30
0.0
 11
-315.91892615826998
 21
101.0405189365118
 31
0.0
  0
LINE
  8
DETAIL
  6
CONTINUOUS
 62
     5
 10
-315.91892615826998
 20
101.0405189365118
 30
0.0
 11
-315.77820023118079
 21
100.9465886093831
 31
0.0
  0
LINE
  8
DETAIL
  6
CONTINUOUS
 62
     5
 10
-315.77820023118079
 20
100.9465886093831
 30
0.0
 11
-315.63570751206657
 21
100.8520831040474
 31
0.0
  0
LINE
  8
DETAIL
  6
CONTINUOUS
 62
     5
 10
-315.63570751206657
 20
100.8520831040474
 30
0.0
 11
-315.49101542278208
 21
100.75673358027279
 31
0.0
  0
LINE
  8
DETAIL
  6
CONTINUOUS
 62
     5
 10
-317.44227716424069
 20
102.0929399662477
 30
0.0
 11
-317.30418913009669
 21
101.9949017953879
 31
0.0
  0
LINE
  8
DETAIL
  6
CONTINUOUS
 62
     5
 10
-317.30418913009669
 20
101.9949017953879
 30
0.0
 11
-317.16576100858742
 21
101.8971739451971
 31
0.0
  0
LINE
  8
DETAIL
  6
CONTINUOUS
 62
     5
 10
-317.16576100858742
 20
101.8971739451971
 30
0.0
 11
-317.02711549739041
 21
101.7998328660553
 31
0.0
  0
LINE
  8
DETAIL
  6
CONTINUOUS
 62
     5
 10
-317.02711549739041
 20
101.7998328660553
 30
0.0
 11
-316.88837529418328
 21
101.70295500834369
 31
0.0
  0
LINE
  8
DETAIL
  6
CONTINUOUS
 62
     5
 10
-316.88837529418328
 20
101.70295500834369
 30
0.0
 11
-316.74966309664433
 21
101.6066168224427
 31
0.0
  0
LINE
  8
DETAIL
  6
CONTINUOUS
 62
     5
 10
-316.74966309664433
 20
101.6066168224427
 30
0.0
 11
-316.61110160245039
 21
101.5108947587331
 31
0.0
  0
LINE
  8
DETAIL
  6
CONTINUOUS
 62
     5
 10
-316.61110160245039
 20
101.5108947587331
 30
0.0
 11
-316.4728135092796
 21
101.41586526759561
 31
0.0
  0
LINE
  8
DETAIL
  6
CONTINUOUS
 62
     5
 10
-295.34805998959018
 20
203.03863499999991
 30
0.0
 11
-303.86174198958969
 21
202.56265499999989
 31
0.0
  0
LINE
  8
DETAIL
  6
CONTINUOUS
 62
     5
 10
-308.03818723525961
 20
201.52730646418311
 30
0.0
 11
-308.07534518143638
 21
201.5101528922298
 31
0.0
  0
LINE
  8
DETAIL
  6
CONTINUOUS
 62
     5
 10
-308.07534518143638
 20
201.5101528922298
 30
0.0
 11
-308.11237461678638
 21
201.49289575388619
 31
0.0
  0
LINE
  8
DETAIL
  6
CONTINUOUS
 62
     5
 10
-308.11237461678638
 20
201.49289575388619
 30
0.0
 11
-308.14928990616193
 21
201.47552875637939
 31
0.0
  0
LINE
  8
DETAIL
  6
CONTINUOUS
 62
     5
 10
-308.14928990616193
 20
201.47552875637939
 30
0.0
 11
-308.18610541441501
 21
201.45804560693679
 31
0.0
  0
LINE
  8
DETAIL
  6
CONTINUOUS
 62
     5
 10
-308.18610541441501
 20
201.45804560693679
 30
0.0
 11
-308.22283550639798
 21
201.4404400127853
 31
0.0
  0
LINE
  8
DETAIL
  6
CONTINUOUS
 62
     5
 10
-308.22283550639798
 20
201.4404400127853
 30
0.0
 11
-308.25949454696308
 21
201.42270568115239
 31
0.0
  0
LINE
  8
DETAIL
  6
CONTINUOUS
 62
     5
 10
-308.25949454696308
 20
201.42270568115239
 30
0.0
 11
-308.29609690096231
 21
201.40483631926509
 31
0.0
  0
LINE
  8
DETAIL
  6
CONTINUOUS
 62
     5
 10
-307.77496793102608
 20
201.64424526446169
 30
0.0
 11
-307.81280145527512
 21
201.62792368714531
 31
0.0
  0
LINE
  8
DETAIL
  6
CONTINUOUS
 62
     5
 10
-307.81280145527512
 20
201.62792368714531
 30
0.0
 11
-307.85058342409252
 21
201.61146230787551
 31
0.0
  0
LINE
  8
DETAIL
  6
CONTINUOUS
 62
     5
 10
-307.85058342409252
 20
201.61146230787551
 30
0.0
 11
-307.88829861743682
 21
201.5948682147081
 31
0.0
  0
LINE
  8
DETAIL
  6
CONTINUOUS
 62
     5
 10
-307.88829861743682
 20
201.5948682147081
 30
0.0
 11
-307.92593181526672
 21
201.57814849569911
 31
0.0
  0
LINE
  8
DETAIL
  6
CONTINUOUS
 62
     5
 10
-307.92593181526672
 20
201.57814849569911
 30
0.0
 11
-307.9634677975414
 21
201.56131023890461
 31
0.0
  0
LINE
  8
DETAIL
  6
CONTINUOUS
 62
     5
 10
-307.9634677975414
 20
201.56131023890461
 30
0.0
 11
-308.00089134421933
 21
201.54436053238069
 31
0.0
  0
LINE
  8
DETAIL
  6
CONTINUOUS
 62
     5
 10
-308.00089134421933
 20
201.54436053238069
 30
0.0
 11
-308.03818723525961
 21
201.52730646418311
 31
0.0
  0
LINE
  8
DETAIL
  6
CONTINUOUS
 62
     5
 10
-307.50890813893102
 20
201.75449101580671
 30
0.0
 11
-307.54706888807442
 21
201.73915969757331
 31
0.0
  0
LINE
  8
DETAIL
  6
CONTINUOUS
 62
     5
 10
-307.54706888807442
 20
201.73915969757331
 30
0.0
 11
-307.58517336279152
 21
201.72369191789011
 31
0.0
  0
LINE
  8
DETAIL
  6
CONTINUOUS
 62
     5
 10
-307.58517336279152
 20
201.72369191789011
 30
0.0
 11
-307.62322488625517
 21
201.70808593866369
 31
0.0
  0
LINE
  8
DETAIL
  6
CONTINUOUS
 62
     5
 10
-307.62322488625517
 20
201.70808593866369
 30
0.0
 11
-307.66122678163788
 21
201.6923400218009
 31
0.0
  0
LINE
  8
DETAIL
  6
CONTINUOUS
 62
     5
 10
-307.66122678163788
 20
201.6923400218009
 30
0.0
 11
-307.6991823721122
 21
201.67645242920841
 31
0.0
  0
LINE
  8
DETAIL
  6
CONTINUOUS
 62
     5
 10
-307.6991823721122
 20
201.67645242920841
 30
0.0
 11
-307.73709498085083
 21
201.66042142279321
 31
0.0
  0
LINE
  8
DETAIL
  6
CONTINUOUS
 62
     5
 10
-307.73709498085083
 20
201.66042142279321
 30
0.0
 11
-307.77496793102608
 21
201.64424526446169
 31
0.0
  0
LINE
  8
DETAIL
  6
CONTINUOUS
 62
     5
 10
-307.2401805566908
 20
201.85800956893581
 30
0.0
 11
-307.27873478728702
 21
201.84363137612149
 31
0.0
  0
LINE
  8
DETAIL
  6
CONTINUOUS
 62
     5
 10
-307.27873478728702
 20
201.84363137612149
 30
0.0
 11
-307.31723598188711
 21
201.82911568986651
 31
0.0
  0
LINE
  8
DETAIL
  6
CONTINUOUS
 62
     5
 10
-307.31723598188711
 20
201.82911568986651
 30
0.0
 11
-307.35568304689059
 21
201.81446297185181
 31
0.0
  0
LINE
  8
DETAIL
  6
CONTINUOUS
 62
     5
 10
-307.35568304689059
 20
201.81446297185181
 30
0.0
 11
-307.39407488869722
 21
201.79967368375759
 31
0.0
  0
LINE
  8
DETAIL
  6
CONTINUOUS
 62
     5
 10
-307.39407488869722
 20
201.79967368375759
 30
0.0
 11
-307.43241041370652
 21
201.78474828726479
 31
0.0
  0
LINE
  8
DETAIL
  6
CONTINUOUS
 62
     5
 10
-307.43241041370652
 20
201.78474828726479
 30
0.0
 11
-307.47068852831802
 21
201.7696872440545
 31
0.0
  0
LINE
  8
DETAIL
  6
CONTINUOUS
 62
     5
 10
-307.47068852831802
 20
201.7696872440545
 30
0.0
 11
-307.50890813893102
 21
201.75449101580671
 31
0.0
  0
LINE
  8
DETAIL
  6
CONTINUOUS
 62
     5
 10
-306.96895788202141
 20
201.95476677456739
 30
0.0
 11
-307.00783419920219
 21
201.94136453552741
 31
0.0
  0
LINE
  8
DETAIL
  6
CONTINUOUS
 62
     5
 10
-307.00783419920219
 20
201.94136453552741
 30
0.0
 11
-307.04667039231992
 21
201.92782140896159
 31
0.0
  0
LINE
  8
DETAIL
  6
CONTINUOUS
 62
     5
 10
-307.04667039231992
 20
201.92782140896159
 30
0.0
 11
-307.0854644916526
 21
201.91413788360359
 31
0.0
  0
LINE
  8
DETAIL
  6
CONTINUOUS
 62
     5
 10
-307.0854644916526
 20
201.91413788360359
 30
0.0
 11
-307.12421452747822
 21
201.90031444818811
 31
0.0
  0
LINE
  8
DETAIL
  6
CONTINUOUS
 62
     5
 10
-307.12421452747822
 20
201.90031444818811
 30
0.0
 11
-307.16291853007442
 21
201.8863515914486
 31
0.0
  0
LINE
  8
DETAIL
  6
CONTINUOUS
 62
     5
 10
-307.16291853007442
 20
201.8863515914486
 30
0.0
 11
-307.20157452971938
 21
201.87224980212
 31
0.0
  0
LINE
  8
DETAIL
  6
CONTINUOUS
 62
     5
 10
-307.20157452971938
 20
201.87224980212
 30
0.0
 11
-307.2401805566908
 21
201.85800956893581
 31
0.0
  0
LINE
  8
DETAIL
  6
CONTINUOUS
 62
     5
 10
-306.69541281263861
 20
202.0447284834186
 30
0.0
 11
-306.73468251270401
 21
202.03227728920839
 31
0.0
  0
LINE
  8
DETAIL
  6
CONTINUOUS
 62
     5
 10
-306.73468251270401
 20
202.03227728920839
 30
0.0
 11
-306.77387834920319
 21
202.01969563425999
 31
0.0
  0
LINE
  8
DETAIL
  6
CONTINUOUS
 62
     5
 10
-306.77387834920319
 20
202.01969563425999
 30
0.0
 11
-306.81300627367392
 21
202.00698169931979
 31
0.0
  0
LINE
  8
DETAIL
  6
CONTINUOUS
 62
     5
 10
-306.81300627367392
 20
202.00698169931979
 30
0.0
 11
-306.85207223765332
 21
201.99413366513409
 31
0.0
  0
LINE
  8
DETAIL
  6
CONTINUOUS
 62
     5
 10
-306.85207223765332
 20
201.99413366513409
 30
0.0
 11
-306.89108219267939
 21
201.9811497124492
 31
0.0
  0
LINE
  8
DETAIL
  6
CONTINUOUS
 62
     5
 10
-306.89108219267939
 20
201.9811497124492
 30
0.0
 11
-306.93004209028959
 21
201.96802802201159
 31
0.0
  0
LINE
  8
DETAIL
  6
CONTINUOUS
 62
     5
 10
-306.93004209028959
 20
201.96802802201159
 30
0.0
 11
-306.96895788202141
 21
201.95476677456739
 31
0.0
  0
LINE
  8
DETAIL
  6
CONTINUOUS
 62
     5
 10
-306.418694445661
 20
202.12815414603941
 30
0.0
 11
-306.45837471247017
 21
202.11665136592109
 31
0.0
  0
LINE
  8
DETAIL
  6
CONTINUOUS
 62
     5
 10
-306.45837471247017
 20
202.11665136592109
 30
0.0
 11
-306.49801687515321
 21
202.10500644559599
 31
0.0
  0
LINE
  8
DETAIL
  6
CONTINUOUS
 62
     5
 10
-306.49801687515321
 20
202.10500644559599
 30
0.0
 11
-306.53761398188021
 21
202.09322163485169
 31
0.0
  0
LINE
  8
DETAIL
  6
CONTINUOUS
 62
     5
 10
-306.53761398188021
 20
202.09322163485169
 30
0.0
 11
-306.57715908082167
 21
202.0812991834747
 31
0.0
  0
LINE
  8
DETAIL
  6
CONTINUOUS
 62
     5
 10
-306.57715908082167
 20
202.0812991834747
 30
0.0
 11
-306.61664522014848
 21
202.06924134125211
 31
0.0
  0
LINE
  8
DETAIL
  6
CONTINUOUS
 62
     5
 10
-306.61664522014848
 20
202.06924134125211
 30
0.0
 11
-306.65606544803057
 21
202.05705035797109
 31
0.0
  0
LINE
  8
DETAIL
  6
CONTINUOUS
 62
     5
 10
-306.65606544803057
 20
202.05705035797109
 30
0.0
 11
-306.69541281263861
 21
202.0447284834186
 31
0.0
  0
LINE
  8
DETAIL
  6
CONTINUOUS
 62
     5
 10
-306.1399779374683
 20
202.20465996868799
 30
0.0
 11
-306.17990492680752
 21
202.1941576735164
 31
0.0
  0
LINE
  8
DETAIL
  6
CONTINUOUS
 62
     5
 10
-306.17990492680752
 20
202.1941576735164
 30
0.0
 11
-306.21979296919397
 21
202.1835137861591
 31
0.0
  0
LINE
  8
DETAIL
  6
CONTINUOUS
 62
     5
 10
-306.21979296919397
 20
202.1835137861591
 30
0.0
 11
-306.25964336373693
 21
202.17272784031471
 31
0.0
  0
LINE
  8
DETAIL
  6
CONTINUOUS
 62
     5
 10
-306.25964336373693
 20
202.17272784031471
 30
0.0
 11
-306.29945740954571
 21
202.16179936968169
 31
0.0
  0
LINE
  8
DETAIL
  6
CONTINUOUS
 62
     5
 10
-306.29945740954571
 20
202.16179936968169
 30
0.0
 11
-306.33923640572971
 21
202.15072790795901
 31
0.0
  0
LINE
  8
DETAIL
  6
CONTINUOUS
 62
     5
 10
-306.33923640572971
 20
202.15072790795901
 30
0.0
 11
-306.37898165139842
 21
202.13951298884541
 31
0.0
  0
LINE
  8
DETAIL
  6
CONTINUOUS
 62
     5
 10
-306.37898165139842
 20
202.13951298884541
 30
0.0
 11
-306.418694445661
 21
202.12815414603941
 31
0.0
  0
LINE
  8
DETAIL
  6
CONTINUOUS
 62
     5
 10
-305.85943075859001
 20
202.2742063190444
 30
0.0
 11
-305.89961440160852
 21
202.2646985168243
 31
0.0
  0
LINE
  8
DETAIL
  6
CONTINUOUS
 62
     5
 10
-305.89961440160852
 20
202.2646985168243
 30
0.0
 11
-305.93976484329369
 21
202.2550477365501
 31
0.0
  0
LINE
  8
DETAIL
  6
CONTINUOUS
 62
     5
 10
-305.93976484329369
 20
202.2550477365501
 30
0.0
 11
-305.97988090952413
 21
202.24525428691641
 31
0.0
  0
LINE
  8
DETAIL
  6
CONTINUOUS
 62
     5
 10
-305.97988090952413
 20
202.24525428691641
 30
0.0
 11
-306.01996142617838
 21
202.2353184766184
 31
0.0
  0
LINE
  8
DETAIL
  6
CONTINUOUS
 62
     5
 10
-306.01996142617838
 20
202.2353184766184
 30
0.0
 11
-306.06000521913461
 21
202.22524061435121
 31
0.0
  0
LINE
  8
DETAIL
  6
CONTINUOUS
 62
     5
 10
-306.06000521913461
 20
202.22524061435121
 30
0.0
 11
-306.10001111427192
 21
202.21502100880929
 31
0.0
  0
LINE
  8
DETAIL
  6
CONTINUOUS
 62
     5
 10
-306.10001111427192
 20
202.21502100880929
 30
0.0
 11
-306.1399779374683
 21
202.20465996868799
 31
0.0
  0
LINE
  8
DETAIL
  6
CONTINUOUS
 62
     5
 10
-305.57722037955642
 20
202.33675356478611
 30
0.0
 11
-305.61763831184368
 21
202.3282471265903
 31
0.0
  0
LINE
  8
DETAIL
  6
CONTINUOUS
 62
     5
 10
-305.61763831184368
 20
202.3282471265903
 30
0.0
 11
-305.65802140974171
 21
202.31959785285599
 31
0.0
  0
LINE
  8
DETAIL
  6
CONTINUOUS
 62
     5
 10
-305.65802140974171
 20
202.31959785285599
 30
0.0
 11
-305.69837014111272
 21
202.31080566838111
 31
0.0
  0
LINE
  8
DETAIL
  6
CONTINUOUS
 62
     5
 10
-305.69837014111272
 20
202.31080566838111
 30
0.0
 11
-305.73868497382
 21
202.3018704979645
 31
0.0
  0
LINE
  8
DETAIL
  6
CONTINUOUS
 62
     5
 10
-305.73868497382
 20
202.3018704979645
 30
0.0
 11
-305.7789663757269
 21
202.29279226640401
 31
0.0
  0
LINE
  8
DETAIL
  6
CONTINUOUS
 62
     5
 10
-305.7789663757269
 20
202.29279226640401
 30
0.0
 11
-305.8192148146959
 21
202.28357089849811
 31
0.0
  0
LINE
  8
DETAIL
  6
CONTINUOUS
 62
     5
 10
-305.8192148146959
 20
202.28357089849811
 30
0.0
 11
-305.85943075859001
 21
202.2742063190444
 31
0.0
  0
LINE
  8
DETAIL
  6
CONTINUOUS
 62
     5
 10
-305.29351427089682
 20
202.39226207359269
 30
0.0
 11
-305.33410247277652
 21
202.3847694776866
 31
0.0
  0
LINE
  8
DETAIL
  6
CONTINUOUS
 62
     5
 10
-305.33410247277652
 20
202.3847694776866
 30
0.0
 11
-305.37467713346769
 21
202.3771300091104
 31
0.0
  0
LINE
  8
DETAIL
  6
CONTINUOUS
 62
     5
 10
-305.37467713346769
 20
202.3771300091104
 30
0.0
 11
-305.41523462612639
 21
202.3693443532527
 31
0.0
  0
LINE
  8
DETAIL
  6
CONTINUOUS
 62
     5
 10
-305.41523462612639
 20
202.3693443532527
 30
0.0
 11
-305.45577132390872
 21
202.36141319550251
 31
0.0
  0
LINE
  8
DETAIL
  6
CONTINUOUS
 62
     5
 10
-305.45577132390872
 20
202.36141319550251
 30
0.0
 11
-305.49628359997052
 21
202.35333722124869
 31
0.0
  0
LINE
  8
DETAIL
  6
CONTINUOUS
 62
     5
 10
-305.49628359997052
 20
202.35333722124869
 30
0.0
 11
-305.53676782746788
 21
202.34511711588041
 31
0.0
  0
LINE
  8
DETAIL
  6
CONTINUOUS
 62
     5
 10
-305.53676782746788
 20
202.34511711588041
 30
0.0
 11
-305.57722037955642
 21
202.33675356478611
 31
0.0
  0
LINE
  8
DETAIL
  6
CONTINUOUS
 62
     5
 10
-305.00897293741173
 20
202.4406154940198
 30
0.0
 11
-305.04968375378439
 21
202.43414233303531
 31
0.0
  0
LINE
  8
DETAIL
  6
CONTINUOUS
 62
     5
 10
-305.04968375378439
 20
202.43414233303531
 30
0.0
 11
-305.09036974285277
 21
202.4275254003021
 31
0.0
  0
LINE
  8
DETAIL
  6
CONTINUOUS
 62
     5
 10
-305.09036974285277
 20
202.4275254003021
 30
0.0
 11
-305.13103339011008
 21
202.42076406476829
 31
0.0
  0
LINE
  8
DETAIL
  6
CONTINUOUS
 62
     5
 10
-305.13103339011008
 20
202.42076406476829
 30
0.0
 11
-305.17167718104997
 21
202.41385769538209
 31
0.0
  0
LINE
  8
DETAIL
  6
CONTINUOUS
 62
     5
 10
-305.17167718104997
 20
202.41385769538209
 30
0.0
 11
-305.21230360116527
 21
202.40680566109199
 31
0.0
  0
LINE
  8
DETAIL
  6
CONTINUOUS
 62
     5
 10
-305.21230360116527
 20
202.40680566109199
 30
0.0
 11
-305.25291513594988
 21
202.39960733084621
 31
0.0
  0
LINE
  8
DETAIL
  6
CONTINUOUS
 62
     5
 10
-305.25291513594988
 20
202.39960733084621
 30
0.0
 11
-305.29351427089682
 21
202.39226207359269
 31
0.0
  0
LINE
  8
DETAIL
  6
CONTINUOUS
 62
     5
 10
-304.72331645314563
 20
202.4818731050041
 30
0.0
 11
-304.7641880206703
 21
202.4764190069624
 31
0.0
  0
LINE
  8
DETAIL
  6
CONTINUOUS
 62
     5
 10
-304.7641880206703
 20
202.4764190069624
 30
0.0
 11
-304.80504078618918
 21
202.47081695701129
 31
0.0
  0
LINE
  8
DETAIL
  6
CONTINUOUS
 62
     5
 10
-304.80504078618918
 20
202.47081695701129
 30
0.0
 11
-304.84587333123682
 21
202.4650677570196
 31
0.0
  0
LINE
  8
DETAIL
  6
CONTINUOUS
 62
     5
 10
-304.84587333123682
 20
202.4650677570196
 30
0.0
 11
-304.8866842373485
 21
202.45917220885579
 31
0.0
  0
LINE
  8
DETAIL
  6
CONTINUOUS
 62
     5
 10
-304.8866842373485
 20
202.45917220885579
 30
0.0
 11
-304.92747208605829
 21
202.45313111438861
 31
0.0
  0
LINE
  8
DETAIL
  6
CONTINUOUS
 62
     5
 10
-304.92747208605829
 20
202.45313111438861
 30
0.0
 11
-304.96823545890118
 21
202.44694527548711
 31
0.0
  0
LINE
  8
DETAIL
  6
CONTINUOUS
 62
     5
 10
-304.96823545890118
 20
202.44694527548711
 30
0.0
 11
-305.00897293741173
 21
202.4406154940198
 31
0.0
  0
LINE
  8
DETAIL
  6
CONTINUOUS
 62
     5
 10
-304.43675341001608
 20
202.51599339821379
 30
0.0
 11
-304.4777371521136
 21
202.51154127765761
 31
0.0
  0
LINE
  8
DETAIL
  6
CONTINUOUS
 62
     5
 10
-304.4777371521136
 20
202.51154127765761
 30
0.0
 11
-304.51870627349263
 21
202.50695150530279
 31
0.0
  0
LINE
  8
DETAIL
  6
CONTINUOUS
 62
     5
 10
-304.51870627349263
 20
202.50695150530279
 30
0.0
 11
-304.55966031368263
 21
202.5022222308198
 31
0.0
  0
LINE
  8
DETAIL
  6
CONTINUOUS
 62
     5
 10
-304.55966031368263
 20
202.5022222308198
 30
0.0
 11
-304.60059881221292
 21
202.4973516038784
 31
0.0
  0
LINE
  8
DETAIL
  6
CONTINUOUS
 62
     5
 10
-304.60059881221292
 20
202.4973516038784
 30
0.0
 11
-304.64152130861362
 21
202.49233777414861
 31
0.0
  0
LINE
  8
DETAIL
  6
CONTINUOUS
 62
     5
 10
-304.64152130861362
 20
202.49233777414861
 30
0.0
 11
-304.68242734241471
 21
202.48717889130049
 31
0.0
  0
LINE
  8
DETAIL
  6
CONTINUOUS
 62
     5
 10
-304.68242734241471
 20
202.48717889130049
 30
0.0
 11
-304.72331645314563
 21
202.4818731050041
 31
0.0
  0
LINE
  8
DETAIL
  6
CONTINUOUS
 62
     5
 10
-304.1494923999403
 20
202.54293486531861
 30
0.0
 11
-304.19056711744662
 21
202.53958872078559
 31
0.0
  0
LINE
  8
DETAIL
  6
CONTINUOUS
 62
     5
 10
-304.19056711744662
 20
202.53958872078559
 30
0.0
 11
-304.23163000565478
 21
202.53606282151799
 31
0.0
  0
LINE
  8
DETAIL
  6
CONTINUOUS
 62
     5
 10
-304.23163000565478
 20
202.53606282151799
 30
0.0
 11
-304.27268067607338
 21
202.53236449306019
 31
0.0
  0
LINE
  8
DETAIL
  6
CONTINUOUS
 62
     5
 10
-304.27268067607338
 20
202.53236449306019
 30
0.0
 11
-304.31371874021062
 21
202.52850106095659
 31
0.0
  0
LINE
  8
DETAIL
  6
CONTINUOUS
 62
     5
 10
-304.31371874021062
 20
202.52850106095659
 30
0.0
 11
-304.35474380957447
 21
202.52447985075139
 31
0.0
  0
LINE
  8
DETAIL
  6
CONTINUOUS
 62
     5
 10
-304.35474380957447
 20
202.52447985075139
 30
0.0
 11
-304.39575549567371
 21
202.520308187989
 31
0.0
  0
LINE
  8
DETAIL
  6
CONTINUOUS
 62
     5
 10
-304.39575549567371
 20
202.520308187989
 30
0.0
 11
-304.43675341001608
 21
202.51599339821379
 31
0.0
  0
LINE
  8
DETAIL
  6
CONTINUOUS
 62
     5
 10
-303.86174201483573
 20
202.56265599798709
 30
0.0
 11
-303.90286228791479
 21
202.56005249935311
 31
0.0
  0
LINE
  8
DETAIL
  6
CONTINUOUS
 62
     5
 10
-303.90286228791479
 20
202.56005249935311
 30
0.0
 11
-303.94398092659299
 21
202.55742227496501
 31
0.0
  0
LINE
  8
DETAIL
  6
CONTINUOUS
 62
     5
 10
-303.94398092659299
 20
202.55742227496501
 30
0.0
 11
-303.98509629646952
 21
202.55473859906871
 31
0.0
  0
LINE
  8
DETAIL
  6
CONTINUOUS
 62
     5
 10
-303.98509629646952
 20
202.55473859906871
 30
0.0
 11
-304.02620676314302
 21
202.55197474591
 31
0.0
  0
LINE
  8
DETAIL
  6
CONTINUOUS
 62
     5
 10
-304.02620676314302
 20
202.55197474591
 30
0.0
 11
-304.0673106922136
 21
202.54910398973479
 31
0.0
  0
LINE
  8
DETAIL
  6
CONTINUOUS
 62
     5
 10
-304.0673106922136
 20
202.54910398973479
 30
0.0
 11
-304.10840644927953
 21
202.54609960478911
 31
0.0
  0
LINE
  8
DETAIL
  6
CONTINUOUS
 62
     5
 10
-304.10840644927953
 20
202.54609960478911
 30
0.0
 11
-304.1494923999403
 21
202.54293486531861
 31
0.0
  0
LINE
  8
DETAIL
  6
CONTINUOUS
 62
     5
 10
-316.47441763741062
 20
195.7769505184269
 30
0.0
 11
-316.61375616300319
 21
195.66568326288959
 31
0.0
  0
LINE
  8
DETAIL
  6
CONTINUOUS
 62
     5
 10
-316.61375616300319
 20
195.66568326288959
 30
0.0
 11
-316.75281158304438
 21
195.55410043903609
 31
0.0
  0
LINE
  8
DETAIL
  6
CONTINUOUS
 62
     5
 10
-316.75281158304438
 20
195.55410043903609
 30
0.0
 11
-316.89158276481118
 21
195.44220328586911
 31
0.0
  0
LINE
  8
DETAIL
  6
CONTINUOUS
 62
     5
 10
-316.89158276481118
 20
195.44220328586911
 30
0.0
 11
-317.03006857558182
 21
195.32999304239209
 31
0.0
  0
LINE
  8
DETAIL
  6
CONTINUOUS
 62
     5
 10
-317.03006857558182
 20
195.32999304239209
 30
0.0
 11
-317.16826788263302
 21
195.21747094760781
 31
0.0
  0
LINE
  8
DETAIL
  6
CONTINUOUS
 62
     5
 10
-317.16826788263302
 20
195.21747094760781
 30
0.0
 11
-317.30617955324249
 21
195.1046382405199
 31
0.0
  0
LINE
  8
DETAIL
  6
CONTINUOUS
 62
     5
 10
-317.30617955324249
 20
195.1046382405199
 30
0.0
 11
-317.44380245468761
 21
194.99149616013119
 31
0.0
  0
LINE
  8
DETAIL
  6
CONTINUOUS
 62
     5
 10
-315.49213740041893
 20
196.5462713658942
 30
0.0
 11
-315.63308484481848
 21
196.43747362300809
 31
0.0
  0
LINE
  8
DETAIL
  6
CONTINUOUS
 62
     5
 10
-315.63308484481848
 20
196.43747362300809
 30
0.0
 11
-315.7738538035718
 21
196.32828762048041
 31
0.0
  0
LINE
  8
DETAIL
  6
CONTINUOUS
 62
     5
 10
-315.7738538035718
 20
196.32828762048041
 30
0.0
 11
-315.91442702881488
 21
196.21872526703109
 31
0.0
  0
LINE
  8
DETAIL
  6
CONTINUOUS
 62
     5
 10
-315.91442702881488
 20
196.21872526703109
 30
0.0
 11
-316.05478727268411
 21
196.10879847138091
 31
0.0
  0
LINE
  8
DETAIL
  6
CONTINUOUS
 62
     5
 10
-316.05478727268411
 20
196.10879847138091
 30
0.0
 11
-316.19491728731549
 21
195.99851914224971
 31
0.0
  0
LINE
  8
DETAIL
  6
CONTINUOUS
 62
     5
 10
-316.19491728731549
 20
195.99851914224971
 30
0.0
 11
-316.33479982484567
 21
195.8878991883582
 31
0.0
  0
LINE
  8
DETAIL
  6
CONTINUOUS
 62
     5
 10
-316.33479982484567
 20
195.8878991883582
 30
0.0
 11
-316.47441763741062
 21
195.7769505184269
 31
0.0
  0
LINE
  8
DETAIL
  6
CONTINUOUS
 62
     5
 10
-314.49730031337572
 20
197.29935564849779
 30
0.0
 11
-314.64073823237783
 21
197.19236075916999
 31
0.0
  0
LINE
  8
DETAIL
  6
CONTINUOUS
 62
     5
 10
-314.64073823237783
 20
197.19236075916999
 30
0.0
 11
-314.78362970353959
 21
197.08524812862041
 31
0.0
  0
LINE
  8
DETAIL
  6
CONTINUOUS
 62
     5
 10
-314.78362970353959
 20
197.08524812862041
 30
0.0
 11
-314.92603892853799
 21
196.97797068565899
 31
0.0
  0
LINE
  8
DETAIL
  6
CONTINUOUS
 62
     5
 10
-314.92603892853799
 20
196.97797068565899
 30
0.0
 11
-315.068030109049
 21
196.87048135909569
 31
0.0
  0
LINE
  8
DETAIL
  6
CONTINUOUS
 62
     5
 10
-315.068030109049
 20
196.87048135909569
 30
0.0
 11
-315.20966744674871
 21
196.76273307774059
 31
0.0
  0
LINE
  8
DETAIL
  6
CONTINUOUS
 62
     5
 10
-315.20966744674871
 20
196.76273307774059
 30
0.0
 11
-315.35101514331308
 21
196.65467877040339
 31
0.0
  0
LINE
  8
DETAIL
  6
CONTINUOUS
 62
     5
 10
-315.35101514331308
 20
196.65467877040339
 30
0.0
 11
-315.49213740041893
 21
196.5462713658942
 31
0.0
  0
LINE
  8
DETAIL
  6
CONTINUOUS
 62
     5
 10
-313.47997373349881
 20
198.0434876084737
 30
0.0
 11
-313.6262825207607
 21
197.93803146646539
 31
0.0
  0
LINE
  8
DETAIL
  6
CONTINUOUS
 62
     5
 10
-313.6262825207607
 20
197.93803146646539
 30
0.0
 11
-313.77237551843268
 21
197.83221092506821
 31
0.0
  0
LINE
  8
DETAIL
  6
CONTINUOUS
 62
     5
 10
-313.77237551843268
 20
197.83221092506821
 30
0.0
 11
-313.91818691652719
 21
197.72607493917491
 31
0.0
  0
LINE
  8
DETAIL
  6
CONTINUOUS
 62
     5
 10
-313.91818691652719
 20
197.72607493917491
 30
0.0
 11
-314.06365090505642
 21
197.61967246367831
 31
0.0
  0
LINE
  8
DETAIL
  6
CONTINUOUS
 62
     5
 10
-314.06365090505642
 20
197.61967246367831
 30
0.0
 11
-314.20870167403291
 21
197.51305245347109
 31
0.0
  0
LINE
  8
DETAIL
  6
CONTINUOUS
 62
     5
 10
-314.20870167403291
 20
197.51305245347109
 30
0.0
 11
-314.35327341346851
 21
197.40626386344681
 31
0.0
  0
LINE
  8
DETAIL
  6
CONTINUOUS
 62
     5
 10
-314.35327341346851
 20
197.40626386344681
 30
0.0
 11
-314.49730031337572
 21
197.29935564849779
 31
0.0
  0
LINE
  8
DETAIL
  6
CONTINUOUS
 62
     5
 10
-312.45057109388358
 20
198.7708219735018
 30
0.0
 11
-312.59829798087139
 21
198.66800745419479
 31
0.0
  0
LINE
  8
DETAIL
  6
CONTINUOUS
 62
     5
 10
-312.59829798087139
 20
198.66800745419479
 30
0.0
 11
-312.74577361368642
 21
198.56484866038889
 31
0.0
  0
LINE
  8
DETAIL
  6
CONTINUOUS
 62
     5
 10
-312.74577361368642
 20
198.56484866038889
 30
0.0
 11
-312.89301487142387
 21
198.4613340787869
 31
0.0
  0
LINE
  8
DETAIL
  6
CONTINUOUS
 62
     5
 10
-312.89301487142387
 20
198.4613340787869
 30
0.0
 11
-313.04003863317871
 21
198.35745219609149
 31
0.0
  0
LINE
  8
DETAIL
  6
CONTINUOUS
 62
     5
 10
-313.04003863317871
 20
198.35745219609149
 30
0.0
 11
-313.18686177804602
 21
198.25319149900551
 31
0.0
  0
LINE
  8
DETAIL
  6
CONTINUOUS
 62
     5
 10
-313.18686177804602
 20
198.25319149900551
 30
0.0
 11
-313.33350118512112
 21
198.14854047423199
 31
0.0
  0
LINE
  8
DETAIL
  6
CONTINUOUS
 62
     5
 10
-313.33350118512112
 20
198.14854047423199
 30
0.0
 11
-313.47997373349881
 21
198.0434876084737
 31
0.0
  0
LINE
  8
DETAIL
  6
CONTINUOUS
 62
     5
 10
-311.4094837879727
 20
199.48123398860051
 30
0.0
 11
-311.55890375773538
 21
199.38073548925891
 31
0.0
  0
LINE
  8
DETAIL
  6
CONTINUOUS
 62
     5
 10
-311.55890375773538
 20
199.38073548925891
 30
0.0
 11
-311.70810691178178
 21
199.27990854512399
 31
0.0
  0
LINE
  8
DETAIL
  6
CONTINUOUS
 62
     5
 10
-311.70810691178178
 20
199.27990854512399
 30
0.0
 11
-311.85708469718622
 21
199.17875243679461
 31
0.0
  0
LINE
  8
DETAIL
  6
CONTINUOUS
 62
     5
 10
-311.85708469718622
 20
199.17875243679461
 30
0.0
 11
-312.00582856102397
 21
199.07726644486911
 31
0.0
  0
LINE
  8
DETAIL
  6
CONTINUOUS
 62
     5
 10
-312.00582856102397
 20
199.07726644486911
 30
0.0
 11
-312.15432995036957
 21
198.9754498499461
 31
0.0
  0
LINE
  8
DETAIL
  6
CONTINUOUS
 62
     5
 10
-312.15432995036957
 20
198.9754498499461
 30
0.0
 11
-312.30258031229801
 21
198.87330193262409
 31
0.0
  0
LINE
  8
DETAIL
  6
CONTINUOUS
 62
     5
 10
-312.30258031229801
 20
198.87330193262409
 30
0.0
 11
-312.45057109388358
 21
198.7708219735018
 31
0.0
  0
LINE
  8
DETAIL
  6
CONTINUOUS
 62
     5
 10
-310.35710320920862
 20
200.1745988987891
 30
0.0
 11
-310.50820439921631
 21
200.07674539661289
 31
0.0
  0
LINE
  8
DETAIL
  6
CONTINUOUS
 62
     5
 10
-310.50820439921631
 20
200.07674539661289
 30
0.0
 11
-310.65903440999261
 21
199.9784647298101
 31
0.0
  0
LINE
  8
DETAIL
  6
CONTINUOUS
 62
     5
 10
-310.65903440999261
 20
199.9784647298101
 30
0.0
 11
-310.80960372761092
 21
199.8797734715865
 31
0.0
  0
LINE
  8
DETAIL
  6
CONTINUOUS
 62
     5
 10
-310.80960372761092
 20
199.8797734715865
 30
0.0
 11
-310.95992283814508
 21
199.7806881951478
 31
0.0
  0
LINE
  8
DETAIL
  6
CONTINUOUS
 62
     5
 10
-310.95992283814508
 20
199.7806881951478
 30
0.0
 11
-311.11000222766762
 21
199.6812254737001
 31
0.0
  0
LINE
  8
DETAIL
  6
CONTINUOUS
 62
     5
 10
-311.11000222766762
 20
199.6812254737001
 30
0.0
 11
-311.25985238225257
 21
199.58140188044919
 31
0.0
  0
LINE
  8
DETAIL
  6
CONTINUOUS
 62
     5
 10
-311.25985238225257
 20
199.58140188044919
 30
0.0
 11
-311.4094837879727
 21
199.48123398860051
 31
0.0
  0
LINE
  8
DETAIL
  6
CONTINUOUS
 62
     5
 10
-309.29382075103382
 20
200.85079194908801
 30
0.0
 11
-309.44604014826382
 21
200.75470007085369
 31
0.0
  0
LINE
  8
DETAIL
  6
CONTINUOUS
 62
     5
 10
-309.44604014826382
 20
200.75470007085369
 30
0.0
 11
-309.59821930759341
 21
200.6585448015006
 31
0.0
  0
LINE
  8
DETAIL
  6
CONTINUOUS
 62
     5
 10
-309.59821930759341
 20
200.6585448015006
 30
0.0
 11
-309.75031799112162
 21
200.56226274990971
 31
0.0
  0
LINE
  8
DETAIL
  6
CONTINUOUS
 62
     5
 10
-309.75031799112162
 20
200.56226274990971
 30
0.0
 11
-309.90229596094798
 21
200.4657905249619
 31
0.0
  0
LINE
  8
DETAIL
  6
CONTINUOUS
 62
     5
 10
-309.90229596094798
 20
200.4657905249619
 30
0.0
 11
-310.05411297917158
 21
200.36906473553859
 31
0.0
  0
LINE
  8
DETAIL
  6
CONTINUOUS
 62
     5
 10
-310.05411297917158
 20
200.36906473553859
 30
0.0
 11
-310.205728807892
 21
200.27202199052061
 31
0.0
  0
LINE
  8
DETAIL
  6
CONTINUOUS
 62
     5
 10
-310.205728807892
 20
200.27202199052061
 30
0.0
 11
-310.35710320920862
 21
200.1745988987891
 31
0.0
  0
LINE
  8
DETAIL
  6
CONTINUOUS
 62
     5
 10
-309.04990839021298
 20
200.99880240120839
 30
0.0
 11
-309.0849396482688
 21
200.9779594225266
 31
0.0
  0
LINE
  8
DETAIL
  6
CONTINUOUS
 62
     5
 10
-309.0849396482688
 20
200.9779594225266
 30
0.0
 11
-309.11988476705619
 21
200.95697734925051
 31
0.0
  0
LINE
  8
DETAIL
  6
CONTINUOUS
 62
     5
 10
-309.11988476705619
 20
200.95697734925051
 30
0.0
 11
-309.15475810312
 21
200.93587936381229
 31
0.0
  0
LINE
  8
DETAIL
  6
CONTINUOUS
 62
     5
 10
-309.15475810312
 20
200.93587936381229
 30
0.0
 11
-309.18957401300491
 21
200.91468864864439
 31
0.0
  0
LINE
  8
DETAIL
  6
CONTINUOUS
 62
     5
 10
-309.18957401300491
 20
200.91468864864439
 30
0.0
 11
-309.22434685325561
 21
200.89342838617969
 31
0.0
  0
LINE
  8
DETAIL
  6
CONTINUOUS
 62
     5
 10
-309.22434685325561
 20
200.89342838617969
 30
0.0
 11
-309.25909098041711
 21
200.87212175885011
 31
0.0
  0
LINE
  8
DETAIL
  6
CONTINUOUS
 62
     5
 10
-309.25909098041711
 20
200.87212175885011
 30
0.0
 11
-309.29382075103382
 21
200.85079194908801
 31
0.0
  0
LINE
  8
DETAIL
  6
CONTINUOUS
 62
     5
 10
-308.80217316833199
 20
201.14052168327819
 30
0.0
 11
-308.83780156501371
 21
201.12068668961331
 31
0.0
  0
LINE
  8
DETAIL
  6
CONTINUOUS
 62
     5
 10
-308.83780156501371
 20
201.12068668961331
 30
0.0
 11
-308.8733589289933
 21
201.1007245941621
 31
0.0
  0
LINE
  8
DETAIL
  6
CONTINUOUS
 62
     5
 10
-308.8733589289933
 20
201.1007245941621
 30
0.0
 11
-308.9088403497525
 21
201.0806295343846
 31
0.0
  0
LINE
  8
DETAIL
  6
CONTINUOUS
 62
     5
 10
-308.9088403497525
 20
201.0806295343846
 30
0.0
 11
-308.94424091677251
 21
201.06039564774051
 31
0.0
  0
LINE
  8
DETAIL
  6
CONTINUOUS
 62
     5
 10
-308.94424091677251
 20
201.06039564774051
 30
0.0
 11
-308.9795557195348
 21
201.04001707168979
 31
0.0
  0
LINE
  8
DETAIL
  6
CONTINUOUS
 62
     5
 10
-308.9795557195348
 20
201.04001707168979
 30
0.0
 11
-309.01477984752131
 21
201.0194879436925
 31
0.0
  0
LINE
  8
DETAIL
  6
CONTINUOUS
 62
     5
 10
-309.01477984752131
 20
201.0194879436925
 30
0.0
 11
-309.04990839021298
 21
200.99880240120839
 31
0.0
  0
LINE
  8
DETAIL
  6
CONTINUOUS
 62
     5
 10
-308.55083077528411
 20
201.27588719079719
 30
0.0
 11
-308.58695486085122
 21
201.25693069594459
 31
0.0
  0
LINE
  8
DETAIL
  6
CONTINUOUS
 62
     5
 10
-308.58695486085122
 20
201.25693069594459
 30
0.0
 11
-308.62300374906567
 21
201.2378447847436
 31
0.0
  0
LINE
  8
DETAIL
  6
CONTINUOUS
 62
     5
 10
-308.62300374906567
 20
201.2378447847436
 30
0.0
 11
-308.6589789524553
 21
201.21863082004509
 31
0.0
  0
LINE
  8
DETAIL
  6
CONTINUOUS
 62
     5
 10
-308.6589789524553
 20
201.21863082004509
 30
0.0
 11
-308.69488198354873
 21
201.19929016469879
 31
0.0
  0
LINE
  8
DETAIL
  6
CONTINUOUS
 62
     5
 10
-308.69488198354873
 20
201.19929016469879
 30
0.0
 11
-308.73071435487373
 21
201.1798241815554
 31
0.0
  0
LINE
  8
DETAIL
  6
CONTINUOUS
 62
     5
 10
-308.73071435487373
 20
201.1798241815554
 30
0.0
 11
-308.76647757895898
 21
201.16023423346519
 31
0.0
  0
LINE
  8
DETAIL
  6
CONTINUOUS
 62
     5
 10
-308.76647757895898
 20
201.16023423346519
 30
0.0
 11
-308.80217316833199
 21
201.14052168327819
 31
0.0
  0
LINE
  8
DETAIL
  6
CONTINUOUS
 62
     5
 10
-308.29609690096231
 20
201.40483631926509
 30
0.0
 11
-308.33265372034032
 21
201.3868269341898
 31
0.0
  0
LINE
  8
DETAIL
  6
CONTINUOUS
 62
     5
 10
-308.33265372034032
 20
201.3868269341898
 30
0.0
 11
-308.36916330540942
 21
201.3686777323486
 31
0.0
  0
LINE
  8
DETAIL
  6
CONTINUOUS
 62
     5
 10
-308.36916330540942
 20
201.3686777323486
 30
0.0
 11
-308.40562074357422
 21
201.35039022000291
 31
0.0
  0
LINE
  8
DETAIL
  6
CONTINUOUS
 62
     5
 10
-308.40562074357422
 20
201.35039022000291
 30
0.0
 11
-308.44202112223962
 21
201.33196590341339
 31
0.0
  0
LINE
  8
DETAIL
  6
CONTINUOUS
 62
     5
 10
-308.44202112223962
 20
201.33196590341339
 30
0.0
 11
-308.47835952880968
 21
201.31340628884189
 31
0.0
  0
LINE
  8
DETAIL
  6
CONTINUOUS
 62
     5
 10
-308.47835952880968
 20
201.31340628884189
 30
0.0
 11
-308.51463105068979
 21
201.29471288254919
 31
0.0
  0
LINE
  8
DETAIL
  6
CONTINUOUS
 62
     5
 10
-308.51463105068979
 20
201.29471288254919
 30
0.0
 11
-308.55083077528411
 21
201.27588719079719
 31
0.0
  0
LINE
  8
DETAIL
  6
CONTINUOUS
 62
     5
 10
-341.51164174284372
 20
147.19719078036471
 30
0.0
 11
-341.5114103295756
 21
147.0376049944085
 31
0.0
  0
LINE
  8
DETAIL
  6
CONTINUOUS
 62
     5
 10
-341.5114103295756
 20
147.0376049944085
 30
0.0
 11
-341.51070600571961
 21
146.87820687060031
 31
0.0
  0
LINE
  8
DETAIL
  6
CONTINUOUS
 62
     5
 10
-341.51070600571961
 20
146.87820687060031
 30
0.0
 11
-341.50952915993747
 21
146.7189566740706
 31
0.0
  0
LINE
  8
DETAIL
  6
CONTINUOUS
 62
     5
 10
-341.50952915993747
 20
146.7189566740706
 30
0.0
 11
-341.50788018089111
 21
146.5598146699501
 31
0.0
  0
LINE
  8
DETAIL
  6
CONTINUOUS
 62
     5
 10
-341.50788018089111
 20
146.5598146699501
 30
0.0
 11
-341.50575945724171
 21
146.4007411233697
 31
0.0
  0
LINE
  8
DETAIL
  6
CONTINUOUS
 62
     5
 10
-341.50575945724171
 20
146.4007411233697
 30
0.0
 11
-341.50316737765093
 21
146.2416962994597
 31
0.0
  0
LINE
  8
DETAIL
  6
CONTINUOUS
 62
     5
 10
-341.50316737765093
 20
146.2416962994597
 30
0.0
 11
-341.50010433078069
 21
146.0826404633508
 31
0.0
  0
LINE
  8
DETAIL
  6
CONTINUOUS
 62
     5
 10
-333.239774802375
 20
118.6643970085138
 30
0.0
 11
-333.15374338047042
 21
118.5281858575235
 31
0.0
  0
LINE
  8
DETAIL
  6
CONTINUOUS
 62
     5
 10
-333.15374338047042
 20
118.5281858575235
 30
0.0
 11
-333.06730889760371
 21
118.3922116860133
 31
0.0
  0
LINE
  8
DETAIL
  6
CONTINUOUS
 62
     5
 10
-333.06730889760371
 20
118.3922116860133
 30
0.0
 11
-332.98047130773261
 21
118.2564748086929
 31
0.0
  0
LINE
  8
DETAIL
  6
CONTINUOUS
 62
     5
 10
-332.98047130773261
 20
118.2564748086929
 30
0.0
 11
-332.89323056481538
 21
118.1209755402713
 31
0.0
  0
LINE
  8
DETAIL
  6
CONTINUOUS
 62
     5
 10
-332.89323056481538
 20
118.1209755402713
 30
0.0
 11
-332.80558662280998
 21
117.9857141954578
 31
0.0
  0
LINE
  8
DETAIL
  6
CONTINUOUS
 62
     5
 10
-332.80558662280998
 20
117.9857141954578
 30
0.0
 11
-332.7175394356741
 21
117.85069108896199
 31
0.0
  0
LINE
  8
DETAIL
  6
CONTINUOUS
 62
     5
 10
-332.7175394356741
 20
117.85069108896199
 30
0.0
 11
-332.62908895736558
 21
117.71590653549291
 31
0.0
  0
LINE
  8
DETAIL
  6
CONTINUOUS
 62
     5
 10
-320.26025109475091
 20
104.2212495496383
 30
0.0
 11
-320.13027122346159
 21
104.1174734027114
 31
0.0
  0
LINE
  8
DETAIL
  6
CONTINUOUS
 62
     5
 10
-320.13027122346159
 20
104.1174734027114
 30
0.0
 11
-320.00005159770598
 21
104.0140748284573
 31
0.0
  0
LINE
  8
DETAIL
  6
CONTINUOUS
 62
     5
 10
-320.00005159770598
 20
104.0140748284573
 30
0.0
 11
-319.86951148605152
 21
103.91099284052559
 31
0.0
  0
LINE
  8
DETAIL
  6
CONTINUOUS
 62
     5
 10
-319.86951148605152
 20
103.91099284052559
 30
0.0
 11
-319.7385701570638
 21
103.8081664525662
 31
0.0
  0
LINE
  8
DETAIL
  6
CONTINUOUS
 62
     5
 10
-319.7385701570638
 20
103.8081664525662
 30
0.0
 11
-319.60714687930999
 21
103.7055346782288
 31
0.0
  0
LINE
  8
DETAIL
  6
CONTINUOUS
 62
     5
 10
-319.60714687930999
 20
103.7055346782288
 30
0.0
 11
-319.47516092135652
 21
103.6030365311632
 31
0.0
  0
LINE
  8
DETAIL
  6
CONTINUOUS
 62
     5
 10
-319.47516092135652
 20
103.6030365311632
 30
0.0
 11
-319.34253155177021
 21
103.5006110250192
 31
0.0
  0
LINE
  8
DETAIL
  6
CONTINUOUS
 62
     5
 10
-319.34253155177021
 20
103.5006110250192
 30
0.0
 11
-319.20920620233068
 21
103.3982185648714
 31
0.0
  0
LINE
  8
DETAIL
  6
CONTINUOUS
 62
     5
 10
-319.20920620233068
 20
103.3982185648714
 30
0.0
 11
-319.07524495767137
 21
103.2959051214934
 31
0.0
  0
LINE
  8
DETAIL
  6
CONTINUOUS
 62
     5
 10
-319.07524495767137
 20
103.2959051214934
 30
0.0
 11
-318.9407360656395
 21
103.19373805708381
 31
0.0
  0
LINE
  8
DETAIL
  6
CONTINUOUS
 62
     5
 10
-318.9407360656395
 20
103.19373805708381
 30
0.0
 11
-318.80576777408152
 21
103.0917847338411
 31
0.0
  0
LINE
  8
DETAIL
  6
CONTINUOUS
 62
     5
 10
-318.80576777408152
 20
103.0917847338411
 30
0.0
 11
-318.67042833084429
 21
102.9901125139636
 31
0.0
  0
LINE
  8
DETAIL
  6
CONTINUOUS
 62
     5
 10
-318.67042833084429
 20
102.9901125139636
 30
0.0
 11
-318.53480598377462
 21
102.88878875965
 31
0.0
  0
LINE
  8
DETAIL
  6
CONTINUOUS
 62
     5
 10
-318.53480598377462
 20
102.88878875965
 30
0.0
 11
-318.39898898071942
 21
102.7878808330986
 31
0.0
  0
LINE
  8
DETAIL
  6
CONTINUOUS
 62
     5
 10
-327.80372071847211
 20
111.4034195582519
 30
0.0
 11
-327.69521184581367
 21
111.2805966272887
 31
0.0
  0
LINE
  8
DETAIL
  6
CONTINUOUS
 62
     5
 10
-327.69521184581367
 20
111.2805966272887
 30
0.0
 11
-327.5861071657464
 21
111.1577960304608
 31
0.0
  0
LINE
  8
DETAIL
  6
CONTINUOUS
 62
     5
 10
-327.5861071657464
 20
111.1577960304608
 30
0.0
 11
-327.47646226269558
 21
111.0350815648723
 31
0.0
  0
LINE
  8
DETAIL
  6
CONTINUOUS
 62
     5
 10
-327.47646226269558
 20
111.0350815648723
 30
0.0
 11
-327.366332721086
 21
110.9125170276275
 31
0.0
  0
LINE
  8
DETAIL
  6
CONTINUOUS
 62
     5
 10
-327.366332721086
 20
110.9125170276275
 30
0.0
 11
-327.2557741253429
 21
110.79016621583
 31
0.0
  0
LINE
  8
DETAIL
  6
CONTINUOUS
 62
     5
 10
-327.2557741253429
 20
110.79016621583
 30
0.0
 11
-327.14484205989078
 21
110.66809292658471
 31
0.0
  0
LINE
  8
DETAIL
  6
CONTINUOUS
 62
     5
 10
-327.14484205989078
 20
110.66809292658471
 30
0.0
 11
-327.03359210915511
 21
110.5463609569952
 31
0.0
  0
LINE
  8
DETAIL
  6
CONTINUOUS
 62
     5
 10
-321.16430328645492
 20
104.9589931167784
 30
0.0
 11
-321.03591659028689
 21
104.8524897031014
 31
0.0
  0
LINE
  8
DETAIL
  6
CONTINUOUS
 62
     5
 10
-321.03591659028689
 20
104.8524897031014
 30
0.0
 11
-320.90723861823949
 21
104.74633060157591
 31
0.0
  0
LINE
  8
DETAIL
  6
CONTINUOUS
 62
     5
 10
-320.90723861823949
 20
104.74633060157591
 30
0.0
 11
-320.77829141245388
 21
104.64053152001379
 31
0.0
  0
LINE
  8
DETAIL
  6
CONTINUOUS
 62
     5
 10
-320.77829141245388
 20
104.64053152001379
 30
0.0
 11
-320.64909701507099
 21
104.5351081662272
 31
0.0
  0
LINE
  8
DETAIL
  6
CONTINUOUS
 62
     5
 10
-320.64909701507099
 20
104.5351081662272
 30
0.0
 11
-320.51967746823209
 21
104.4300762480278
 31
0.0
  0
LINE
  8
DETAIL
  6
CONTINUOUS
 62
     5
 10
-320.51967746823209
 20
104.4300762480278
 30
0.0
 11
-320.39005481407838
 21
104.3254514732275
 31
0.0
  0
LINE
  8
DETAIL
  6
CONTINUOUS
 62
     5
 10
-320.39005481407838
 20
104.3254514732275
 30
0.0
 11
-320.26025109475091
 21
104.2212495496383
 31
0.0
  0
LINE
  8
DETAIL
  6
CONTINUOUS
 62
     5
 10
-322.05424979980421
 20
105.7137005153777
 30
0.0
 11
-321.92805753284688
 21
105.6049074881728
 31
0.0
  0
LINE
  8
DETAIL
  6
CONTINUOUS
 62
     5
 10
-321.92805753284688
 20
105.6049074881728
 30
0.0
 11
-321.80155056548068
 21
105.49643931370539
 31
0.0
  0
LINE
  8
DETAIL
  6
CONTINUOUS
 62
     5
 10
-321.80155056548068
 20
105.49643931370539
 30
0.0
 11
-321.67472912810467
 21
105.388296617243
 31
0.0
  0
LINE
  8
DETAIL
  6
CONTINUOUS
 62
     5
 10
-321.67472912810467
 20
105.388296617243
 30
0.0
 11
-321.54759345111569
 21
105.2804800240518
 31
0.0
  0
LINE
  8
DETAIL
  6
CONTINUOUS
 62
     5
 10
-321.54759345111569
 20
105.2804800240518
 30
0.0
 11
-321.42014376491278
 21
105.1729901593994
 31
0.0
  0
LINE
  8
DETAIL
  6
CONTINUOUS
 62
     5
 10
-321.42014376491278
 20
105.1729901593994
 30
0.0
 11
-321.29238029989318
 21
105.0658276485526
 31
0.0
  0
LINE
  8
DETAIL
  6
CONTINUOUS
 62
     5
 10
-321.29238029989318
 20
105.0658276485526
 30
0.0
 11
-321.16430328645492
 21
104.9589931167784
 31
0.0
  0
LINE
  8
DETAIL
  6
CONTINUOUS
 62
     5
 10
-322.92965230771961
 20
106.4852305343738
 30
0.0
 11
-322.80534074835651
 21
106.373834674517
 31
0.0
  0
LINE
  8
DETAIL
  6
CONTINUOUS
 62
     5
 10
-322.80534074835651
 20
106.373834674517
 30
0.0
 11
-322.6808060354108
 21
106.26285747442429
 31
0.0
  0
LINE
  8
DETAIL
  6
CONTINUOUS
 62
     5
 10
-322.6808060354108
 20
106.26285747442429
 30
0.0
 11
-322.55603287267832
 21
106.15228319538031
 31
0.0
  0
LINE
  8
DETAIL
  6
CONTINUOUS
 62
     5
 10
-322.55603287267832
 20
106.15228319538031
 30
0.0
 11
-322.43100596395561
 21
106.04209609866921
 31
0.0
  0
LINE
  8
DETAIL
  6
CONTINUOUS
 62
     5
 10
-322.43100596395561
 20
106.04209609866921
 30
0.0
 11
-322.30571001303821
 21
105.9322804455754
 31
0.0
  0
LINE
  8
DETAIL
  6
CONTINUOUS
 62
     5
 10
-322.30571001303821
 20
105.9322804455754
 30
0.0
 11
-322.1801297237223
 21
105.8228204973834
 31
0.0
  0
LINE
  8
DETAIL
  6
CONTINUOUS
 62
     5
 10
-322.1801297237223
 20
105.8228204973834
 30
0.0
 11
-322.05424979980421
 21
105.7137005153777
 31
0.0
  0
LINE
  8
DETAIL
  6
CONTINUOUS
 62
     5
 10
-323.79007248312291
 20
107.27344196270541
 30
0.0
 11
-323.66867097265367
 21
107.1603795315243
 31
0.0
  0
LINE
  8
DETAIL
  6
CONTINUOUS
 62
     5
 10
-323.66867097265367
 20
107.1603795315243
 30
0.0
 11
-323.54664987312469
 21
107.0473627002643
 31
0.0
  0
LINE
  8
DETAIL
  6
CONTINUOUS
 62
     5
 10
-323.54664987312469
 20
107.0473627002643
 30
0.0
 11
-323.4240778064825
 21
106.9344562686853
 31
0.0
  0
LINE
  8
DETAIL
  6
CONTINUOUS
 62
     5
 10
-323.4240778064825
 20
106.9344562686853
 30
0.0
 11
-323.30102339467379
 21
106.82172503654679
 31
0.0
  0
LINE
  8
DETAIL
  6
CONTINUOUS
 62
     5
 10
-323.30102339467379
 20
106.82172503654679
 30
0.0
 11
-323.17755525964589
 21
106.709233803609
 31
0.0
  0
LINE
  8
DETAIL
  6
CONTINUOUS
 62
     5
 10
-323.17755525964589
 20
106.709233803609
 30
0.0
 11
-323.05374202334559
 21
106.5970473696314
 31
0.0
  0
LINE
  8
DETAIL
  6
CONTINUOUS
 62
     5
 10
-323.05374202334559
 20
106.5970473696314
 30
0.0
 11
-322.92965230771961
 21
106.4852305343738
 31
0.0
  0
LINE
  8
DETAIL
  6
CONTINUOUS
 62
     5
 10
-324.62456006323191
 20
108.06797711758421
 30
0.0
 11
-324.50653284144278
 21
107.9537201021901
 31
0.0
  0
LINE
  8
DETAIL
  6
CONTINUOUS
 62
     5
 10
-324.50653284144278
 20
107.9537201021901
 30
0.0
 11
-324.38822325943102
 21
107.8398175451656
 31
0.0
  0
LINE
  8
DETAIL
  6
CONTINUOUS
 62
     5
 10
-324.38822325943102
 20
107.8398175451656
 30
0.0
 11
-324.26956367539901
 21
107.7262071701426
 31
0.0
  0
LINE
  8
DETAIL
  6
CONTINUOUS
 62
     5
 10
-324.26956367539901
 20
107.7262071701426
 30
0.0
 11
-324.15048644754961
 21
107.6128267007532
 31
0.0
  0
LINE
  8
DETAIL
  6
CONTINUOUS
 62
     5
 10
-324.15048644754961
 20
107.6128267007532
 30
0.0
 11
-324.03092393408519
 21
107.4996138606292
 31
0.0
  0
LINE
  8
DETAIL
  6
CONTINUOUS
 62
     5
 10
-324.03092393408519
 20
107.4996138606292
 30
0.0
 11
-323.91080849320878
 21
107.3865063734027
 31
0.0
  0
LINE
  8
DETAIL
  6
CONTINUOUS
 62
     5
 10
-323.91080849320878
 20
107.3865063734027
 30
0.0
 11
-323.79007248312291
 21
107.27344196270541
 31
0.0
  0
LINE
  8
DETAIL
  6
CONTINUOUS
 62
     5
 10
-325.4435902291782
 20
108.87844109562
 30
0.0
 11
-325.32747325202598
 21
108.761622048002
 31
0.0
  0
LINE
  8
DETAIL
  6
CONTINUOUS
 62
     5
 10
-325.32747325202598
 20
108.761622048002
 30
0.0
 11
-325.21102932091321
 21
108.6451220159437
 31
0.0
  0
LINE
  8
DETAIL
  6
CONTINUOUS
 62
     5
 10
-325.21102932091321
 20
108.6451220159437
 30
0.0
 11
-325.09427714176257
 21
108.5289572859746
 31
0.0
  0
LINE
  8
DETAIL
  6
CONTINUOUS
 62
     5
 10
-325.09427714176257
 20
108.5289572859746
 30
0.0
 11
-324.97723542049681
 21
108.4131441446244
 31
0.0
  0
LINE
  8
DETAIL
  6
CONTINUOUS
 62
     5
 10
-324.97723542049681
 20
108.4131441446244
 30
0.0
 11
-324.85992286303798
 21
108.29769887842281
 31
0.0
  0
LINE
  8
DETAIL
  6
CONTINUOUS
 62
     5
 10
-324.85992286303798
 20
108.29769887842281
 30
0.0
 11
-324.74235817530888
 21
108.1826377738996
 31
0.0
  0
LINE
  8
DETAIL
  6
CONTINUOUS
 62
     5
 10
-324.74235817530888
 20
108.1826377738996
 30
0.0
 11
-324.62456006323191
 21
108.06797711758421
 31
0.0
  0
LINE
  8
DETAIL
  6
CONTINUOUS
 62
     5
 10
-326.24674142860482
 20
109.7046352557707
 30
0.0
 11
-326.13304502123492
 21
109.5857071967736
 31
0.0
  0
LINE
  8
DETAIL
  6
CONTINUOUS
 62
     5
 10
-326.13304502123492
 20
109.5857071967736
 30
0.0
 11
-326.01900180077592
 21
109.4670782366877
 31
0.0
  0
LINE
  8
DETAIL
  6
CONTINUOUS
 62
     5
 10
-326.01900180077592
 20
109.4670782366877
 30
0.0
 11
-325.90461195942839
 21
109.3487489805329
 31
0.0
  0
LINE
  8
DETAIL
  6
CONTINUOUS
 62
     5
 10
-325.90461195942839
 20
109.3487489805329
 30
0.0
 11
-325.78987568939402
 21
109.23072003332901
 31
0.0
  0
LINE
  8
DETAIL
  6
CONTINUOUS
 62
     5
 10
-325.78987568939402
 20
109.23072003332901
 30
0.0
 11
-325.67479318287332
 21
109.1129920000957
 31
0.0
  0
LINE
  8
DETAIL
  6
CONTINUOUS
 62
     5
 10
-325.67479318287332
 20
109.1129920000957
 30
0.0
 11
-325.55936463206763
 21
108.99556548585269
 31
0.0
  0
LINE
  8
DETAIL
  6
CONTINUOUS
 62
     5
 10
-325.55936463206763
 20
108.99556548585269
 30
0.0
 11
-325.4435902291782
 21
108.87844109562
 31
0.0
  0
LINE
  8
DETAIL
  6
CONTINUOUS
 62
     5
 10
-327.03359210915511
 20
110.5463609569952
 30
0.0
 11
-326.92206857671749
 21
110.42502093267549
 31
0.0
  0
LINE
  8
DETAIL
  6
CONTINUOUS
 62
     5
 10
-326.92206857671749
 20
110.42502093267549
 30
0.0
 11
-326.81027064278811
 21
110.3040707932774
 31
0.0
  0
LINE
  8
DETAIL
  6
CONTINUOUS
 62
     5
 10
-326.81027064278811
 20
110.3040707932774
 30
0.0
 11
-326.69818620673368
 21
110.1834953069629
 31
0.0
  0
LINE
  8
DETAIL
  6
CONTINUOUS
 62
     5
 10
-326.69818620673368
 20
110.1834953069629
 30
0.0
 11
-326.5858031679212
 21
110.0632792418933
 31
0.0
  0
LINE
  8
DETAIL
  6
CONTINUOUS
 62
     5
 10
-326.5858031679212
 20
110.0632792418933
 30
0.0
 11
-326.47310942571772
 21
109.9434073662303
 31
0.0
  0
LINE
  8
DETAIL
  6
CONTINUOUS
 62
     5
 10
-326.47310942571772
 20
109.9434073662303
 30
0.0
 11
-326.36009287948991
 21
109.82386444813559
 31
0.0
  0
LINE
  8
DETAIL
  6
CONTINUOUS
 62
     5
 10
-326.36009287948991
 20
109.82386444813559
 30
0.0
 11
-326.24674142860482
 21
109.7046352557707
 31
0.0
  0
LINE
  8
DETAIL
  6
CONTINUOUS
 62
     5
 10
-328.54823794987078
 20
112.2655923827526
 30
0.0
 11
-328.44312091400678
 21
112.1417535705128
 31
0.0
  0
LINE
  8
DETAIL
  6
CONTINUOUS
 62
     5
 10
-328.44312091400678
 20
112.1417535705128
 30
0.0
 11
-328.33768092025338
 21
112.0182405205916
 31
0.0
  0
LINE
  8
DETAIL
  6
CONTINUOUS
 62
     5
 10
-328.33768092025338
 20
112.0182405205916
 30
0.0
 11
-328.23186322962027
 21
111.8949920287741
 31
0.0
  0
LINE
  8
DETAIL
  6
CONTINUOUS
 62
     5
 10
-328.23186322962027
 20
111.8949920287741
 30
0.0
 11
-328.12561310311628
 21
111.7719468908459
 31
0.0
  0
LINE
  8
DETAIL
  6
CONTINUOUS
 62
     5
 10
-328.12561310311628
 20
111.7719468908459
 30
0.0
 11
-328.01887580175048
 21
111.6490439025926
 31
0.0
  0
LINE
  8
DETAIL
  6
CONTINUOUS
 62
     5
 10
-328.01887580175048
 20
111.6490439025926
 30
0.0
 11
-327.91159658653282
 21
111.52622185979941
 31
0.0
  0
LINE
  8
DETAIL
  6
CONTINUOUS
 62
     5
 10
-327.91159658653282
 20
111.52622185979941
 30
0.0
 11
-327.80372071847211
 21
111.4034195582519
 31
0.0
  0
LINE
  8
DETAIL
  6
CONTINUOUS
 62
     5
 10
-329.27560232041083
 20
113.1422938803746
 30
0.0
 11
-329.17269810014
 21
113.01610227118201
 31
0.0
  0
LINE
  8
DETAIL
  6
CONTINUOUS
 62
     5
 10
-329.17269810014
 20
113.01610227118201
 30
0.0
 11
-329.06943320612851
 21
112.89019961552459
 31
0.0
  0
LINE
  8
DETAIL
  6
CONTINUOUS
 62
     5
 10
-329.06943320612851
 20
112.89019961552459
 30
0.0
 11
-328.96582304751632
 21
112.76460224890209
 31
0.0
  0
LINE
  8
DETAIL
  6
CONTINUOUS
 62
     5
 10
-328.96582304751632
 20
112.76460224890209
 30
0.0
 11
-328.8618830334442
 21
112.639326506814
 31
0.0
  0
LINE
  8
DETAIL
  6
CONTINUOUS
 62
     5
 10
-328.8618830334442
 20
112.639326506814
 30
0.0
 11
-328.75762857305239
 21
112.5143887247599
 31
0.0
  0
LINE
  8
DETAIL
  6
CONTINUOUS
 62
     5
 10
-328.75762857305239
 20
112.5143887247599
 30
0.0
 11
-328.65307507548118
 21
112.3898052382395
 31
0.0
  0
LINE
  8
DETAIL
  6
CONTINUOUS
 62
     5
 10
-328.65307507548118
 20
112.3898052382395
 30
0.0
 11
-328.54823794987078
 21
112.2655923827526
 31
0.0
  0
LINE
  8
DETAIL
  6
CONTINUOUS
 62
     5
 10
-329.9854166927696
 20
114.0332609004313
 30
0.0
 11
-329.88514353091023
 21
113.9051680941152
 31
0.0
  0
LINE
  8
DETAIL
  6
CONTINUOUS
 62
     5
 10
-329.88514353091023
 20
113.9051680941152
 30
0.0
 11
-329.78449398954291
 21
113.7773451132242
 31
0.0
  0
LINE
  8
DETAIL
  6
CONTINUOUS
 62
     5
 10
-329.78449398954291
 20
113.7773451132242
 30
0.0
 11
-329.68346811810568
 21
113.6497924231936
 31
0.0
  0
LINE
  8
DETAIL
  6
CONTINUOUS
 62
     5
 10
-329.68346811810568
 20
113.6497924231936
 30
0.0
 11
-329.582065966036
 21
113.5225104894581
 31
0.0
  0
LINE
  8
DETAIL
  6
CONTINUOUS
 62
     5
 10
-329.582065966036
 20
113.5225104894581
 30
0.0
 11
-329.48028758277178
 21
113.3954997774531
 31
0.0
  0
LINE
  8
DETAIL
  6
CONTINUOUS
 62
     5
 10
-329.48028758277178
 20
113.3954997774531
 30
0.0
 11
-329.37813301775083
 21
113.2687607526136
 31
0.0
  0
LINE
  8
DETAIL
  6
CONTINUOUS
 62
     5
 10
-329.37813301775083
 20
113.2687607526136
 30
0.0
 11
-329.27560232041083
 21
113.1422938803746
 31
0.0
  0
LINE
  8
DETAIL
  6
CONTINUOUS
 62
     5
 10
-330.67728392962499
 20
114.93823029223491
 30
0.0
 11
-330.57946246129012
 21
114.8079641483065
 31
0.0
  0
LINE
  8
DETAIL
  6
CONTINUOUS
 62
     5
 10
-330.57946246129012
 20
114.8079641483065
 30
0.0
 11
-330.48131652330721
 21
114.67804892849369
 31
0.0
  0
LINE
  8
DETAIL
  6
CONTINUOUS
 62
     5
 10
-330.48131652330721
 20
114.67804892849369
 30
0.0
 11
-330.38283745579332
 21
114.5484710387756
 31
0.0
  0
LINE
  8
DETAIL
  6
CONTINUOUS
 62
     5
 10
-330.38283745579332
 20
114.5484710387756
 30
0.0
 11
-330.28401659886549
 21
114.41921688513121
 31
0.0
  0
LINE
  8
DETAIL
  6
CONTINUOUS
 62
     5
 10
-330.28401659886549
 20
114.41921688513121
 30
0.0
 11
-330.18484529264077
 21
114.29027287353961
 31
0.0
  0
LINE
  8
DETAIL
  6
CONTINUOUS
 62
     5
 10
-330.18484529264077
 20
114.29027287353961
 30
0.0
 11
-330.08531487723673
 21
114.16162540997991
 31
0.0
  0
LINE
  8
DETAIL
  6
CONTINUOUS
 62
     5
 10
-330.08531487723673
 20
114.16162540997991
 30
0.0
 11
-329.9854166927696
 21
114.0332609004313
 31
0.0
  0
LINE
  8
DETAIL
  6
CONTINUOUS
 62
     5
 10
-331.35080689365509
 20
115.8569389050992
 30
0.0
 11
-331.25607673899322
 21
115.7253619434166
 31
0.0
  0
LINE
  8
DETAIL
  6
CONTINUOUS
 62
     5
 10
-331.25607673899322
 20
115.7253619434166
 30
0.0
 11
-331.160781551951
 21
115.5937984166648
 31
0.0
  0
LINE
  8
DETAIL
  6
CONTINUOUS
 62
     5
 10
-331.160781551951
 20
115.5937984166648
 30
0.0
 11
-331.06496286963119
 21
115.4623068387115
 31
0.0
  0
LINE
  8
DETAIL
  6
CONTINUOUS
 62
     5
 10
-331.06496286963119
 20
115.4623068387115
 30
0.0
 11
-330.96866222913638
 21
115.33094572342431
 31
0.0
  0
LINE
  8
DETAIL
  6
CONTINUOUS
 62
     5
 10
-330.96866222913638
 20
115.33094572342431
 30
0.0
 11
-330.87192116756842
 21
115.19977358467069
 31
0.0
  0
LINE
  8
DETAIL
  6
CONTINUOUS
 62
     5
 10
-330.87192116756842
 20
115.19977358467069
 30
0.0
 11
-330.77478122203053
 21
115.0688489363183
 31
0.0
  0
LINE
  8
DETAIL
  6
CONTINUOUS
 62
     5
 10
-330.77478122203053
 20
115.0688489363183
 30
0.0
 11
-330.67728392962499
 21
114.93823029223491
 31
0.0
  0
LINE
  8
DETAIL
  6
CONTINUOUS
 62
     5
 10
-331.99931466473117
 20
116.7799783636638
 30
0.0
 11
-331.90796005727498
 21
116.64752433576621
 31
0.0
  0
LINE
  8
DETAIL
  6
CONTINUOUS
 62
     5
 10
-331.90796005727498
 20
116.64752433576621
 30
0.0
 11
-331.81624365661679
 21
116.5153605296608
 31
0.0
  0
LINE
  8
DETAIL
  6
CONTINUOUS
 62
     5
 10
-331.81624365661679
 20
116.5153605296608
 30
0.0
 11
-331.72412466670949
 21
116.38343106189301
 31
0.0
  0
LINE
  8
DETAIL
  6
CONTINUOUS
 62
     5
 10
-331.72412466670949
 20
116.38343106189301
 30
0.0
 11
-331.63156229150638
 21
116.2516800490077
 31
0.0
  0
LINE
  8
DETAIL
  6
CONTINUOUS
 62
     5
 10
-331.63156229150638
 20
116.2516800490077
 30
0.0
 11
-331.5385157349607
 21
116.1200516075502
 31
0.0
  0
LINE
  8
DETAIL
  6
CONTINUOUS
 62
     5
 10
-331.5385157349607
 20
116.1200516075502
 30
0.0
 11
-331.44494420102592
 21
115.98848985406561
 31
0.0
  0
LINE
  8
DETAIL
  6
CONTINUOUS
 62
     5
 10
-331.44494420102592
 20
115.98848985406561
 30
0.0
 11
-331.35080689365509
 21
115.8569389050992
 31
0.0
  0
LINE
  8
DETAIL
  6
CONTINUOUS
 62
     5
 10
-332.62908895736558
 20
117.71590653549291
 30
0.0
 11
-332.540237109994
 21
117.58136335058229
 31
0.0
  0
LINE
  8
DETAIL
  6
CONTINUOUS
 62
     5
 10
-332.540237109994
 20
117.58136335058229
 30
0.0
 11
-332.45099368827368
 21
117.447074353052
 31
0.0
  0
LINE
  8
DETAIL
  6
CONTINUOUS
 62
     5
 10
-332.45099368827368
 20
117.447074353052
 30
0.0
 11
-332.36137045506962
 21
117.31305486254681
 31
0.0
  0
LINE
  8
DETAIL
  6
CONTINUOUS
 62
     5
 10
-332.36137045506962
 20
117.31305486254681
 30
0.0
 11
-332.27137917324802
 21
117.1793201987109
 31
0.0
  0
LINE
  8
DETAIL
  6
CONTINUOUS
 62
     5
 10
-332.27137917324802
 20
117.1793201987109
 30
0.0
 11
-332.18103160567381
 21
117.04588568118891
 31
0.0
  0
LINE
  8
DETAIL
  6
CONTINUOUS
 62
     5
 10
-332.18103160567381
 20
117.04588568118891
 30
0.0
 11
-332.09033951521292
 21
116.912766629625
 31
0.0
  0
LINE
  8
DETAIL
  6
CONTINUOUS
 62
     5
 10
-332.09033951521292
 20
116.912766629625
 30
0.0
 11
-331.99931466473117
 21
116.7799783636638
 31
0.0
  0
LINE
  8
DETAIL
  6
CONTINUOUS
 62
     5
 10
-336.93384930383399
 20
125.587299366078
 30
0.0
 11
-336.86887059207442
 21
125.4415035400401
 31
0.0
  0
LINE
  8
DETAIL
  6
CONTINUOUS
 62
     5
 10
-336.86887059207442
 20
125.4415035400401
 30
0.0
 11
-336.80339306607988
 21
125.2957545597629
 31
0.0
  0
LINE
  8
DETAIL
  6
CONTINUOUS
 62
     5
 10
-336.80339306607988
 20
125.2957545597629
 30
0.0
 11
-336.73743169374688
 21
125.15008601813329
 31
0.0
  0
LINE
  8
DETAIL
  6
CONTINUOUS
 62
     5
 10
-336.73743169374688
 20
125.15008601813329
 30
0.0
 11
-336.67100144297132
 21
125.0045315080379
 31
0.0
  0
LINE
  8
DETAIL
  6
CONTINUOUS
 62
     5
 10
-336.67100144297132
 20
125.0045315080379
 30
0.0
 11
-336.60411728164922
 21
124.85912462236411
 31
0.0
  0
LINE
  8
DETAIL
  6
CONTINUOUS
 62
     5
 10
-336.60411728164922
 20
124.85912462236411
 30
0.0
 11
-336.53679417767722
 21
124.71389895399849
 31
0.0
  0
LINE
  8
DETAIL
  6
CONTINUOUS
 62
     5
 10
-336.53679417767722
 20
124.71389895399849
 30
0.0
 11
-336.4690470989508
 21
124.5688880958282
 31
0.0
  0
LINE
  8
DETAIL
  6
CONTINUOUS
 62
     5
 10
-333.83101723057462
 20
119.6251233706532
 30
0.0
 11
-333.74769327009648
 21
119.4870254607351
 31
0.0
  0
LINE
  8
DETAIL
  6
CONTINUOUS
 62
     5
 10
-333.74769327009648
 20
119.4870254607351
 30
0.0
 11
-333.66399851064148
 21
119.3492294274845
 31
0.0
  0
LINE
  8
DETAIL
  6
CONTINUOUS
 62
     5
 10
-333.66399851064148
 20
119.3492294274845
 30
0.0
 11
-333.57992758288532
 21
119.2117244022519
 31
0.0
  0
LINE
  8
DETAIL
  6
CONTINUOUS
 62
     5
 10
-333.57992758288532
 20
119.2117244022519
 30
0.0
 11
-333.4954751175045
 21
119.074499516388
 31
0.0
  0
LINE
  8
DETAIL
  6
CONTINUOUS
 62
     5
 10
-333.4954751175045
 20
119.074499516388
 30
0.0
 11
-333.41063574517511
 21
118.9375439012432
 31
0.0
  0
LINE
  8
DETAIL
  6
CONTINUOUS
 62
     5
 10
-333.41063574517511
 20
118.9375439012432
 30
0.0
 11
-333.32540409657332
 21
118.80084668816831
 31
0.0
  0
LINE
  8
DETAIL
  6
CONTINUOUS
 62
     5
 10
-333.32540409657332
 20
118.80084668816831
 30
0.0
 11
-333.239774802375
 21
118.6643970085138
 31
0.0
  0
LINE
  8
DETAIL
  6
CONTINUOUS
 62
     5
 10
-334.40246127278078
 20
120.59775920983751
 30
0.0
 11
-334.32228322380962
 21
120.4585083032273
 31
0.0
  0
LINE
  8
DETAIL
  6
CONTINUOUS
 62
     5
 10
-334.32228322380962
 20
120.4585083032273
 30
0.0
 11
-334.24157334891993
 21
120.3192769236108
 31
0.0
  0
LINE
  8
DETAIL
  6
CONTINUOUS
 62
     5
 10
-334.24157334891993
 20
120.3192769236108
 30
0.0
 11
-334.16035938082268
 21
120.18011394070869
 31
0.0
  0
LINE
  8
DETAIL
  6
CONTINUOUS
 62
     5
 10
-334.16035938082268
 20
120.18011394070869
 30
0.0
 11
-334.07866905222852
 21
120.0410682242414
 31
0.0
  0
LINE
  8
DETAIL
  6
CONTINUOUS
 62
     5
 10
-334.07866905222852
 20
120.0410682242414
 30
0.0
 11
-333.9965300958487
 21
119.90218864392931
 31
0.0
  0
LINE
  8
DETAIL
  6
CONTINUOUS
 62
     5
 10
-333.9965300958487
 20
119.90218864392931
 30
0.0
 11
-333.91397024439379
 21
119.7635240694931
 31
0.0
  0
LINE
  8
DETAIL
  6
CONTINUOUS
 62
     5
 10
-333.91397024439379
 20
119.7635240694931
 30
0.0
 11
-333.83101723057462
 21
119.6251233706532
 31
0.0
  0
LINE
  8
DETAIL
  6
CONTINUOUS
 62
     5
 10
-334.94961992197523
 20
121.5743940767445
 30
0.0
 11
-334.87278114573769
 21
121.4343617828881
 31
0.0
  0
LINE
  8
DETAIL
  6
CONTINUOUS
 62
     5
 10
-334.87278114573769
 20
121.4343617828881
 30
0.0
 11
-334.79554524047632
 21
121.2945775564599
 31
0.0
  0
LINE
  8
DETAIL
  6
CONTINUOUS
 62
     5
 10
-334.79554524047632
 20
121.2945775564599
 30
0.0
 11
-334.71788513459052
 21
121.15499516243401
 31
0.0
  0
LINE
  8
DETAIL
  6
CONTINUOUS
 62
     5
 10
-334.71788513459052
 20
121.15499516243401
 30
0.0
 11
-334.63977375647869
 21
121.0155683657847
 31
0.0
  0
LINE
  8
DETAIL
  6
CONTINUOUS
 62
     5
 10
-334.63977375647869
 20
121.0155683657847
 30
0.0
 11
-334.56118403454047
 21
120.876250931486
 31
0.0
  0
LINE
  8
DETAIL
  6
CONTINUOUS
 62
     5
 10
-334.56118403454047
 20
120.876250931486
 30
0.0
 11
-334.48208889717489
 21
120.7369966245122
 31
0.0
  0
LINE
  8
DETAIL
  6
CONTINUOUS
 62
     5
 10
-334.48208889717489
 20
120.7369966245122
 30
0.0
 11
-334.40246127278078
 21
120.59775920983751
 31
0.0
  0
LINE
  8
DETAIL
  6
CONTINUOUS
 62
     5
 10
-335.47663522884932
 20
122.56205048849191
 30
0.0
 11
-335.40256277407821
 21
122.42024576575319
 31
0.0
  0
LINE
  8
DETAIL
  6
CONTINUOUS
 62
     5
 10
-335.40256277407821
 20
122.42024576575319
 30
0.0
 11
-335.32807167391093
 21
122.2786559803624
 31
0.0
  0
LINE
  8
DETAIL
  6
CONTINUOUS
 62
     5
 10
-335.32807167391093
 20
122.2786559803624
 30
0.0
 11
-335.2531700263429
 21
122.137294359837
 31
0.0
  0
LINE
  8
DETAIL
  6
CONTINUOUS
 62
     5
 10
-335.2531700263429
 20
122.137294359837
 30
0.0
 11
-335.17786592936977
 21
121.9961741316948
 31
0.0
  0
LINE
  8
DETAIL
  6
CONTINUOUS
 62
     5
 10
-335.17786592936977
 20
121.9961741316948
 30
0.0
 11
-335.10216748098708
 21
121.8553085234536
 31
0.0
  0
LINE
  8
DETAIL
  6
CONTINUOUS
 62
     5
 10
-335.10216748098708
 20
121.8553085234536
 30
0.0
 11
-335.02608277919052
 21
121.7147107626309
 31
0.0
  0
LINE
  8
DETAIL
  6
CONTINUOUS
 62
     5
 10
-335.02608277919052
 20
121.7147107626309
 30
0.0
 11
-334.94961992197523
 21
121.5743940767445
 31
0.0
  0
LINE
  8
DETAIL
  6
CONTINUOUS
 62
     5
 10
-335.98321001423261
 20
123.56034348240971
 30
0.0
 11
-335.91212083307067
 21
123.4171258350208
 31
0.0
  0
LINE
  8
DETAIL
  6
CONTINUOUS
 62
     5
 10
-335.91212083307067
 20
123.4171258350208
 30
0.0
 11
-335.84060563998798
 21
123.2741095434866
 31
0.0
  0
LINE
  8
DETAIL
  6
CONTINUOUS
 62
     5
 10
-335.84060563998798
 20
123.2741095434866
 30
0.0
 11
-335.7686643130728
 21
123.1312946668029
 31
0.0
  0
LINE
  8
DETAIL
  6
CONTINUOUS
 62
     5
 10
-335.7686643130728
 20
123.1312946668029
 30
0.0
 11
-335.69629673041311
 21
122.9886812639656
 31
0.0
  0
LINE
  8
DETAIL
  6
CONTINUOUS
 62
     5
 10
-335.69629673041311
 20
122.9886812639656
 30
0.0
 11
-335.62350277009728
 21
122.8462693939707
 31
0.0
  0
LINE
  8
DETAIL
  6
CONTINUOUS
 62
     5
 10
-335.62350277009728
 20
122.8462693939707
 30
0.0
 11
-335.55028231021322
 21
122.7040591158143
 31
0.0
  0
LINE
  8
DETAIL
  6
CONTINUOUS
 62
     5
 10
-335.55028231021322
 20
122.7040591158143
 30
0.0
 11
-335.47663522884932
 21
122.56205048849191
 31
0.0
  0
LINE
  8
DETAIL
  6
CONTINUOUS
 62
     5
 10
-336.4690470989508
 20
124.5688880958282
 30
0.0
 11
-336.40088811673741
 21
124.4241189203487
 31
0.0
  0
LINE
  8
DETAIL
  6
CONTINUOUS
 62
     5
 10
-336.40088811673741
 20
124.4241189203487
 30
0.0
 11
-336.33231771578738
 21
124.27959141849099
 31
0.0
  0
LINE
  8
DETAIL
  6
CONTINUOUS
 62
     5
 10
-336.33231771578738
 20
124.27959141849099
 30
0.0
 11
-336.26333348422202
 21
124.13529886079441
 31
0.0
  0
LINE
  8
DETAIL
  6
CONTINUOUS
 62
     5
 10
-336.26333348422202
 20
124.13529886079441
 30
0.0
 11
-336.19393301016248
 21
123.9912345177985
 31
0.0
  0
LINE
  8
DETAIL
  6
CONTINUOUS
 62
     5
 10
-336.19393301016248
 20
123.9912345177985
 30
0.0
 11
-336.12411388173018
 21
123.8473916600427
 31
0.0
  0
LINE
  8
DETAIL
  6
CONTINUOUS
 62
     5
 10
-336.12411388173018
 20
123.8473916600427
 30
0.0
 11
-336.05387368704652
 21
123.7037635580666
 31
0.0
  0
LINE
  8
DETAIL
  6
CONTINUOUS
 62
     5
 10
-336.05387368704652
 20
123.7037635580666
 30
0.0
 11
-335.98321001423261
 21
123.56034348240971
 31
0.0
  0
LINE
  8
DETAIL
  6
CONTINUOUS
 62
     5
 10
-339.70711968304892
 20
133.4321086889843
 30
0.0
 11
-339.67304246074809
 21
133.30546376164881
 31
0.0
  0
LINE
  8
DETAIL
  6
CONTINUOUS
 62
     5
 10
-339.67304246074809
 20
133.30546376164881
 30
0.0
 11
-339.63868281883629
 21
133.1789393861981
 31
0.0
  0
LINE
  8
DETAIL
  6
CONTINUOUS
 62
     5
 10
-339.63868281883629
 20
133.1789393861981
 30
0.0
 11
-339.60400854085037
 21
133.05245314195031
 31
0.0
  0
LINE
  8
DETAIL
  6
CONTINUOUS
 62
     5
 10
-339.60400854085037
 20
133.05245314195031
 30
0.0
 11
-339.56898741032751
 21
132.92592260822329
 31
0.0
  0
LINE
  8
DETAIL
  6
CONTINUOUS
 62
     5
 10
-339.56898741032751
 20
132.92592260822329
 30
0.0
 11
-339.53358721080491
 21
132.79926536433479
 31
0.0
  0
LINE
  8
DETAIL
  6
CONTINUOUS
 62
     5
 10
-339.53358721080491
 20
132.79926536433479
 30
0.0
 11
-339.49777572581962
 21
132.6723989896027
 31
0.0
  0
LINE
  8
DETAIL
  6
CONTINUOUS
 62
     5
 10
-339.49777572581962
 20
132.6723989896027
 30
0.0
 11
-339.4615207389088
 21
132.54524106334469
 31
0.0
  0
LINE
  8
DETAIL
  6
CONTINUOUS
 62
     5
 10
-338.92437419342218
 20
130.7849526655796
 30
0.0
 11
-338.87824157564461
 21
130.64381002085801
 31
0.0
  0
LINE
  8
DETAIL
  6
CONTINUOUS
 62
     5
 10
-338.87824157564461
 20
130.64381002085801
 30
0.0
 11
-338.82998796504518
 21
130.49747163748589
 31
0.0
  0
LINE
  8
DETAIL
  6
CONTINUOUS
 62
     5
 10
-338.82998796504518
 20
130.49747163748589
 30
0.0
 11
-338.77998288797482
 21
130.34712078727631
 31
0.0
  0
LINE
  8
DETAIL
  6
CONTINUOUS
 62
     5
 10
-338.77998288797482
 20
130.34712078727631
 30
0.0
 11
-338.72859587078312
 21
130.19394074204251
 31
0.0
  0
LINE
  8
DETAIL
  6
CONTINUOUS
 62
     5
 10
-338.72859587078312
 20
130.19394074204251
 30
0.0
 11
-338.67619643982061
 21
130.03911477359779
 31
0.0
  0
LINE
  8
DETAIL
  6
CONTINUOUS
 62
     5
 10
-338.67619643982061
 20
130.03911477359779
 30
0.0
 11
-338.62315412143778
 21
129.88382615375551
 31
0.0
  0
LINE
  8
DETAIL
  6
CONTINUOUS
 62
     5
 10
-338.62315412143778
 20
129.88382615375551
 30
0.0
 11
-338.56983844198447
 21
129.72925815432879
 31
0.0
  0
LINE
  8
DETAIL
  6
CONTINUOUS
 62
     5
 10
-339.20057875764633
 20
131.6627669289326
 30
0.0
 11
-339.16345778652283
 21
131.54125495581721
 31
0.0
  0
LINE
  8
DETAIL
  6
CONTINUOUS
 62
     5
 10
-339.16345778652283
 20
131.54125495581721
 30
0.0
 11
-339.12621617334281
 21
131.4204010338772
 31
0.0
  0
LINE
  8
DETAIL
  6
CONTINUOUS
 62
     5
 10
-339.12621617334281
 20
131.4204010338772
 30
0.0
 11
-339.088458938587
 21
131.2990323195061
 31
0.0
  0
LINE
  8
DETAIL
  6
CONTINUOUS
 62
     5
 10
-339.088458938587
 20
131.2990323195061
 30
0.0
 11
-339.04979110273621
 21
131.17597596909741
 31
0.0
  0
LINE
  8
DETAIL
  6
CONTINUOUS
 62
     5
 10
-339.04979110273621
 20
131.17597596909741
 30
0.0
 11
-339.00981768627128
 21
131.05005913904441
 31
0.0
  0
LINE
  8
DETAIL
  6
CONTINUOUS
 62
     5
 10
-339.00981768627128
 20
131.05005913904441
 30
0.0
 11
-338.96814370967292
 21
130.9201089857406
 31
0.0
  0
LINE
  8
DETAIL
  6
CONTINUOUS
 62
     5
 10
-338.96814370967292
 20
130.9201089857406
 30
0.0
 11
-338.92437419342218
 21
130.7849526655796
 31
0.0
  0
LINE
  8
DETAIL
  6
CONTINUOUS
 62
     5
 10
-339.4615207389088
 20
132.54524106334469
 30
0.0
 11
-339.42481326149232
 21
132.41777539849241
 31
0.0
  0
LINE
  8
DETAIL
  6
CONTINUOUS
 62
     5
 10
-339.42481326149232
 20
132.41777539849241
 30
0.0
 11
-339.38773721652359
 21
132.2902507424308
 31
0.0
  0
LINE
  8
DETAIL
  6
CONTINUOUS
 62
     5
 10
-339.38773721652359
 20
132.2902507424308
 30
0.0
 11
-339.35039975483801
 21
132.16298207615841
 31
0.0
  0
LINE
  8
DETAIL
  6
CONTINUOUS
 62
     5
 10
-339.35039975483801
 20
132.16298207615841
 30
0.0
 11
-339.31290802727182
 21
132.03628438067381
 31
0.0
  0
LINE
  8
DETAIL
  6
CONTINUOUS
 62
     5
 10
-339.31290802727182
 20
132.03628438067381
 30
0.0
 11
-339.27536918466018
 21
131.9104726369757
 31
0.0
  0
LINE
  8
DETAIL
  6
CONTINUOUS
 62
     5
 10
-339.27536918466018
 20
131.9104726369757
 30
0.0
 11
-339.23789037784002
 21
131.78586182606239
 31
0.0
  0
LINE
  8
DETAIL
  6
CONTINUOUS
 62
     5
 10
-339.23789037784002
 20
131.78586182606239
 30
0.0
 11
-339.20057875764633
 21
131.6627669289326
 31
0.0
  0
LINE
  8
DETAIL
  6
CONTINUOUS
 62
     5
 10
-337.37507386158859
 20
126.6097987538496
 30
0.0
 11
-337.31341439075243
 21
126.46334237714861
 31
0.0
  0
LINE
  8
DETAIL
  6
CONTINUOUS
 62
     5
 10
-337.31341439075243
 20
126.46334237714861
 30
0.0
 11
-337.25131901665452
 21
126.3170586119228
 31
0.0
  0
LINE
  8
DETAIL
  6
CONTINUOUS
 62
     5
 10
-337.25131901665452
 20
126.3170586119228
 30
0.0
 11
-337.18877475948312
 21
126.170920898405
 31
0.0
  0
LINE
  8
DETAIL
  6
CONTINUOUS
 62
     5
 10
-337.18877475948312
 20
126.170920898405
 30
0.0
 11
-337.12576863942672
 21
126.0249026768287
 31
0.0
  0
LINE
  8
DETAIL
  6
CONTINUOUS
 62
     5
 10
-337.12576863942672
 20
126.0249026768287
 30
0.0
 11
-337.06228767667432
 21
125.8789773874266
 31
0.0
  0
LINE
  8
DETAIL
  6
CONTINUOUS
 62
     5
 10
-337.06228767667432
 20
125.8789773874266
 30
0.0
 11
-336.99831889141387
 21
125.733118470432
 31
0.0
  0
LINE
  8
DETAIL
  6
CONTINUOUS
 62
     5
 10
-336.99831889141387
 20
125.733118470432
 30
0.0
 11
-336.93384930383399
 21
125.587299366078
 31
0.0
  0
LINE
  8
DETAIL
  6
CONTINUOUS
 62
     5
 10
-337.79496345274612
 20
127.6412474880749
 30
0.0
 11
-337.73621836601598
 21
127.4931390865524
 31
0.0
  0
LINE
  8
DETAIL
  6
CONTINUOUS
 62
     5
 10
-337.73621836601598
 20
127.4931390865524
 30
0.0
 11
-337.67706403111549
 21
127.34530419563571
 31
0.0
  0
LINE
  8
DETAIL
  6
CONTINUOUS
 62
     5
 10
-337.67706403111549
 20
127.34530419563571
 30
0.0
 11
-337.61749816883088
 21
127.19773042543081
 31
0.0
  0
LINE
  8
DETAIL
  6
CONTINUOUS
 62
     5
 10
-337.61749816883088
 20
127.19773042543081
 30
0.0
 11
-337.55751849994931
 21
127.05040538604359
 31
0.0
  0
LINE
  8
DETAIL
  6
CONTINUOUS
 62
     5
 10
-337.55751849994931
 20
127.05040538604359
 30
0.0
 11
-337.49712274525717
 21
126.9033166875804
 31
0.0
  0
LINE
  8
DETAIL
  6
CONTINUOUS
 62
     5
 10
-337.49712274525717
 20
126.9033166875804
 30
0.0
 11
-337.43630862554141
 21
126.756451940147
 31
0.0
  0
LINE
  8
DETAIL
  6
CONTINUOUS
 62
     5
 10
-337.43630862554141
 20
126.756451940147
 30
0.0
 11
-337.37507386158859
 21
126.6097987538496
 31
0.0
  0
LINE
  8
DETAIL
  6
CONTINUOUS
 62
     5
 10
-338.1932932539853
 20
128.68121185836421
 30
0.0
 11
-338.13794828618109
 21
128.53287599772659
 31
0.0
  0
LINE
  8
DETAIL
  6
CONTINUOUS
 62
     5
 10
-338.13794828618109
 20
128.53287599772659
 30
0.0
 11
-338.08204017281469
 21
128.38432380090831
 31
0.0
  0
LINE
  8
DETAIL
  6
CONTINUOUS
 62
     5
 10
-338.08204017281469
 20
128.38432380090831
 30
0.0
 11
-338.02559494332041
 21
128.23563897402249
 31
0.0
  0
LINE
  8
DETAIL
  6
CONTINUOUS
 62
     5
 10
-338.02559494332041
 20
128.23563897402249
 30
0.0
 11
-337.96863862713212
 21
128.08690522318309
 31
0.0
  0
LINE
  8
DETAIL
  6
CONTINUOUS
 62
     5
 10
-337.96863862713212
 20
128.08690522318309
 30
0.0
 11
-337.91119725368418
 21
127.9382062545029
 31
0.0
  0
LINE
  8
DETAIL
  6
CONTINUOUS
 62
     5
 10
-337.91119725368418
 20
127.9382062545029
 30
0.0
 11
-337.85329685241089
 21
127.7896257740957
 31
0.0
  0
LINE
  8
DETAIL
  6
CONTINUOUS
 62
     5
 10
-337.85329685241089
 20
127.7896257740957
 30
0.0
 11
-337.79496345274612
 21
127.6412474880749
 31
0.0
  0
LINE
  8
DETAIL
  6
CONTINUOUS
 62
     5
 10
-338.56983844198447
 20
129.72925815432879
 30
0.0
 11
-338.51654102246039
 21
129.5763443605307
 31
0.0
  0
LINE
  8
DETAIL
  6
CONTINUOUS
 62
     5
 10
-338.51654102246039
 20
129.5763443605307
 30
0.0
 11
-338.46324186246261
 21
129.4250196111725
 31
0.0
  0
LINE
  8
DETAIL
  6
CONTINUOUS
 62
     5
 10
-338.46324186246261
 20
129.4250196111725
 30
0.0
 11
-338.40984305623721
 21
129.27496905846519
 31
0.0
  0
LINE
  8
DETAIL
  6
CONTINUOUS
 62
     5
 10
-338.40984305623721
 20
129.27496905846519
 30
0.0
 11
-338.35624669803042
 21
129.12587785461969
 31
0.0
  0
LINE
  8
DETAIL
  6
CONTINUOUS
 62
     5
 10
-338.35624669803042
 20
129.12587785461969
 30
0.0
 11
-338.30235488208859
 21
128.9774311518471
 31
0.0
  0
LINE
  8
DETAIL
  6
CONTINUOUS
 62
     5
 10
-338.30235488208859
 20
128.9774311518471
 30
0.0
 11
-338.2480697026582
 21
128.82931410235821
 31
0.0
  0
LINE
  8
DETAIL
  6
CONTINUOUS
 62
     5
 10
-338.2480697026582
 20
128.82931410235821
 30
0.0
 11
-338.1932932539853
 21
128.68121185836421
 31
0.0
  0
LINE
  8
DETAIL
  6
CONTINUOUS
 62
     5
 10
-339.93729513590642
 20
134.32310342601801
 30
0.0
 11
-339.90546412870208
 21
134.19546124454541
 31
0.0
  0
LINE
  8
DETAIL
  6
CONTINUOUS
 62
     5
 10
-339.90546412870208
 20
134.19546124454541
 30
0.0
 11
-339.87324418408679
 21
134.06790586702661
 31
0.0
  0
LINE
  8
DETAIL
  6
CONTINUOUS
 62
     5
 10
-339.87324418408679
 20
134.06790586702661
 30
0.0
 11
-339.84065842443817
 21
133.94045665489719
 31
0.0
  0
LINE
  8
DETAIL
  6
CONTINUOUS
 62
     5
 10
-339.84065842443817
 20
133.94045665489719
 30
0.0
 11
-339.80772997213307
 21
133.81313296959249
 31
0.0
  0
LINE
  8
DETAIL
  6
CONTINUOUS
 62
     5
 10
-339.80772997213307
 20
133.81313296959249
 30
0.0
 11
-339.77448194954832
 21
133.68595417254861
 31
0.0
  0
LINE
  8
DETAIL
  6
CONTINUOUS
 62
     5
 10
-339.77448194954832
 20
133.68595417254861
 30
0.0
 11
-339.74093747906142
 21
133.55893962520051
 31
0.0
  0
LINE
  8
DETAIL
  6
CONTINUOUS
 62
     5
 10
-339.74093747906142
 20
133.55893962520051
 30
0.0
 11
-339.70711968304892
 21
133.4321086889843
 31
0.0
  0
LINE
  8
DETAIL
  6
CONTINUOUS
 62
     5
 10
-340.15196664332137
 20
135.21795889461421
 30
0.0
 11
-340.12177021059091
 21
135.09004532193671
 31
0.0
  0
LINE
  8
DETAIL
  6
CONTINUOUS
 62
     5
 10
-340.12177021059091
 20
135.09004532193671
 30
0.0
 11
-340.09151491217648
 21
134.96214138390459
 31
0.0
  0
LINE
  8
DETAIL
  6
CONTINUOUS
 62
     5
 10
-340.09151491217648
 20
134.96214138390459
 30
0.0
 11
-340.06114188239428
 21
134.83425671516349
 31
0.0
  0
LINE
  8
DETAIL
  6
CONTINUOUS
 62
     5
 10
-340.06114188239428
 20
134.83425671516349
 30
0.0
 11
-340.0305922555599
 21
134.70640095035881
 31
0.0
  0
LINE
  8
DETAIL
  6
CONTINUOUS
 62
     5
 10
-340.0305922555599
 20
134.70640095035881
 30
0.0
 11
-339.99980716598981
 21
134.578583724136
 31
0.0
  0
LINE
  8
DETAIL
  6
CONTINUOUS
 62
     5
 10
-339.99980716598981
 20
134.578583724136
 30
0.0
 11
-339.96872774799999
 21
134.45081467114059
 31
0.0
  0
LINE
  8
DETAIL
  6
CONTINUOUS
 62
     5
 10
-339.96872774799999
 20
134.45081467114059
 30
0.0
 11
-339.93729513590642
 21
134.32310342601801
 31
0.0
  0
LINE
  8
DETAIL
  6
CONTINUOUS
 62
     5
 10
-340.57669240109539
 20
137.23781299578849
 30
0.0
 11
-340.54652810347773
 21
137.0819699962359
 31
0.0
  0
LINE
  8
DETAIL
  6
CONTINUOUS
 62
     5
 10
-340.54652810347773
 20
137.0819699962359
 30
0.0
 11
-340.51585627941949
 21
136.92622629695299
 31
0.0
  0
LINE
  8
DETAIL
  6
CONTINUOUS
 62
     5
 10
-340.51585627941949
 20
136.92622629695299
 30
0.0
 11
-340.48476151666068
 21
136.7705653478954
 31
0.0
  0
LINE
  8
DETAIL
  6
CONTINUOUS
 62
     5
 10
-340.48476151666068
 20
136.7705653478954
 30
0.0
 11
-340.45332840294122
 21
136.6149705990174
 31
0.0
  0
LINE
  8
DETAIL
  6
CONTINUOUS
 62
     5
 10
-340.45332840294122
 20
136.6149705990174
 30
0.0
 11
-340.42164152600151
 21
136.45942550027459
 31
0.0
  0
LINE
  8
DETAIL
  6
CONTINUOUS
 62
     5
 10
-340.42164152600151
 20
136.45942550027459
 30
0.0
 11
-340.3897854735817
 21
136.30391350162179
 31
0.0
  0
LINE
  8
DETAIL
  6
CONTINUOUS
 62
     5
 10
-340.3897854735817
 20
136.30391350162179
 30
0.0
 11
-340.3578448334215
 21
136.14841805301381
 31
0.0
  0
LINE
  8
DETAIL
  6
CONTINUOUS
 62
     5
 10
-340.77264458034921
 20
138.3315597209814
 30
0.0
 11
-340.74613608279662
 21
138.1750487726313
 31
0.0
  0
LINE
  8
DETAIL
  6
CONTINUOUS
 62
     5
 10
-340.74613608279662
 20
138.1750487726313
 30
0.0
 11
-340.71917008873862
 21
138.01861392008911
 31
0.0
  0
LINE
  8
DETAIL
  6
CONTINUOUS
 62
     5
 10
-340.71917008873862
 20
138.01861392008911
 30
0.0
 11
-340.69172416189622
 21
137.8622617891061
 31
0.0
  0
LINE
  8
DETAIL
  6
CONTINUOUS
 62
     5
 10
-340.69172416189622
 20
137.8622617891061
 30
0.0
 11
-340.66377586598992
 21
137.70599900543331
 31
0.0
  0
LINE
  8
DETAIL
  6
CONTINUOUS
 62
     5
 10
-340.66377586598992
 20
137.70599900543331
 30
0.0
 11
-340.63530276474052
 21
137.5498321948221
 31
0.0
  0
LINE
  8
DETAIL
  6
CONTINUOUS
 62
     5
 10
-340.63530276474052
 20
137.5498321948221
 30
0.0
 11
-340.60628242186863
 21
137.39376798302351
 31
0.0
  0
LINE
  8
DETAIL
  6
CONTINUOUS
 62
     5
 10
-340.60628242186863
 20
137.39376798302351
 30
0.0
 11
-340.57669240109539
 21
137.23781299578849
 31
0.0
  0
LINE
  8
DETAIL
  6
CONTINUOUS
 62
     5
 10
-340.94564926374869
 20
139.4291716905536
 30
0.0
 11
-340.92231838505973
 21
139.27214282327219
 31
0.0
  0
LINE
  8
DETAIL
  6
CONTINUOUS
 62
     5
 10
-340.92231838505973
 20
139.27214282327219
 30
0.0
 11
-340.89851603288088
 21
139.11519207858871
 31
0.0
  0
LINE
  8
DETAIL
  6
CONTINUOUS
 62
     5
 10
-340.89851603288088
 20
139.11519207858871
 30
0.0
 11
-340.87424827609021
 21
138.9583180144127
 31
0.0
  0
LINE
  8
DETAIL
  6
CONTINUOUS
 62
     5
 10
-340.87424827609021
 20
138.9583180144127
 30
0.0
 11
-340.84952118356432
 21
138.80151918865411
 31
0.0
  0
LINE
  8
DETAIL
  6
CONTINUOUS
 62
     5
 10
-340.84952118356432
 20
138.80151918865411
 30
0.0
 11
-340.82434082418058
 21
138.64479415922281
 31
0.0
  0
LINE
  8
DETAIL
  6
CONTINUOUS
 62
     5
 10
-340.82434082418058
 20
138.64479415922281
 30
0.0
 11
-340.79871326681649
 21
138.4881414840286
 31
0.0
  0
LINE
  8
DETAIL
  6
CONTINUOUS
 62
     5
 10
-340.79871326681649
 20
138.4881414840286
 30
0.0
 11
-340.77264458034921
 21
138.3315597209814
 31
0.0
  0
LINE
  8
DETAIL
  6
CONTINUOUS
 62
     5
 10
-341.09565434385951
 20
140.53016236646681
 30
0.0
 11
-341.07564561331827
 21
140.37273878535609
 31
0.0
  0
LINE
  8
DETAIL
  6
CONTINUOUS
 62
     5
 10
-341.07564561331827
 20
140.37273878535609
 30
0.0
 11
-341.05516490678701
 21
140.21534884805951
 31
0.0
  0
LINE
  8
DETAIL
  6
CONTINUOUS
 62
     5
 10
-341.05516490678701
 20
140.21534884805951
 30
0.0
 11
-341.03421129653623
 21
140.0580002080562
 31
0.0
  0
LINE
  8
DETAIL
  6
CONTINUOUS
 62
     5
 10
-341.03421129653623
 20
140.0580002080562
 30
0.0
 11
-341.01278385483653
 21
139.900700518825
 31
0.0
  0
LINE
  8
DETAIL
  6
CONTINUOUS
 62
     5
 10
-341.01278385483653
 20
139.900700518825
 30
0.0
 11
-340.99088165395813
 21
139.74345743384481
 31
0.0
  0
LINE
  8
DETAIL
  6
CONTINUOUS
 62
     5
 10
-340.99088165395813
 20
139.74345743384481
 30
0.0
 11
-340.96850376617198
 21
139.58627860659479
 31
0.0
  0
LINE
  8
DETAIL
  6
CONTINUOUS
 62
     5
 10
-340.96850376617198
 20
139.58627860659479
 30
0.0
 11
-340.94564926374869
 21
139.4291716905536
 31
0.0
  0
LINE
  8
DETAIL
  6
CONTINUOUS
 62
     5
 10
-341.22260771324858
 20
141.63404521068171
 30
0.0
 11
-341.20586585843421
 21
141.4760010980722
 31
0.0
  0
LINE
  8
DETAIL
  6
CONTINUOUS
 62
     5
 10
-341.20586585843421
 20
141.4760010980722
 30
0.0
 11
-341.1886616341144
 21
141.31810694153481
 31
0.0
  0
LINE
  8
DETAIL
  6
CONTINUOUS
 62
     5
 10
-341.1886616341144
 20
141.31810694153481
 30
0.0
 11
-341.17099359382968
 21
141.16034208011371
 31
0.0
  0
LINE
  8
DETAIL
  6
CONTINUOUS
 62
     5
 10
-341.17099359382968
 20
141.16034208011371
 30
0.0
 11
-341.15286029112099
 21
141.00268585285241
 31
0.0
  0
LINE
  8
DETAIL
  6
CONTINUOUS
 62
     5
 10
-341.15286029112099
 20
141.00268585285241
 30
0.0
 11
-341.13426027952909
 21
140.8451175987951
 31
0.0
  0
LINE
  8
DETAIL
  6
CONTINUOUS
 62
     5
 10
-341.13426027952909
 20
140.8451175987951
 30
0.0
 11
-341.11519211259508
 21
140.68761665698531
 31
0.0
  0
LINE
  8
DETAIL
  6
CONTINUOUS
 62
     5
 10
-341.11519211259508
 20
140.68761665698531
 30
0.0
 11
-341.09565434385951
 21
140.53016236646681
 31
0.0
  0
LINE
  8
DETAIL
  6
CONTINUOUS
 62
     5
 10
-341.3267593232124
 20
142.74377977369821
 30
0.0
 11
-341.31329372705159
 21
142.5850362707904
 31
0.0
  0
LINE
  8
DETAIL
  6
CONTINUOUS
 62
     5
 10
-341.31329372705159
 20
142.5850362707904
 30
0.0
 11
-341.29935316040269
 21
142.4263240662126
 31
0.0
  0
LINE
  8
DETAIL
  6
CONTINUOUS
 62
     5
 10
-341.29935316040269
 20
142.4263240662126
 30
0.0
 11
-341.28493996450629
 21
142.26766637974791
 31
0.0
  0
LINE
  8
DETAIL
  6
CONTINUOUS
 62
     5
 10
-341.28493996450629
 20
142.26766637974791
 30
0.0
 11
-341.27005648060231
 21
142.10908643117929
 31
0.0
  0
LINE
  8
DETAIL
  6
CONTINUOUS
 62
     5
 10
-341.27005648060231
 20
142.10908643117929
 30
0.0
 11
-341.2547050499312
 21
141.9506074402901
 31
0.0
  0
LINE
  8
DETAIL
  6
CONTINUOUS
 62
     5
 10
-341.2547050499312
 20
141.9506074402901
 30
0.0
 11
-341.23888801373317
 21
141.7922526268633
 31
0.0
  0
LINE
  8
DETAIL
  6
CONTINUOUS
 62
     5
 10
-341.23888801373317
 20
141.7922526268633
 30
0.0
 11
-341.22260771324858
 21
141.63404521068171
 31
0.0
  0
LINE
  8
DETAIL
  6
CONTINUOUS
 62
     5
 10
-341.40770082605968
 20
143.85544828609611
 30
0.0
 11
-341.39755960929301
 21
143.69656634800629
 31
0.0
  0
LINE
  8
DETAIL
  6
CONTINUOUS
 62
     5
 10
-341.39755960929301
 20
143.69656634800629
 30
0.0
 11
-341.38694573315928
 21
143.537714603062
 31
0.0
  0
LINE
  8
DETAIL
  6
CONTINUOUS
 62
     5
 10
-341.38694573315928
 20
143.537714603062
 30
0.0
 11
-341.3758584222652
 21
143.3788893654968
 31
0.0
  0
LINE
  8
DETAIL
  6
CONTINUOUS
 62
     5
 10
-341.3758584222652
 20
143.3788893654968
 30
0.0
 11
-341.3642969012169
 21
143.22008694954411
 31
0.0
  0
LINE
  8
DETAIL
  6
CONTINUOUS
 62
     5
 10
-341.3642969012169
 20
143.22008694954411
 30
0.0
 11
-341.352260394621
 21
143.06130366943779
 31
0.0
  0
LINE
  8
DETAIL
  6
CONTINUOUS
 62
     5
 10
-341.352260394621
 20
143.06130366943779
 30
0.0
 11
-341.33974812708402
 21
142.90253583941131
 31
0.0
  0
LINE
  8
DETAIL
  6
CONTINUOUS
 62
     5
 10
-341.33974812708402
 20
142.90253583941131
 30
0.0
 11
-341.3267593232124
 21
142.74377977369821
 31
0.0
  0
LINE
  8
DETAIL
  6
CONTINUOUS
 62
     5
 10
-341.465469926884
 20
144.96856407395401
 30
0.0
 11
-341.45863416011912
 21
144.80944637097321
 31
0.0
  0
LINE
  8
DETAIL
  6
CONTINUOUS
 62
     5
 10
-341.45863416011912
 20
144.80944637097321
 30
0.0
 11
-341.45132590476362
 21
144.65036232773011
 31
0.0
  0
LINE
  8
DETAIL
  6
CONTINUOUS
 62
     5
 10
-341.45132590476362
 20
144.65036232773011
 30
0.0
 11
-341.44354526158691
 21
144.49131198075369
 31
0.0
  0
LINE
  8
DETAIL
  6
CONTINUOUS
 62
     5
 10
-341.44354526158691
 20
144.49131198075369
 30
0.0
 11
-341.43529233135882
 21
144.33229536657299
 31
0.0
  0
LINE
  8
DETAIL
  6
CONTINUOUS
 62
     5
 10
-341.43529233135882
 20
144.33229536657299
 30
0.0
 11
-341.42656721484832
 21
144.17331252171721
 31
0.0
  0
LINE
  8
DETAIL
  6
CONTINUOUS
 62
     5
 10
-341.42656721484832
 20
144.17331252171721
 30
0.0
 11
-341.41737001282559
 21
144.0143634827152
 31
0.0
  0
LINE
  8
DETAIL
  6
CONTINUOUS
 62
     5
 10
-341.41737001282559
 20
144.0143634827152
 30
0.0
 11
-341.40770082605968
 21
143.85544828609611
 31
0.0
  0
LINE
  8
DETAIL
  6
CONTINUOUS
 62
     5
 10
-341.50010433078069
 20
146.0826404633508
 30
0.0
 11
-341.49657059264092
 21
145.92354251146801
 31
0.0
  0
LINE
  8
DETAIL
  6
CONTINUOUS
 62
     5
 10
-341.49657059264092
 20
145.92354251146801
 30
0.0
 11
-341.49256598863383
 21
145.76440586541369
 31
0.0
  0
LINE
  8
DETAIL
  6
CONTINUOUS
 62
     5
 10
-341.49256598863383
 20
145.76440586541369
 30
0.0
 11
-341.48809023151102
 21
145.60524257808461
 31
0.0
  0
LINE
  8
DETAIL
  6
CONTINUOUS
 62
     5
 10
-341.48809023151102
 20
145.60524257808461
 30
0.0
 11
-341.48314303402339
 21
145.4460647023775
 31
0.0
  0
LINE
  8
DETAIL
  6
CONTINUOUS
 62
     5
 10
-341.48314303402339
 20
145.4460647023775
 30
0.0
 11
-341.4777241089223
 21
145.28688429118881
 31
0.0
  0
LINE
  8
DETAIL
  6
CONTINUOUS
 62
     5
 10
-341.4777241089223
 20
145.28688429118881
 30
0.0
 11
-341.47183316895888
 21
145.1277133974155
 31
0.0
  0
LINE
  8
DETAIL
  6
CONTINUOUS
 62
     5
 10
-341.47183316895888
 20
145.1277133974155
 30
0.0
 11
-341.465469926884
 21
144.96856407395401
 31
0.0
  0
LINE
  8
DETAIL
  6
CONTINUOUS
 62
     5
 10
-340.15196798958999
 20
135.21795900000009
 30
0.0
 11
-340.3578459895898
 21
136.1484209999999
 31
0.0
  0
LINE
  8
DETAIL
  6
CONTINUOUS
 62
     5
 10
-333.2380384891112
 20
176.65787582461601
 30
0.0
 11
-333.32369369207731
 21
176.51182701833639
 31
0.0
  0
LINE
  8
DETAIL
  6
CONTINUOUS
 62
     5
 10
-333.32369369207731
 20
176.51182701833639
 30
0.0
 11
-333.4089618393524
 21
176.36555663518811
 31
0.0
  0
LINE
  8
DETAIL
  6
CONTINUOUS
 62
     5
 10
-333.4089618393524
 20
176.36555663518811
 30
0.0
 11
-333.49385338097608
 21
176.21904304885521
 31
0.0
  0
LINE
  8
DETAIL
  6
CONTINUOUS
 62
     5
 10
-333.49385338097608
 20
176.21904304885521
 30
0.0
 11
-333.57837876698801
 21
176.07226463302081
 31
0.0
  0
LINE
  8
DETAIL
  6
CONTINUOUS
 62
     5
 10
-333.57837876698801
 20
176.07226463302081
 30
0.0
 11
-333.66254844742798
 21
175.9251997613693
 31
0.0
  0
LINE
  8
DETAIL
  6
CONTINUOUS
 62
     5
 10
-333.66254844742798
 20
175.9251997613693
 30
0.0
 11
-333.74637287233583
 21
175.77782680758401
 31
0.0
  0
LINE
  8
DETAIL
  6
CONTINUOUS
 62
     5
 10
-333.74637287233583
 20
175.77782680758401
 30
0.0
 11
-333.82986249175087
 21
175.63012414534859
 31
0.0
  0
LINE
  8
DETAIL
  6
CONTINUOUS
 62
     5
 10
-336.4677387486372
 20
170.39227914100229
 30
0.0
 11
-336.53571544325632
 21
170.2391779384736
 31
0.0
  0
LINE
  8
DETAIL
  6
CONTINUOUS
 62
     5
 10
-336.53571544325632
 20
170.2391779384736
 30
0.0
 11
-336.60329056881619
 21
170.0858514682304
 31
0.0
  0
LINE
  8
DETAIL
  6
CONTINUOUS
 62
     5
 10
-336.60329056881619
 20
170.0858514682304
 30
0.0
 11
-336.67042717224808
 21
169.9323884671411
 31
0.0
  0
LINE
  8
DETAIL
  6
CONTINUOUS
 62
     5
 10
-336.67042717224808
 20
169.9323884671411
 30
0.0
 11
-336.73708830048281
 21
169.77887767207449
 31
0.0
  0
LINE
  8
DETAIL
  6
CONTINUOUS
 62
     5
 10
-336.73708830048281
 20
169.77887767207449
 30
0.0
 11
-336.80323700045233
 21
169.62540781989921
 31
0.0
  0
LINE
  8
DETAIL
  6
CONTINUOUS
 62
     5
 10
-336.80323700045233
 20
169.62540781989921
 30
0.0
 11
-336.86883631908722
 21
169.4720676474839
 31
0.0
  0
LINE
  8
DETAIL
  6
CONTINUOUS
 62
     5
 10
-336.86883631908722
 20
169.4720676474839
 30
0.0
 11
-336.93384930331922
 21
169.31894589169701
 31
0.0
  0
LINE
  8
DETAIL
  6
CONTINUOUS
 62
     5
 10
-335.98120521603892
 20
171.45650439967309
 30
0.0
 11
-336.05190489294739
 21
171.30514010955849
 31
0.0
  0
LINE
  8
DETAIL
  6
CONTINUOUS
 62
     5
 10
-336.05190489294739
 20
171.30514010955849
 30
0.0
 11
-336.12219332068088
 21
171.15358833365491
 31
0.0
  0
LINE
  8
DETAIL
  6
CONTINUOUS
 62
     5
 10
-336.12219332068088
 20
171.15358833365491
 30
0.0
 11
-336.19207827143748
 21
171.0018279854967
 31
0.0
  0
LINE
  8
DETAIL
  6
CONTINUOUS
 62
     5
 10
-336.19207827143748
 20
171.0018279854967
 30
0.0
 11
-336.26156751741382
 21
170.8498379786179
 31
0.0
  0
LINE
  8
DETAIL
  6
CONTINUOUS
 62
     5
 10
-336.26156751741382
 20
170.8498379786179
 30
0.0
 11
-336.33066883080778
 21
170.6975972265532
 31
0.0
  0
LINE
  8
DETAIL
  6
CONTINUOUS
 62
     5
 10
-336.33066883080778
 20
170.6975972265532
 30
0.0
 11
-336.39938998381649
 21
170.54508464283651
 31
0.0
  0
LINE
  8
DETAIL
  6
CONTINUOUS
 62
     5
 10
-336.39938998381649
 20
170.54508464283651
 30
0.0
 11
-336.4677387486372
 21
170.39227914100229
 31
0.0
  0
LINE
  8
DETAIL
  6
CONTINUOUS
 62
     5
 10
-335.47458815784103
 20
172.51132164483619
 30
0.0
 11
-335.54821812980782
 21
172.36114380862659
 31
0.0
  0
LINE
  8
DETAIL
  6
CONTINUOUS
 62
     5
 10
-335.54821812980782
 20
172.36114380862659
 30
0.0
 11
-335.62142952237468
 21
172.21079442984711
 31
0.0
  0
LINE
  8
DETAIL
  6
CONTINUOUS
 62
     5
 10
-335.62142952237468
 20
172.21079442984711
 30
0.0
 11
-335.69422226187947
 21
172.06027436570551
 31
0.0
  0
LINE
  8
DETAIL
  6
CONTINUOUS
 62
     5
 10
-335.69422226187947
 20
172.06027436570551
 30
0.0
 11
-335.7665962746604
 21
171.90958447340941
 31
0.0
  0
LINE
  8
DETAIL
  6
CONTINUOUS
 62
     5
 10
-335.7665962746604
 20
171.90958447340941
 30
0.0
 11
-335.83855148705538
 21
171.75872561016681
 31
0.0
  0
LINE
  8
DETAIL
  6
CONTINUOUS
 62
     5
 10
-335.83855148705538
 20
171.75872561016681
 30
0.0
 11
-335.91008782540229
 21
171.60769863318549
 31
0.0
  0
LINE
  8
DETAIL
  6
CONTINUOUS
 62
     5
 10
-335.91008782540229
 20
171.60769863318549
 30
0.0
 11
-335.98120521603892
 21
171.45650439967309
 31
0.0
  0
LINE
  8
DETAIL
  6
CONTINUOUS
 62
     5
 10
-334.94822702635878
 20
173.55643085361859
 30
0.0
 11
-335.02450258954792
 21
173.4079445134372
 31
0.0
  0
LINE
  8
DETAIL
  6
CONTINUOUS
 62
     5
 10
-335.02450258954792
 20
173.4079445134372
 30
0.0
 11
-335.1004401399432
 21
173.2591483383892
 31
0.0
  0
LINE
  8
DETAIL
  6
CONTINUOUS
 62
     5
 10
-335.1004401399432
 20
173.2591483383892
 30
0.0
 11
-335.17602626205439
 21
173.11006523432289
 31
0.0
  0
LINE
  8
DETAIL
  6
CONTINUOUS
 62
     5
 10
-335.17602626205439
 20
173.11006523432289
 30
0.0
 11
-335.25124754039052
 21
172.96071810708631
 31
0.0
  0
LINE
  8
DETAIL
  6
CONTINUOUS
 62
     5
 10
-335.25124754039052
 20
172.96071810708631
 30
0.0
 11
-335.32609055946091
 21
172.81112986252751
 31
0.0
  0
LINE
  8
DETAIL
  6
CONTINUOUS
 62
     5
 10
-335.32609055946091
 20
172.81112986252751
 30
0.0
 11
-335.40054190377441
 21
172.66132340649469
 31
0.0
  0
LINE
  8
DETAIL
  6
CONTINUOUS
 62
     5
 10
-335.40054190377441
 20
172.66132340649469
 30
0.0
 11
-335.47458815784103
 21
172.51132164483619
 31
0.0
  0
LINE
  8
DETAIL
  6
CONTINUOUS
 62
     5
 10
-334.4024612739081
 20
174.5915320031468
 30
0.0
 11
-334.48202297176732
 21
174.44352461147261
 31
0.0
  0
LINE
  8
DETAIL
  6
CONTINUOUS
 62
     5
 10
-334.48202297176732
 20
174.44352461147261
 30
0.0
 11
-334.56097328622212
 21
174.29570787340469
 31
0.0
  0
LINE
  8
DETAIL
  6
CONTINUOUS
 62
     5
 10
-334.56097328622212
 20
174.29570787340469
 30
0.0
 11
-334.63936001495631
 21
174.14799455655611
 31
0.0
  0
LINE
  8
DETAIL
  6
CONTINUOUS
 62
     5
 10
-334.63936001495631
 20
174.14799455655611
 30
0.0
 11
-334.71723095565369
 21
174.00029742853999
 31
0.0
  0
LINE
  8
DETAIL
  6
CONTINUOUS
 62
     5
 10
-334.71723095565369
 20
174.00029742853999
 30
0.0
 11
-334.79463390599739
 21
173.8525292569694
 31
0.0
  0
LINE
  8
DETAIL
  6
CONTINUOUS
 62
     5
 10
-334.79463390599739
 20
173.8525292569694
 30
0.0
 11
-334.87161666367132
 21
173.70460280945801
 31
0.0
  0
LINE
  8
DETAIL
  6
CONTINUOUS
 62
     5
 10
-334.87161666367132
 20
173.70460280945801
 30
0.0
 11
-334.94822702635878
 21
173.55643085361859
 31
0.0
  0
LINE
  8
DETAIL
  6
CONTINUOUS
 62
     5
 10
-333.82986249175087
 20
175.63012414534859
 30
0.0
 11
-333.91301804200072
 21
175.48208873417971
 31
0.0
  0
LINE
  8
DETAIL
  6
CONTINUOUS
 62
     5
 10
-333.91301804200072
 20
175.48208873417971
 30
0.0
 11
-333.99580140456368
 21
175.33379187692441
 31
0.0
  0
LINE
  8
DETAIL
  6
CONTINUOUS
 62
     5
 10
-333.99580140456368
 20
175.33379187692441
 30
0.0
 11
-334.07816474720698
 21
175.1853234622624
 31
0.0
  0
LINE
  8
DETAIL
  6
CONTINUOUS
 62
     5
 10
-334.07816474720698
 20
175.1853234622624
 30
0.0
 11
-334.16006023769643
 21
175.0367733788737
 31
0.0
  0
LINE
  8
DETAIL
  6
CONTINUOUS
 62
     5
 10
-334.16006023769643
 20
175.0367733788737
 30
0.0
 11
-334.24144004379878
 21
174.88823151543841
 31
0.0
  0
LINE
  8
DETAIL
  6
CONTINUOUS
 62
     5
 10
-334.24144004379878
 20
174.88823151543841
 30
0.0
 11
-334.32225633328051
 21
174.73978776063609
 31
0.0
  0
LINE
  8
DETAIL
  6
CONTINUOUS
 62
     5
 10
-334.32225633328051
 20
174.73978776063609
 30
0.0
 11
-334.4024612739081
 21
174.5915320031468
 31
0.0
  0
LINE
  8
DETAIL
  6
CONTINUOUS
 62
     5
 10
-339.56336498132242
 20
161.70647367241369
 30
0.0
 11
-339.60571790596828
 21
161.5488773921393
 31
0.0
  0
LINE
  8
DETAIL
  6
CONTINUOUS
 62
     5
 10
-339.60571790596828
 20
161.5488773921393
 30
0.0
 11
-339.64761738905258
 21
161.3911863527637
 31
0.0
  0
LINE
  8
DETAIL
  6
CONTINUOUS
 62
     5
 10
-339.64761738905258
 20
161.3911863527637
 30
0.0
 11
-339.68906357418541
 21
161.23340103599151
 31
0.0
  0
LINE
  8
DETAIL
  6
CONTINUOUS
 62
     5
 10
-339.68906357418541
 20
161.23340103599151
 30
0.0
 11
-339.73005660497643
 21
161.0755219235273
 31
0.0
  0
LINE
  8
DETAIL
  6
CONTINUOUS
 62
     5
 10
-339.73005660497643
 20
161.0755219235273
 30
0.0
 11
-339.77059662503552
 21
160.9175494970755
 31
0.0
  0
LINE
  8
DETAIL
  6
CONTINUOUS
 62
     5
 10
-339.77059662503552
 20
160.9175494970755
 30
0.0
 11
-339.81068377797237
 21
160.75948423834049
 31
0.0
  0
LINE
  8
DETAIL
  6
CONTINUOUS
 62
     5
 10
-339.81068377797237
 20
160.75948423834049
 30
0.0
 11
-339.85031820739653
 21
160.6013266290274
 31
0.0
  0
LINE
  8
DETAIL
  6
CONTINUOUS
 62
     5
 10
-341.5
 20
148.3181889248863
 30
0.0
 11
-341.50308521201492
 21
148.15791517112419
 31
0.0
  0
LINE
  8
DETAIL
  6
CONTINUOUS
 62
     5
 10
-341.50308521201492
 20
148.15791517112419
 30
0.0
 11
-341.50569610563588
 21
147.99761449313439
 31
0.0
  0
LINE
  8
DETAIL
  6
CONTINUOUS
 62
     5
 10
-341.50569610563588
 20
147.99761449313439
 30
0.0
 11
-341.50783285072077
 21
147.8373292777909
 31
0.0
  0
LINE
  8
DETAIL
  6
CONTINUOUS
 62
     5
 10
-341.50783285072077
 20
147.8373292777909
 30
0.0
 11
-341.50949561712628
 21
147.67710191196809
 31
0.0
  0
LINE
  8
DETAIL
  6
CONTINUOUS
 62
     5
 10
-341.50949561712628
 20
147.67710191196809
 30
0.0
 11
-341.51068457471052
 21
147.5169747825399
 31
0.0
  0
LINE
  8
DETAIL
  6
CONTINUOUS
 62
     5
 10
-341.51068457471052
 20
147.5169747825399
 30
0.0
 11
-341.51139989333052
 21
147.3569902763808
 31
0.0
  0
LINE
  8
DETAIL
  6
CONTINUOUS
 62
     5
 10
-341.51139989333052
 20
147.3569902763808
 30
0.0
 11
-341.51164174284372
 21
147.19719078036471
 31
0.0
  0
LINE
  8
DETAIL
  6
CONTINUOUS
 62
     5
 10
-341.46515336141277
 20
149.43870427423741
 30
0.0
 11
-341.47154688580667
 21
149.2787270820194
 31
0.0
  0
LINE
  8
DETAIL
  6
CONTINUOUS
 62
     5
 10
-341.47154688580667
 20
149.2787270820194
 30
0.0
 11
-341.47746962883548
 21
149.11873204217079
 31
0.0
  0
LINE
  8
DETAIL
  6
CONTINUOUS
 62
     5
 10
-341.47746962883548
 20
149.11873204217079
 30
0.0
 11
-341.48292097268478
 21
148.9587105774464
 31
0.0
  0
LINE
  8
DETAIL
  6
CONTINUOUS
 62
     5
 10
-341.48292097268478
 20
148.9587105774464
 30
0.0
 11
-341.48790029954017
 21
148.79865411060101
 31
0.0
  0
LINE
  8
DETAIL
  6
CONTINUOUS
 62
     5
 10
-341.48790029954017
 20
148.79865411060101
 30
0.0
 11
-341.49240699158759
 21
148.6385540643893
 31
0.0
  0
LINE
  8
DETAIL
  6
CONTINUOUS
 62
     5
 10
-341.49240699158759
 20
148.6385540643893
 30
0.0
 11
-341.49644043101239
 21
148.4784018615662
 31
0.0
  0
LINE
  8
DETAIL
  6
CONTINUOUS
 62
     5
 10
-341.49644043101239
 20
148.4784018615662
 30
0.0
 11
-341.5
 21
148.3181889248863
 31
0.0
  0
LINE
  8
DETAIL
  6
CONTINUOUS
 62
     5
 10
-341.40722419133289
 20
150.5582669276769
 30
0.0
 11
-341.41691236963851
 21
150.39835906219511
 31
0.0
  0
LINE
  8
DETAIL
  6
CONTINUOUS
 62
     5
 10
-341.41691236963851
 20
150.39835906219511
 30
0.0
 11
-341.42612941888819
 21
150.23844107465919
 31
0.0
  0
LINE
  8
DETAIL
  6
CONTINUOUS
 62
     5
 10
-341.42612941888819
 20
150.23844107465919
 30
0.0
 11
-341.43487549999958
 21
150.07851310701429
 31
0.0
  0
LINE
  8
DETAIL
  6
CONTINUOUS
 62
     5
 10
-341.43487549999958
 20
150.07851310701429
 30
0.0
 11
-341.44315077389018
 21
149.91857530120481
 31
0.0
  0
LINE
  8
DETAIL
  6
CONTINUOUS
 62
     5
 10
-341.44315077389018
 20
149.91857530120481
 30
0.0
 11
-341.4509554014777
 21
149.75862779917571
 31
0.0
  0
LINE
  8
DETAIL
  6
CONTINUOUS
 62
     5
 10
-341.4509554014777
 20
149.75862779917571
 30
0.0
 11
-341.45828954367948
 21
149.5986707428716
 31
0.0
  0
LINE
  8
DETAIL
  6
CONTINUOUS
 62
     5
 10
-341.45828954367948
 20
149.5986707428716
 30
0.0
 11
-341.46515336141277
 21
149.43870427423741
 31
0.0
  0
LINE
  8
DETAIL
  6
CONTINUOUS
 62
     5
 10
-341.32633485401129
 20
151.67640698446479
 30
0.0
 11
-341.33927618115189
 21
151.51691446358839
 31
0.0
  0
LINE
  8
DETAIL
  6
CONTINUOUS
 62
     5
 10
-341.33927618115189
 20
151.51691446358839
 30
0.0
 11
-341.35175921634851
 21
151.3573143028882
 31
0.0
  0
LINE
  8
DETAIL
  6
CONTINUOUS
 62
     5
 10
-341.35175921634851
 20
151.3573143028882
 30
0.0
 11
-341.36378179326289
 21
151.19762273166859
 31
0.0
  0
LINE
  8
DETAIL
  6
CONTINUOUS
 62
     5
 10
-341.36378179326289
 20
151.19762273166859
 30
0.0
 11
-341.37534174555651
 21
151.0378559792334
 31
0.0
  0
LINE
  8
DETAIL
  6
CONTINUOUS
 62
     5
 10
-341.37534174555651
 20
151.0378559792334
 30
0.0
 11
-341.38643690689162
 21
150.87803027488701
 31
0.0
  0
LINE
  8
DETAIL
  6
CONTINUOUS
 62
     5
 10
-341.38643690689162
 20
150.87803027488701
 30
0.0
 11
-341.39706511092982
 21
150.71816184793349
 31
0.0
  0
LINE
  8
DETAIL
  6
CONTINUOUS
 62
     5
 10
-341.39706511092982
 20
150.71816184793349
 30
0.0
 11
-341.40722419133289
 21
150.5582669276769
 31
0.0
  0
LINE
  8
DETAIL
  6
CONTINUOUS
 62
     5
 10
-341.22260771369929
 20
152.79265454386041
 30
0.0
 11
-341.23887698480547
 21
152.63282330298401
 31
0.0
  0
LINE
  8
DETAIL
  6
CONTINUOUS
 62
     5
 10
-341.23887698480547
 20
152.63282330298401
 30
0.0
 11
-341.25465194658892
 21
152.47320922891959
 31
0.0
  0
LINE
  8
DETAIL
  6
CONTINUOUS
 62
     5
 10
-341.25465194658892
 20
152.47320922891959
 30
0.0
 11
-341.26993896300201
 21
152.31375548234431
 31
0.0
  0
LINE
  8
DETAIL
  6
CONTINUOUS
 62
     5
 10
-341.26993896300201
 20
152.31375548234431
 30
0.0
 11
-341.28474439799811
 21
152.15440522393439
 31
0.0
  0
LINE
  8
DETAIL
  6
CONTINUOUS
 62
     5
 10
-341.28474439799811
 20
152.15440522393439
 30
0.0
 11
-341.29907461552972
 21
151.9951016143668
 31
0.0
  0
LINE
  8
DETAIL
  6
CONTINUOUS
 62
     5
 10
-341.29907461552972
 20
151.9951016143668
 30
0.0
 11
-341.31293597954982
 21
151.83578781431811
 31
0.0
  0
LINE
  8
DETAIL
  6
CONTINUOUS
 62
     5
 10
-341.31293597954982
 20
151.83578781431811
 30
0.0
 11
-341.32633485401129
 21
151.67640698446479
 31
0.0
  0
LINE
  8
DETAIL
  6
CONTINUOUS
 62
     5
 10
-341.0950458317634
 20
153.91567675495619
 30
0.0
 11
-341.11469492350722
 21
153.75519670077981
 31
0.0
  0
LINE
  8
DETAIL
  6
CONTINUOUS
 62
     5
 10
-341.11469492350722
 20
153.75519670077981
 30
0.0
 11
-341.13387844385579
 21
153.59463355642859
 31
0.0
  0
LINE
  8
DETAIL
  6
CONTINUOUS
 62
     5
 10
-341.13387844385579
 20
153.59463355642859
 30
0.0
 11
-341.15259054249549
 21
153.4340468379543
 31
0.0
  0
LINE
  8
DETAIL
  6
CONTINUOUS
 62
     5
 10
-341.15259054249549
 20
153.4340468379543
 30
0.0
 11
-341.17082536911312
 21
153.27349606140839
 31
0.0
  0
LINE
  8
DETAIL
  6
CONTINUOUS
 62
     5
 10
-341.17082536911312
 20
153.27349606140839
 30
0.0
 11
-341.18857707339521
 21
153.1130407428432
 31
0.0
  0
LINE
  8
DETAIL
  6
CONTINUOUS
 62
     5
 10
-341.18857707339521
 20
153.1130407428432
 30
0.0
 11
-341.20583980502852
 21
152.95274039830969
 31
0.0
  0
LINE
  8
DETAIL
  6
CONTINUOUS
 62
     5
 10
-341.20583980502852
 20
152.95274039830969
 30
0.0
 11
-341.22260771369929
 21
152.79265454386041
 31
0.0
  0
LINE
  8
DETAIL
  6
CONTINUOUS
 62
     5
 10
-340.94459137960303
 20
155.03585875860239
 30
0.0
 11
-340.96747126620357
 21
154.87609112270209
 31
0.0
  0
LINE
  8
DETAIL
  6
CONTINUOUS
 62
     5
 10
-340.96747126620357
 20
154.87609112270209
 30
0.0
 11
-340.98988809471189
 21
154.71625909014099
 31
0.0
  0
LINE
  8
DETAIL
  6
CONTINUOUS
 62
     5
 10
-340.98988809471189
 20
154.71625909014099
 30
0.0
 11
-341.01184242129642
 21
154.55634962599149
 31
0.0
  0
LINE
  8
DETAIL
  6
CONTINUOUS
 62
     5
 10
-341.01184242129642
 20
154.55634962599149
 30
0.0
 11
-341.0333348021253
 21
154.39634969532591
 31
0.0
  0
LINE
  8
DETAIL
  6
CONTINUOUS
 62
     5
 10
-341.0333348021253
 20
154.39634969532591
 30
0.0
 11
-341.0543657933672
 21
154.2362462632166
 31
0.0
  0
LINE
  8
DETAIL
  6
CONTINUOUS
 62
     5
 10
-341.0543657933672
 20
154.2362462632166
 30
0.0
 11
-341.07493595119053
 21
154.0760262947359
 31
0.0
  0
LINE
  8
DETAIL
  6
CONTINUOUS
 62
     5
 10
-341.07493595119053
 20
154.0760262947359
 30
0.0
 11
-341.0950458317634
 21
153.91567675495619
 31
0.0
  0
LINE
  8
DETAIL
  6
CONTINUOUS
 62
     5
 10
-340.77144158037208
 20
156.15276167824081
 30
0.0
 11
-340.79757039249682
 21
155.99336211388939
 31
0.0
  0
LINE
  8
DETAIL
  6
CONTINUOUS
 62
     5
 10
-340.79757039249682
 20
155.99336211388939
 30
0.0
 11
-340.82323453632767
 21
155.8339093830059
 31
0.0
  0
LINE
  8
DETAIL
  6
CONTINUOUS
 62
     5
 10
-340.82323453632767
 20
155.8339093830059
 30
0.0
 11
-340.84843418753712
 21
155.67440378639029
 31
0.0
  0
LINE
  8
DETAIL
  6
CONTINUOUS
 62
     5
 10
-340.84843418753712
 20
155.67440378639029
 30
0.0
 11
-340.87316952179719
 21
155.5148456248422
 31
0.0
  0
LINE
  8
DETAIL
  6
CONTINUOUS
 62
     5
 10
-340.87316952179719
 20
155.5148456248422
 30
0.0
 11
-340.89744071477998
 21
155.3552351991618
 31
0.0
  0
LINE
  8
DETAIL
  6
CONTINUOUS
 62
     5
 10
-340.89744071477998
 20
155.3552351991618
 30
0.0
 11
-340.92124794215778
 21
155.1955728101486
 31
0.0
  0
LINE
  8
DETAIL
  6
CONTINUOUS
 62
     5
 10
-340.92124794215778
 20
155.1955728101486
 30
0.0
 11
-340.94459137960303
 21
155.03585875860239
 31
0.0
  0
LINE
  8
DETAIL
  6
CONTINUOUS
 62
     5
 10
-340.5757936572229
 20
157.26594663731481
 30
0.0
 11
-340.6050766777048
 21
157.10733423188711
 31
0.0
  0
LINE
  8
DETAIL
  6
CONTINUOUS
 62
     5
 10
-340.6050766777048
 20
157.10733423188711
 30
0.0
 11
-340.63392310716972
 21
156.9485513059112
 31
0.0
  0
LINE
  8
DETAIL
  6
CONTINUOUS
 62
     5
 10
-340.63392310716972
 20
156.9485513059112
 30
0.0
 11
-340.66232823679309
 21
156.78961736825681
 31
0.0
  0
LINE
  8
DETAIL
  6
CONTINUOUS
 62
     5
 10
-340.66232823679309
 20
156.78961736825681
 30
0.0
 11
-340.69028735774958
 21
156.63055192779319
 31
0.0
  0
LINE
  8
DETAIL
  6
CONTINUOUS
 62
     5
 10
-340.69028735774958
 20
156.63055192779319
 30
0.0
 11
-340.71779576121492
 21
156.47137449338979
 31
0.0
  0
LINE
  8
DETAIL
  6
CONTINUOUS
 62
     5
 10
-340.71779576121492
 20
156.47137449338979
 30
0.0
 11
-340.74484873836423
 21
156.31210457391589
 31
0.0
  0
LINE
  8
DETAIL
  6
CONTINUOUS
 62
     5
 10
-340.74484873836423
 20
156.31210457391589
 30
0.0
 11
-340.77144158037208
 21
156.15276167824081
 31
0.0
  0
LINE
  8
DETAIL
  6
CONTINUOUS
 62
     5
 10
-340.35784483330872
 20
158.37497475926509
 30
0.0
 11
-340.39047375173158
 21
158.21619368989491
 31
0.0
  0
LINE
  8
DETAIL
  6
CONTINUOUS
 62
     5
 10
-340.39047375173158
 20
158.21619368989491
 30
0.0
 11
-340.42257953000558
 21
158.05764654592519
 31
0.0
  0
LINE
  8
DETAIL
  6
CONTINUOUS
 62
     5
 10
-340.42257953000558
 20
158.05764654592519
 30
0.0
 11
-340.45417737779007
 21
157.89926266821979
 31
0.0
  0
LINE
  8
DETAIL
  6
CONTINUOUS
 62
     5
 10
-340.45417737779007
 20
157.89926266821979
 30
0.0
 11
-340.48528250474442
 21
157.7409713976424
 31
0.0
  0
LINE
  8
DETAIL
  6
CONTINUOUS
 62
     5
 10
-340.48528250474442
 20
157.7409713976424
 30
0.0
 11
-340.51591012052847
 21
157.58270207505669
 31
0.0
  0
LINE
  8
DETAIL
  6
CONTINUOUS
 62
     5
 10
-340.51591012052847
 20
157.58270207505669
 30
0.0
 11
-340.54607543480142
 21
157.42438404132619
 31
0.0
  0
LINE
  8
DETAIL
  6
CONTINUOUS
 62
     5
 10
-340.54607543480142
 20
157.42438404132619
 30
0.0
 11
-340.5757936572229
 21
157.26594663731481
 31
0.0
  0
LINE
  8
DETAIL
  6
CONTINUOUS
 62
     5
 10
-340.11523119072558
 20
159.49069452562711
 30
0.0
 11
-340.15131321171521
 21
159.3313458921194
 31
0.0
  0
LINE
  8
DETAIL
  6
CONTINUOUS
 62
     5
 10
-340.15131321171521
 20
159.3313458921194
 30
0.0
 11
-340.1869455537734
 21
159.17186169323119
 31
0.0
  0
LINE
  8
DETAIL
  6
CONTINUOUS
 62
     5
 10
-340.1869455537734
 20
159.17186169323119
 30
0.0
 11
-340.22211343842059
 21
159.01231528728181
 31
0.0
  0
LINE
  8
DETAIL
  6
CONTINUOUS
 62
     5
 10
-340.22211343842059
 20
159.01231528728181
 30
0.0
 11
-340.25680208717711
 21
158.85278003259091
 31
0.0
  0
LINE
  8
DETAIL
  6
CONTINUOUS
 62
     5
 10
-340.25680208717711
 20
158.85278003259091
 30
0.0
 11
-340.2909967215636
 21
158.69332928747801
 31
0.0
  0
LINE
  8
DETAIL
  6
CONTINUOUS
 62
     5
 10
-340.2909967215636
 20
158.69332928747801
 30
0.0
 11
-340.32468256310062
 21
158.5340364102631
 31
0.0
  0
LINE
  8
DETAIL
  6
CONTINUOUS
 62
     5
 10
-340.32468256310062
 20
158.5340364102631
 30
0.0
 11
-340.35784483330872
 21
158.37497475926509
 31
0.0
  0
LINE
  8
DETAIL
  6
CONTINUOUS
 62
     5
 10
-339.85031820739653
 20
160.6013266290274
 30
0.0
 11
-339.88950045392238
 21
160.4430742835365
 31
0.0
  0
LINE
  8
DETAIL
  6
CONTINUOUS
 62
     5
 10
-339.88950045392238
 20
160.4430742835365
 30
0.0
 11
-339.92823264618141
 21
160.2847133470535
 31
0.0
  0
LINE
  8
DETAIL
  6
CONTINUOUS
 62
     5
 10
-339.92823264618141
 20
160.2847133470535
 30
0.0
 11
-339.96651730980938
 21
160.12622709746049
 31
0.0
  0
LINE
  8
DETAIL
  6
CONTINUOUS
 62
     5
 10
-339.96651730980938
 20
160.12622709746049
 30
0.0
 11
-340.00435697044202
 21
159.96759881263941
 31
0.0
  0
LINE
  8
DETAIL
  6
CONTINUOUS
 62
     5
 10
-340.00435697044202
 20
159.96759881263941
 30
0.0
 11
-340.04175415371492
 21
159.8088117704722
 31
0.0
  0
LINE
  8
DETAIL
  6
CONTINUOUS
 62
     5
 10
-340.04175415371492
 20
159.8088117704722
 30
0.0
 11
-340.07871138526423
 21
159.6498492488407
 31
0.0
  0
LINE
  8
DETAIL
  6
CONTINUOUS
 62
     5
 10
-340.07871138526423
 20
159.6498492488407
 30
0.0
 11
-340.11523119072558
 21
159.49069452562711
 31
0.0
  0
LINE
  8
DETAIL
  6
CONTINUOUS
 62
     5
 10
-339.25463061050277
 20
162.80573825873259
 30
0.0
 11
-339.29999705491468
 21
162.64926889217821
 31
0.0
  0
LINE
  8
DETAIL
  6
CONTINUOUS
 62
     5
 10
-339.29999705491468
 20
162.64926889217821
 30
0.0
 11
-339.34495570856421
 21
162.49257380370699
 31
0.0
  0
LINE
  8
DETAIL
  6
CONTINUOUS
 62
     5
 10
-339.34495570856421
 20
162.49257380370699
 30
0.0
 11
-339.38949893904942
 21
162.3356747401709
 31
0.0
  0
LINE
  8
DETAIL
  6
CONTINUOUS
 62
     5
 10
-339.38949893904942
 20
162.3356747401709
 30
0.0
 11
-339.43361911396931
 21
162.17859344842171
 31
0.0
  0
LINE
  8
DETAIL
  6
CONTINUOUS
 62
     5
 10
-339.43361911396931
 20
162.17859344842171
 30
0.0
 11
-339.47730860092253
 21
162.02135167531119
 31
0.0
  0
LINE
  8
DETAIL
  6
CONTINUOUS
 62
     5
 10
-339.47730860092253
 20
162.02135167531119
 30
0.0
 11
-339.52055976750722
 21
161.86397116769129
 31
0.0
  0
LINE
  8
DETAIL
  6
CONTINUOUS
 62
     5
 10
-339.52055976750722
 20
161.86397116769129
 30
0.0
 11
-339.56336498132242
 21
161.70647367241369
 31
0.0
  0
LINE
  8
DETAIL
  6
CONTINUOUS
 62
     5
 10
-338.92437419293788
 20
163.8987229909319
 30
0.0
 11
-338.97309025394702
 21
163.74227799292919
 31
0.0
  0
LINE
  8
DETAIL
  6
CONTINUOUS
 62
     5
 10
-338.97309025394702
 20
163.74227799292919
 30
0.0
 11
-339.02125103457882
 21
163.5860686315178
 31
0.0
  0
LINE
  8
DETAIL
  6
CONTINUOUS
 62
     5
 10
-339.02125103457882
 20
163.5860686315178
 30
0.0
 11
-339.06888238850212
 21
163.43001438913811
 31
0.0
  0
LINE
  8
DETAIL
  6
CONTINUOUS
 62
     5
 10
-339.06888238850212
 20
163.43001438913811
 30
0.0
 11
-339.11601016938681
 21
163.2740347482297
 31
0.0
  0
LINE
  8
DETAIL
  6
CONTINUOUS
 62
     5
 10
-339.11601016938681
 20
163.2740347482297
 30
0.0
 11
-339.16266023090219
 21
163.11804919123259
 31
0.0
  0
LINE
  8
DETAIL
  6
CONTINUOUS
 62
     5
 10
-339.16266023090219
 20
163.11804919123259
 30
0.0
 11
-339.20885842671782
 21
162.9619772005868
 31
0.0
  0
LINE
  8
DETAIL
  6
CONTINUOUS
 62
     5
 10
-339.20885842671782
 20
162.9619772005868
 30
0.0
 11
-339.25463061050277
 21
162.80573825873259
 31
0.0
  0
LINE
  8
DETAIL
  6
CONTINUOUS
 62
     5
 10
-338.56858039112922
 20
164.99783856677371
 30
0.0
 11
-338.62081941847168
 21
164.8409555397316
 31
0.0
  0
LINE
  8
DETAIL
  6
CONTINUOUS
 62
     5
 10
-338.62081941847168
 20
164.8409555397316
 30
0.0
 11
-338.67263057058449
 21
164.6838893070346
 31
0.0
  0
LINE
  8
DETAIL
  6
CONTINUOUS
 62
     5
 10
-338.67263057058449
 20
164.6838893070346
 30
0.0
 11
-338.72398830433173
 21
164.52672309531749
 31
0.0
  0
LINE
  8
DETAIL
  6
CONTINUOUS
 62
     5
 10
-338.72398830433173
 20
164.52672309531749
 30
0.0
 11
-338.77486707657681
 21
164.36954013121419
 31
0.0
  0
LINE
  8
DETAIL
  6
CONTINUOUS
 62
     5
 10
-338.77486707657681
 20
164.36954013121419
 30
0.0
 11
-338.82524134418372
 21
164.21242364135921
 31
0.0
  0
LINE
  8
DETAIL
  6
CONTINUOUS
 62
     5
 10
-338.82524134418372
 20
164.21242364135921
 30
0.0
 11
-338.87508556401622
 21
164.05545685238701
 31
0.0
  0
LINE
  8
DETAIL
  6
CONTINUOUS
 62
     5
 10
-338.87508556401622
 20
164.05545685238701
 30
0.0
 11
-338.92437419293788
 21
163.8987229909319
 31
0.0
  0
LINE
  8
DETAIL
  6
CONTINUOUS
 62
     5
 10
-338.19132452453732
 20
166.08976838189619
 30
0.0
 11
-338.24649061239438
 21
165.93432491418281
 31
0.0
  0
LINE
  8
DETAIL
  6
CONTINUOUS
 62
     5
 10
-338.24649061239438
 20
165.93432491418281
 30
0.0
 11
-338.30122418522751
 21
165.7787316869458
 31
0.0
  0
LINE
  8
DETAIL
  6
CONTINUOUS
 62
     5
 10
-338.30122418522751
 20
165.7787316869458
 30
0.0
 11
-338.35553027352512
 21
165.6229692547241
 31
0.0
  0
LINE
  8
DETAIL
  6
CONTINUOUS
 62
     5
 10
-338.35553027352512
 20
165.6229692547241
 30
0.0
 11
-338.40941390777562
 21
165.46701817205701
 31
0.0
  0
LINE
  8
DETAIL
  6
CONTINUOUS
 62
     5
 10
-338.40941390777562
 20
165.46701817205701
 30
0.0
 11
-338.46288011846741
 21
165.31085899348361
 31
0.0
  0
LINE
  8
DETAIL
  6
CONTINUOUS
 62
     5
 10
-338.46288011846741
 20
165.31085899348361
 30
0.0
 11
-338.51593393608931
 21
165.15447227354281
 31
0.0
  0
LINE
  8
DETAIL
  6
CONTINUOUS
 62
     5
 10
-338.51593393608931
 20
165.15447227354281
 30
0.0
 11
-338.56858039112922
 21
164.99783856677371
 31
0.0
  0
LINE
  8
DETAIL
  6
CONTINUOUS
 62
     5
 10
-337.79291306988807
 20
167.1741626991741
 30
0.0
 11
-337.85114240947428
 21
167.01964891724339
 31
0.0
  0
LINE
  8
DETAIL
  6
CONTINUOUS
 62
     5
 10
-337.85114240947428
 20
167.01964891724339
 30
0.0
 11
-337.90893384310652
 21
166.865000782891
 31
0.0
  0
LINE
  8
DETAIL
  6
CONTINUOUS
 62
     5
 10
-337.90893384310652
 20
166.865000782891
 30
0.0
 11
-337.96628743085898
 21
166.71021896917659
 31
0.0
  0
LINE
  8
DETAIL
  6
CONTINUOUS
 62
     5
 10
-337.96628743085898
 20
166.71021896917659
 30
0.0
 11
-338.02320323280452
 21
166.55530414916009
 31
0.0
  0
LINE
  8
DETAIL
  6
CONTINUOUS
 62
     5
 10
-338.02320323280452
 20
166.55530414916009
 30
0.0
 11
-338.07968130901708
 21
166.40025699590109
 31
0.0
  0
LINE
  8
DETAIL
  6
CONTINUOUS
 62
     5
 10
-338.07968130901708
 20
166.40025699590109
 30
0.0
 11
-338.13572171957031
 21
166.24507818245999
 31
0.0
  0
LINE
  8
DETAIL
  6
CONTINUOUS
 62
     5
 10
-338.13572171957031
 20
166.24507818245999
 30
0.0
 11
-338.19132452453732
 21
166.08976838189619
 31
0.0
  0
LINE
  8
DETAIL
  6
CONTINUOUS
 62
     5
 10
-337.37365250390712
 20
168.25067178148271
 30
0.0
 11
-337.43472255396767
 21
168.09758717010661
 31
0.0
  0
LINE
  8
DETAIL
  6
CONTINUOUS
 62
     5
 10
-337.43472255396767
 20
168.09758717010661
 30
0.0
 11
-337.49541842935042
 21
167.94423030681631
 31
0.0
  0
LINE
  8
DETAIL
  6
CONTINUOUS
 62
     5
 10
-337.49541842935042
 20
167.94423030681631
 30
0.0
 11
-337.55572949816332
 21
167.7906240626838
 31
0.0
  0
LINE
  8
DETAIL
  6
CONTINUOUS
 62
     5
 10
-337.55572949816332
 20
167.7906240626838
 30
0.0
 11
-337.61564512851493
 21
167.63679130878131
 31
0.0
  0
LINE
  8
DETAIL
  6
CONTINUOUS
 62
     5
 10
-337.61564512851493
 20
167.63679130878131
 30
0.0
 11
-337.675154688514
 21
167.48275491618071
 31
0.0
  0
LINE
  8
DETAIL
  6
CONTINUOUS
 62
     5
 10
-337.675154688514
 20
167.48275491618071
 30
0.0
 11
-337.73424754626888
 21
167.32853775595439
 31
0.0
  0
LINE
  8
DETAIL
  6
CONTINUOUS
 62
     5
 10
-337.73424754626888
 20
167.32853775595439
 30
0.0
 11
-337.79291306988807
 21
167.1741626991741
 31
0.0
  0
LINE
  8
DETAIL
  6
CONTINUOUS
 62
     5
 10
-336.93384930331922
 20
169.31894589169701
 30
0.0
 11
-336.99825134332127
 21
169.166102160013
 31
0.0
  0
LINE
  8
DETAIL
  6
CONTINUOUS
 62
     5
 10
-336.99825134332127
 20
169.166102160013
 30
0.0
 11
-337.06206720223508
 21
169.0134795423287
 31
0.0
  0
LINE
  8
DETAIL
  6
CONTINUOUS
 62
     5
 10
-337.06206720223508
 20
169.0134795423287
 30
0.0
 11
-337.12533398644428
 21
168.86099199914619
 31
0.0
  0
LINE
  8
DETAIL
  6
CONTINUOUS
 62
     5
 10
-337.12533398644428
 20
168.86099199914619
 30
0.0
 11
-337.18808880233257
 21
168.708553490968
 31
0.0
  0
LINE
  8
DETAIL
  6
CONTINUOUS
 62
     5
 10
-337.18808880233257
 20
168.708553490968
 30
0.0
 11
-337.25036875628348
 21
168.5560779782966
 31
0.0
  0
LINE
  8
DETAIL
  6
CONTINUOUS
 62
     5
 10
-337.25036875628348
 20
168.5560779782966
 30
0.0
 11
-337.31221095468038
 21
168.4034794216341
 31
0.0
  0
LINE
  8
DETAIL
  6
CONTINUOUS
 62
     5
 10
-337.31221095468038
 20
168.4034794216341
 30
0.0
 11
-337.37365250390712
 21
168.25067178148271
 31
0.0
  0
LINE
  8
DETAIL
  6
CONTINUOUS
 62
     5
 10
-322.92994933371438
 20
189.98659262204001
 30
0.0
 11
-323.05399666892299
 21
189.8609411293975
 31
0.0
  0
LINE
  8
DETAIL
  6
CONTINUOUS
 62
     5
 10
-323.05399666892299
 20
189.8609411293975
 30
0.0
 11
-323.1777662030479
 21
189.73495282693111
 31
0.0
  0
LINE
  8
DETAIL
  6
CONTINUOUS
 62
     5
 10
-323.1777662030479
 20
189.73495282693111
 30
0.0
 11
-323.30119009680868
 21
189.6086994098257
 31
0.0
  0
LINE
  8
DETAIL
  6
CONTINUOUS
 62
     5
 10
-323.30119009680868
 20
189.6086994098257
 30
0.0
 11
-323.42420051092461
 21
189.48225257326581
 31
0.0
  0
LINE
  8
DETAIL
  6
CONTINUOUS
 62
     5
 10
-323.42420051092461
 20
189.48225257326581
 30
0.0
 11
-323.54672960611532
 21
189.35568401243609
 31
0.0
  0
LINE
  8
DETAIL
  6
CONTINUOUS
 62
     5
 10
-323.54672960611532
 20
189.35568401243609
 30
0.0
 11
-323.66870954310002
 21
189.2290654225213
 31
0.0
  0
LINE
  8
DETAIL
  6
CONTINUOUS
 62
     5
 10
-323.66870954310002
 20
189.2290654225213
 30
0.0
 11
-323.79007248259859
 21
189.1024684987062
 31
0.0
  0
LINE
  8
DETAIL
  6
CONTINUOUS
 62
     5
 10
-327.03327774073517
 20
185.46726143999919
 30
0.0
 11
-327.14458886867368
 21
185.333014691366
 31
0.0
  0
LINE
  8
DETAIL
  6
CONTINUOUS
 62
     5
 10
-327.14458886867368
 20
185.333014691366
 30
0.0
 11
-327.25559071052538
 21
185.1984511924901
 31
0.0
  0
LINE
  8
DETAIL
  6
CONTINUOUS
 62
     5
 10
-327.25559071052538
 20
185.1984511924901
 30
0.0
 11
-327.36621926884078
 21
185.06365163694721
 31
0.0
  0
LINE
  8
DETAIL
  6
CONTINUOUS
 62
     5
 10
-327.36621926884078
 20
185.06365163694721
 30
0.0
 11
-327.47641054616952
 21
184.92869671831281
 31
0.0
  0
LINE
  8
DETAIL
  6
CONTINUOUS
 62
     5
 10
-327.47641054616952
 20
184.92869671831281
 30
0.0
 11
-327.58610054506181
 21
184.7936671301629
 31
0.0
  0
LINE
  8
DETAIL
  6
CONTINUOUS
 62
     5
 10
-327.58610054506181
 20
184.7936671301629
 30
0.0
 11
-327.69522526806759
 21
184.6586435660729
 31
0.0
  0
LINE
  8
DETAIL
  6
CONTINUOUS
 62
     5
 10
-327.69522526806759
 20
184.6586435660729
 30
0.0
 11
-327.80372071773672
 21
184.5237067196185
 31
0.0
  0
LINE
  8
DETAIL
  6
CONTINUOUS
 62
     5
 10
-326.24632433451779
 20
186.39708316217229
 30
0.0
 11
-326.35967149076191
 21
186.26518713168551
 31
0.0
  0
LINE
  8
DETAIL
  6
CONTINUOUS
 62
     5
 10
-326.35967149076191
 20
186.26518713168551
 30
0.0
 11
-326.47268595444939
 21
186.13301212846301
 31
0.0
  0
LINE
  8
DETAIL
  6
CONTINUOUS
 62
     5
 10
-326.47268595444939
 20
186.13301212846301
 30
0.0
 11
-326.58538229290002
 21
186.0005384073244
 31
0.0
  0
LINE
  8
DETAIL
  6
CONTINUOUS
 62
     5
 10
-326.58538229290002
 20
186.0005384073244
 30
0.0
 11
-326.69777507343377
 21
185.8677462230892
 31
0.0
  0
LINE
  8
DETAIL
  6
CONTINUOUS
 62
     5
 10
-326.69777507343377
 20
185.8677462230892
 30
0.0
 11
-326.80987886337118
 21
185.73461583057679
 31
0.0
  0
LINE
  8
DETAIL
  6
CONTINUOUS
 62
     5
 10
-326.80987886337118
 20
185.73461583057679
 30
0.0
 11
-326.92170823003153
 21
185.60112748460691
 31
0.0
  0
LINE
  8
DETAIL
  6
CONTINUOUS
 62
     5
 10
-326.92170823003153
 20
185.60112748460691
 30
0.0
 11
-327.03327774073517
 21
185.46726143999919
 31
0.0
  0
LINE
  8
DETAIL
  6
CONTINUOUS
 62
     5
 10
-325.44322759328747
 20
187.31300370206301
 30
0.0
 11
-325.55898846586888
 21
187.18295157215559
 31
0.0
  0
LINE
  8
DETAIL
  6
CONTINUOUS
 62
     5
 10
-325.55898846586888
 20
187.18295157215559
 30
0.0
 11
-325.67440623839161
 21
187.0526328398438
 31
0.0
  0
LINE
  8
DETAIL
  6
CONTINUOUS
 62
     5
 10
-325.67440623839161
 20
187.0526328398438
 30
0.0
 11
-325.78948021755241
 21
186.92204873426911
 31
0.0
  0
LINE
  8
DETAIL
  6
CONTINUOUS
 62
     5
 10
-325.78948021755241
 20
186.92204873426911
 30
0.0
 11
-325.90420971004818
 21
186.79120048457321
 31
0.0
  0
LINE
  8
DETAIL
  6
CONTINUOUS
 62
     5
 10
-325.90420971004818
 20
186.79120048457321
 30
0.0
 11
-326.01859402257651
 21
186.66008931989759
 31
0.0
  0
LINE
  8
DETAIL
  6
CONTINUOUS
 62
     5
 10
-326.01859402257651
 20
186.66008931989759
 30
0.0
 11
-326.13263246183402
 21
186.52871646938331
 31
0.0
  0
LINE
  8
DETAIL
  6
CONTINUOUS
 62
     5
 10
-326.13263246183402
 20
186.52871646938331
 30
0.0
 11
-326.24632433451779
 21
186.39708316217229
 31
0.0
  0
LINE
  8
DETAIL
  6
CONTINUOUS
 62
     5
 10
-324.62435461124659
 20
188.214854875599
 30
0.0
 11
-324.7421268835385
 21
188.0870535062314
 31
0.0
  0
LINE
  8
DETAIL
  6
CONTINUOUS
 62
     5
 10
-324.7421268835385
 20
188.0870535062314
 30
0.0
 11
-324.85966604256049
 21
187.95887768165861
 31
0.0
  0
LINE
  8
DETAIL
  6
CONTINUOUS
 62
     5
 10
-324.85966604256049
 20
187.95887768165861
 30
0.0
 11
-324.97695387273171
 21
187.8303451724905
 31
0.0
  0
LINE
  8
DETAIL
  6
CONTINUOUS
 62
     5
 10
-324.97695387273171
 20
187.8303451724905
 30
0.0
 11
-325.09397215847088
 21
187.701473749337
 31
0.0
  0
LINE
  8
DETAIL
  6
CONTINUOUS
 62
     5
 10
-325.09397215847088
 20
187.701473749337
 30
0.0
 11
-325.21070268419732
 21
187.57228118280801
 31
0.0
  0
LINE
  8
DETAIL
  6
CONTINUOUS
 62
     5
 10
-325.21070268419732
 20
187.57228118280801
 30
0.0
 11
-325.32712723432968
 21
187.44278524351341
 31
0.0
  0
LINE
  8
DETAIL
  6
CONTINUOUS
 62
     5
 10
-325.32712723432968
 20
187.44278524351341
 30
0.0
 11
-325.44322759328747
 21
187.31300370206301
 31
0.0
  0
LINE
  8
DETAIL
  6
CONTINUOUS
 62
     5
 10
-323.79007248259859
 20
189.1024684987062
 30
0.0
 11
-323.9107730809028
 21
188.9759414253804
 31
0.0
  0
LINE
  8
DETAIL
  6
CONTINUOUS
 62
     5
 10
-323.9107730809028
 20
188.9759414253804
 30
0.0
 11
-324.03085597659401
 21
188.84943834375281
 31
0.0
  0
LINE
  8
DETAIL
  6
CONTINUOUS
 62
     5
 10
-324.03085597659401
 20
188.84943834375281
 30
0.0
 11
-324.1503883038265
 21
188.72288988423861
 31
0.0
  0
LINE
  8
DETAIL
  6
CONTINUOUS
 62
     5
 10
-324.1503883038265
 20
188.72288988423861
 30
0.0
 11
-324.26943719675393
 21
188.59622667725159
 31
0.0
  0
LINE
  8
DETAIL
  6
CONTINUOUS
 62
     5
 10
-324.26943719675393
 20
188.59622667725159
 30
0.0
 11
-324.38806978953039
 21
188.46937935320651
 31
0.0
  0
LINE
  8
DETAIL
  6
CONTINUOUS
 62
     5
 10
-324.38806978953039
 20
188.46937935320651
 30
0.0
 11
-324.50635321631
 21
188.34227854251751
 31
0.0
  0
LINE
  8
DETAIL
  6
CONTINUOUS
 62
     5
 10
-324.50635321631
 20
188.34227854251751
 30
0.0
 11
-324.62435461124659
 21
188.214854875599
 31
0.0
  0
LINE
  8
DETAIL
  6
CONTINUOUS
 62
     5
 10
-332.62734843953382
 20
177.6745353929216
 30
0.0
 11
-332.71577913140368
 21
177.52991140508291
 31
0.0
  0
LINE
  8
DETAIL
  6
CONTINUOUS
 62
     5
 10
-332.71577913140368
 20
177.52991140508291
 30
0.0
 11
-332.80381382260879
 21
177.38508135514209
 31
0.0
  0
LINE
  8
DETAIL
  6
CONTINUOUS
 62
     5
 10
-332.80381382260879
 20
177.38508135514209
 30
0.0
 11
-332.89145226230482
 21
177.24004626169111
 31
0.0
  0
LINE
  8
DETAIL
  6
CONTINUOUS
 62
     5
 10
-332.89145226230482
 20
177.24004626169111
 30
0.0
 11
-332.97869419964718
 21
177.0948071433213
 31
0.0
  0
LINE
  8
DETAIL
  6
CONTINUOUS
 62
     5
 10
-332.97869419964718
 20
177.0948071433213
 30
0.0
 11
-333.06553938379187
 21
176.94936501862449
 31
0.0
  0
LINE
  8
DETAIL
  6
CONTINUOUS
 62
     5
 10
-333.06553938379187
 20
176.94936501862449
 30
0.0
 11
-333.15198756389492
 21
176.80372090619221
 31
0.0
  0
LINE
  8
DETAIL
  6
CONTINUOUS
 62
     5
 10
-333.15198756389492
 20
176.80372090619221
 30
0.0
 11
-333.2380384891112
 21
176.65787582461601
 31
0.0
  0
LINE
  8
DETAIL
  6
CONTINUOUS
 62
     5
 10
-331.99815151656412
 20
178.67985120223989
 30
0.0
 11
-332.08901955617512
 21
178.53714130156121
 31
0.0
  0
LINE
  8
DETAIL
  6
CONTINUOUS
 62
     5
 10
-332.08901955617512
 20
178.53714130156121
 30
0.0
 11
-332.17958622345532
 21
178.3940925964524
 31
0.0
  0
LINE
  8
DETAIL
  6
CONTINUOUS
 62
     5
 10
-332.17958622345532
 20
178.3940925964524
 30
0.0
 11
-332.26983578882249
 21
178.2507270408698
 31
0.0
  0
LINE
  8
DETAIL
  6
CONTINUOUS
 62
     5
 10
-332.26983578882249
 20
178.2507270408698
 30
0.0
 11
-332.35975252269583
 21
178.1070665887695
 31
0.0
  0
LINE
  8
DETAIL
  6
CONTINUOUS
 62
     5
 10
-332.35975252269583
 20
178.1070665887695
 30
0.0
 11
-332.44932069549282
 21
177.96313319410729
 31
0.0
  0
LINE
  8
DETAIL
  6
CONTINUOUS
 62
     5
 10
-332.44932069549282
 20
177.96313319410729
 30
0.0
 11
-332.53852457763293
 21
177.81894881083929
 31
0.0
  0
LINE
  8
DETAIL
  6
CONTINUOUS
 62
     5
 10
-332.53852457763293
 20
177.81894881083929
 30
0.0
 11
-332.62734843953382
 21
177.6745353929216
 31
0.0
  0
LINE
  8
DETAIL
  6
CONTINUOUS
 62
     5
 10
-331.35080689374718
 20
179.6735716045437
 30
0.0
 11
-331.44488114652393
 21
179.5315962009058
 31
0.0
  0
LINE
  8
DETAIL
  6
CONTINUOUS
 62
     5
 10
-331.44488114652393
 20
179.5315962009058
 30
0.0
 11
-331.53832843904252
 21
179.38976663333909
 31
0.0
  0
LINE
  8
DETAIL
  6
CONTINUOUS
 62
     5
 10
-331.53832843904252
 20
179.38976663333909
 30
0.0
 11
-331.63120565755457
 21
179.24799846943421
 31
0.0
  0
LINE
  8
DETAIL
  6
CONTINUOUS
 62
     5
 10
-331.63120565755457
 20
179.24799846943421
 30
0.0
 11
-331.72356968831139
 21
179.10620727678119
 31
0.0
  0
LINE
  8
DETAIL
  6
CONTINUOUS
 62
     5
 10
-331.72356968831139
 20
179.10620727678119
 30
0.0
 11
-331.81547741756413
 21
178.96430862297089
 31
0.0
  0
LINE
  8
DETAIL
  6
CONTINUOUS
 62
     5
 10
-331.81547741756413
 20
178.96430862297089
 30
0.0
 11
-331.90698573156448
 21
178.82221807559361
 31
0.0
  0
LINE
  8
DETAIL
  6
CONTINUOUS
 62
     5
 10
-331.90698573156448
 20
178.82221807559361
 30
0.0
 11
-331.99815151656412
 21
178.67985120223989
 31
0.0
  0
LINE
  8
DETAIL
  6
CONTINUOUS
 62
     5
 10
-330.67647184320299
 20
180.6687741505805
 30
0.0
 11
-330.77411424359212
 21
180.52704273304559
 31
0.0
  0
LINE
  8
DETAIL
  6
CONTINUOUS
 62
     5
 10
-330.77411424359212
 20
180.52704273304559
 30
0.0
 11
-330.87141559029698
 21
180.38501950082309
 31
0.0
  0
LINE
  8
DETAIL
  6
CONTINUOUS
 62
     5
 10
-330.87141559029698
 20
180.38501950082309
 30
0.0
 11
-330.96831875118068
 21
180.2427914677742
 31
0.0
  0
LINE
  8
DETAIL
  6
CONTINUOUS
 62
     5
 10
-330.96831875118068
 20
180.2427914677742
 30
0.0
 11
-331.06476659410509
 21
180.10044564776049
 31
0.0
  0
LINE
  8
DETAIL
  6
CONTINUOUS
 62
     5
 10
-331.06476659410509
 20
180.10044564776049
 30
0.0
 11
-331.16070198693268
 21
179.95806905464309
 31
0.0
  0
LINE
  8
DETAIL
  6
CONTINUOUS
 62
     5
 10
-331.16070198693268
 20
179.95806905464309
 30
0.0
 11
-331.25606779752587
 21
179.8157487022838
 31
0.0
  0
LINE
  8
DETAIL
  6
CONTINUOUS
 62
     5
 10
-331.25606779752587
 20
179.8157487022838
 30
0.0
 11
-331.35080689374718
 21
179.6735716045437
 31
0.0
  0
LINE
  8
DETAIL
  6
CONTINUOUS
 62
     5
 10
-329.98422750052993
 20
181.65159646420969
 30
0.0
 11
-330.08413756611731
 21
181.5120550398083
 31
0.0
  0
LINE
  8
DETAIL
  6
CONTINUOUS
 62
     5
 10
-330.08413756611731
 20
181.5120550398083
 30
0.0
 11
-330.18368697846807
 21
181.37226158180579
 31
0.0
  0
LINE
  8
DETAIL
  6
CONTINUOUS
 62
     5
 10
-330.18368697846807
 20
181.37226158180579
 30
0.0
 11
-330.28288852619789
 21
181.23219495771079
 31
0.0
  0
LINE
  8
DETAIL
  6
CONTINUOUS
 62
     5
 10
-330.28288852619789
 20
181.23219495771079
 30
0.0
 11
-330.38175499792118
 21
181.09183403503221
 31
0.0
  0
LINE
  8
DETAIL
  6
CONTINUOUS
 62
     5
 10
-330.38175499792118
 20
181.09183403503221
 30
0.0
 11
-330.48029918225319
 21
180.95115768127849
 31
0.0
  0
LINE
  8
DETAIL
  6
CONTINUOUS
 62
     5
 10
-330.48029918225319
 20
180.95115768127849
 30
0.0
 11
-330.5785338678088
 21
180.81014476395839
 31
0.0
  0
LINE
  8
DETAIL
  6
CONTINUOUS
 62
     5
 10
-330.5785338678088
 20
180.81014476395839
 30
0.0
 11
-330.67647184320299
 21
180.6687741505805
 31
0.0
  0
LINE
  8
DETAIL
  6
CONTINUOUS
 62
     5
 10
-329.27444206552718
 20
182.62183101632809
 30
0.0
 11
-329.37695428960927
 21
182.48393368619841
 31
0.0
  0
LINE
  8
DETAIL
  6
CONTINUOUS
 62
     5
 10
-329.37695428960927
 20
182.48393368619841
 30
0.0
 11
-329.47909585065167
 21
182.34579857685529
 31
0.0
  0
LINE
  8
DETAIL
  6
CONTINUOUS
 62
     5
 10
-329.47909585065167
 20
182.34579857685529
 30
0.0
 11
-329.58086628551848
 21
182.2074268346494
 31
0.0
  0
LINE
  8
DETAIL
  6
CONTINUOUS
 62
     5
 10
-329.58086628551848
 20
182.2074268346494
 30
0.0
 11
-329.68226513107521
 21
182.06881960593131
 31
0.0
  0
LINE
  8
DETAIL
  6
CONTINUOUS
 62
     5
 10
-329.68226513107521
 20
182.06881960593131
 30
0.0
 11
-329.78329192418568
 21
181.9299780370516
 31
0.0
  0
LINE
  8
DETAIL
  6
CONTINUOUS
 62
     5
 10
-329.78329192418568
 20
181.9299780370516
 30
0.0
 11
-329.88394620171613
 21
181.79090327436069
 31
0.0
  0
LINE
  8
DETAIL
  6
CONTINUOUS
 62
     5
 10
-329.88394620171613
 20
181.79090327436069
 30
0.0
 11
-329.98422750052993
 21
181.65159646420969
 31
0.0
  0
LINE
  8
DETAIL
  6
CONTINUOUS
 62
     5
 10
-328.54748373799612
 20
183.57927027783219
 30
0.0
 11
-328.652219627828
 21
183.44347232252969
 31
0.0
  0
LINE
  8
DETAIL
  6
CONTINUOUS
 62
     5
 10
-328.652219627828
 20
183.44347232252969
 30
0.0
 11
-328.75668957907652
 21
183.30731437764939
 31
0.0
  0
LINE
  8
DETAIL
  6
CONTINUOUS
 62
     5
 10
-328.75668957907652
 20
183.30731437764939
 30
0.0
 11
-328.8608762148549
 21
183.17081662052689
 31
0.0
  0
LINE
  8
DETAIL
  6
CONTINUOUS
 62
     5
 10
-328.8608762148549
 20
183.17081662052689
 30
0.0
 11
-328.96476215827579
 21
183.033999228498
 31
0.0
  0
LINE
  8
DETAIL
  6
CONTINUOUS
 62
     5
 10
-328.96476215827579
 20
183.033999228498
 30
0.0
 11
-329.06833003245288
 21
182.89688237889811
 31
0.0
  0
LINE
  8
DETAIL
  6
CONTINUOUS
 62
     5
 10
-329.06833003245288
 20
182.89688237889811
 30
0.0
 11
-329.17156246049899
 21
182.75948624906289
 31
0.0
  0
LINE
  8
DETAIL
  6
CONTINUOUS
 62
     5
 10
-329.17156246049899
 20
182.75948624906289
 30
0.0
 11
-329.27444206552718
 21
182.62183101632809
 31
0.0
  0
LINE
  8
DETAIL
  6
CONTINUOUS
 62
     5
 10
-327.80372071773672
 20
184.5237067196185
 30
0.0
 11
-327.91154415117308
 21
184.388910797872
 31
0.0
  0
LINE
  8
DETAIL
  6
CONTINUOUS
 62
     5
 10
-327.91154415117308
 20
184.388910797872
 30
0.0
 11
-328.01873784369292
 21
184.25420406189031
 31
0.0
  0
LINE
  8
DETAIL
  6
CONTINUOUS
 62
     5
 10
-328.01873784369292
 20
184.25420406189031
 30
0.0
 11
-328.12536532516651
 21
184.11950828622719
 31
0.0
  0
LINE
  8
DETAIL
  6
CONTINUOUS
 62
     5
 10
-328.12536532516651
 20
184.11950828622719
 30
0.0
 11
-328.23149012546372
 21
183.98474524543619
 31
0.0
  0
LINE
  8
DETAIL
  6
CONTINUOUS
 62
     5
 10
-328.23149012546372
 20
183.98474524543619
 30
0.0
 11
-328.33717577445418
 21
183.84983671407099
 31
0.0
  0
LINE
  8
DETAIL
  6
CONTINUOUS
 62
     5
 10
-328.33717577445418
 20
183.84983671407099
 30
0.0
 11
-328.44248580200838
 21
183.71470446668511
 31
0.0
  0
LINE
  8
DETAIL
  6
CONTINUOUS
 62
     5
 10
-328.44248580200838
 20
183.71470446668511
 30
0.0
 11
-328.54748373799612
 21
183.57927027783219
 31
0.0
  0
LINE
  8
DETAIL
  6
CONTINUOUS
 62
     5
 10
-322.0547681667299
 20
190.85580671463501
 30
0.0
 11
-322.18062672044971
 21
190.73262953154591
 31
0.0
  0
LINE
  8
DETAIL
  6
CONTINUOUS
 62
     5
 10
-322.18062672044971
 20
190.73262953154591
 30
0.0
 11
-322.30618171822198
 21
190.6091496540553
 31
0.0
  0
LINE
  8
DETAIL
  6
CONTINUOUS
 62
     5
 10
-322.30618171822198
 20
190.6091496540553
 30
0.0
 11
-322.43144875907097
 21
190.48534944706219
 31
0.0
  0
LINE
  8
DETAIL
  6
CONTINUOUS
 62
     5
 10
-322.43144875907097
 20
190.48534944706219
 30
0.0
 11
-322.55644344202068
 21
190.36121127546519
 31
0.0
  0
LINE
  8
DETAIL
  6
CONTINUOUS
 62
     5
 10
-322.55644344202068
 20
190.36121127546519
 30
0.0
 11
-322.6811813660953
 21
190.23671750416321
 31
0.0
  0
LINE
  8
DETAIL
  6
CONTINUOUS
 62
     5
 10
-322.6811813660953
 20
190.23671750416321
 30
0.0
 11
-322.80567813031848
 21
190.11185049805519
 31
0.0
  0
LINE
  8
DETAIL
  6
CONTINUOUS
 62
     5
 10
-322.80567813031848
 20
190.11185049805519
 30
0.0
 11
-322.92994933371438
 21
189.98659262204001
 31
0.0
  0
LINE
  8
DETAIL
  6
CONTINUOUS
 62
     5
 10
-321.16489448107251
 20
191.70997180841161
 30
0.0
 11
-321.29296440313249
 21
191.58881999141749
 31
0.0
  0
LINE
  8
DETAIL
  6
CONTINUOUS
 62
     5
 10
-321.29296440313249
 20
191.58881999141749
 30
0.0
 11
-321.42072087257088
 21
191.46737545823231
 31
0.0
  0
LINE
  8
DETAIL
  6
CONTINUOUS
 62
     5
 10
-321.42072087257088
 20
191.46737545823231
 30
0.0
 11
-321.5481629389958
 21
191.3456394850042
 31
0.0
  0
LINE
  8
DETAIL
  6
CONTINUOUS
 62
     5
 10
-321.5481629389958
 20
191.3456394850042
 30
0.0
 11
-321.67528965201558
 21
191.22361334788209
 31
0.0
  0
LINE
  8
DETAIL
  6
CONTINUOUS
 62
     5
 10
-321.67528965201558
 20
191.22361334788209
 30
0.0
 11
-321.80210006123917
 21
191.10129832301411
 31
0.0
  0
LINE
  8
DETAIL
  6
CONTINUOUS
 62
     5
 10
-321.80210006123917
 20
191.10129832301411
 30
0.0
 11
-321.92859321627452
 21
190.97869568654889
 31
0.0
  0
LINE
  8
DETAIL
  6
CONTINUOUS
 62
     5
 10
-321.92859321627452
 20
190.97869568654889
 30
0.0
 11
-322.0547681667299
 21
190.85580671463501
 31
0.0
  0
LINE
  8
DETAIL
  6
CONTINUOUS
 62
     5
 10
-320.26069377617023
 20
192.54894893529129
 30
0.0
 11
-320.39056632869602
 21
192.4301715357058
 31
0.0
  0
LINE
  8
DETAIL
  6
CONTINUOUS
 62
     5
 10
-320.39056632869602
 20
192.4301715357058
 30
0.0
 11
-320.52023552519307
 21
192.31101037516649
 31
0.0
  0
LINE
  8
DETAIL
  6
CONTINUOUS
 62
     5
 10
-320.52023552519307
 20
192.31101037516649
 30
0.0
 11
-320.64968317462802
 21
192.191480415109
 31
0.0
  0
LINE
  8
DETAIL
  6
CONTINUOUS
 62
     5
 10
-320.64968317462802
 20
192.191480415109
 30
0.0
 11
-320.77889108596668
 21
192.07159661696909
 31
0.0
  0
LINE
  8
DETAIL
  6
CONTINUOUS
 62
     5
 10
-320.77889108596668
 20
192.07159661696909
 30
0.0
 11
-320.90784106817608
 21
191.95137394218241
 31
0.0
  0
LINE
  8
DETAIL
  6
CONTINUOUS
 62
     5
 10
-320.90784106817608
 20
191.95137394218241
 30
0.0
 11
-321.03651493022272
 21
191.8308273521848
 31
0.0
  0
LINE
  8
DETAIL
  6
CONTINUOUS
 62
     5
 10
-321.03651493022272
 20
191.8308273521848
 30
0.0
 11
-321.16489448107251
 21
191.70997180841161
 31
0.0
  0
LINE
  8
DETAIL
  6
CONTINUOUS
 62
     5
 10
-319.34253155145069
 20
193.37259912719449
 30
0.0
 11
-319.47512825088762
 21
193.25536799871841
 31
0.0
  0
LINE
  8
DETAIL
  6
CONTINUOUS
 62
     5
 10
-319.47512825088762
 20
193.25536799871841
 30
0.0
 11
-319.60713585962981
 21
193.13809029362929
 31
0.0
  0
LINE
  8
DETAIL
  6
CONTINUOUS
 62
     5
 10
-319.60713585962981
 20
193.13809029362929
 30
0.0
 11
-319.73862169862753
 21
193.02070732096439
 31
0.0
  0
LINE
  8
DETAIL
  6
CONTINUOUS
 62
     5
 10
-319.73862169862753
 20
193.02070732096439
 30
0.0
 11
-319.86965308883049
 21
192.90316038976081
 31
0.0
  0
LINE
  8
DETAIL
  6
CONTINUOUS
 62
     5
 10
-319.86965308883049
 20
192.90316038976081
 30
0.0
 11
-320.00029735118869
 21
192.78539080905591
 31
0.0
  0
LINE
  8
DETAIL
  6
CONTINUOUS
 62
     5
 10
-320.00029735118869
 20
192.78539080905591
 30
0.0
 11
-320.13062180665202
 21
192.66733988788701
 31
0.0
  0
LINE
  8
DETAIL
  6
CONTINUOUS
 62
     5
 10
-320.13062180665202
 20
192.66733988788701
 30
0.0
 11
-320.26069377617023
 21
192.54894893529129
 31
0.0
  0
LINE
  8
DETAIL
  6
CONTINUOUS
 62
     5
 10
-318.39995328258851
 20
194.19001134504131
 30
0.0
 11
-318.53568976366768
 21
194.07399238200199
 31
0.0
  0
LINE
  8
DETAIL
  6
CONTINUOUS
 62
     5
 10
-318.53568976366768
 20
194.07399238200199
 30
0.0
 11
-318.67117912183949
 21
193.9576206622412
 31
0.0
  0
LINE
  8
DETAIL
  6
CONTINUOUS
 62
     5
 10
-318.67117912183949
 20
193.9576206622412
 30
0.0
 11
-318.80635314231381
 21
193.8409569976038
 31
0.0
  0
LINE
  8
DETAIL
  6
CONTINUOUS
 62
     5
 10
-318.80635314231381
 20
193.8409569976038
 30
0.0
 11
-318.94114361030171
 21
193.72406219993539
 31
0.0
  0
LINE
  8
DETAIL
  6
CONTINUOUS
 62
     5
 10
-318.94114361030171
 20
193.72406219993539
 30
0.0
 11
-319.07548231101327
 21
193.60699708108061
 31
0.0
  0
LINE
  8
DETAIL
  6
CONTINUOUS
 62
     5
 10
-319.07548231101327
 20
193.60699708108061
 30
0.0
 11
-319.20930102965951
 21
193.48982245288539
 31
0.0
  0
LINE
  8
DETAIL
  6
CONTINUOUS
 62
     5
 10
-319.20930102965951
 20
193.48982245288539
 30
0.0
 11
-319.34253155145069
 21
193.37259912719449
 31
0.0
  0
LINE
  8
SIZE
  6
CONTINUOUS
 62
    30
 10
-341.50876895543638
 20
166.63988564740859
 30
0.0
 11
-341.50876895543638
 21
643.55560217370339
 31
0.0
  0
LINE
  8
SIZE
  6
CONTINUOUS
 62
    30
 10
-295.5
 20
227.0
 30
0.0
 11
-295.5
 21
643.55560217370339
 31
0.0
  0
LINE
  8
SIZE
  6
CONTINUOUS
 62
    30
 10
-283.5
 20
623.55560217370339
 30
0.0
 11
-271.5
 21
623.55560217370339
 31
0.0
  0
LINE
  8
SIZE
  6
CONTINUOUS
 62
    30
 10
-353.50876895543638
 20
623.55560217370339
 30
0.0
 11
-614.05734038400806
 21
623.55560217370339
 31
0.0
  0
LINE
  8
SIZE
  6
CONTINUOUS
 62
    30
 10
-295.5
 20
623.55560217370339
 30
0.0
 11
-341.50876895543638
 21
623.55560217370339
 31
0.0
  0
CIRCLE
  8
SIZE
  6
CONTINUOUS
 62
    30
 10
-295.5
 20
623.55560217370339
 30
0.0
 40
6.0
  0
LINE
  8
SIZE
  6
CONTINUOUS
 62
    30
 10
-295.5
 20
623.55560217370339
 30
0.0
 11
-283.5
 21
623.55560217370339
 31
0.0
  0
CIRCLE
  8
SIZE
  6
CONTINUOUS
 62
    30
 10
-341.50876895543638
 20
623.55560217370339
 30
0.0
 40
6.0
  0
LINE
  8
SIZE
  6
CONTINUOUS
 62
    30
 10
-341.50876895543638
 20
623.55560217370339
 30
0.0
 11
-353.50876895543638
 21
623.55560217370339
 31
0.0
  0
TEXT
  8
SIZE
  6
CONTINUOUS
 62
    30
 10
-615.93734038400805
 20
648.55560217370339
 30
0.0
 40
64.0
  1
（46）
 41
0.9
 72
     1
 11
-501.56019752686518
 21
648.55560217370339
 31
0.0
  0
POINT
  8
DEFPOINTS
  6
CONTINUOUS
 62
    30
 10
-341.50876895543638
 20
146.63988564740859
 30
0.0
  0
POINT
  8
DEFPOINTS
  6
CONTINUOUS
 62
    30
 10
-295.5
 20
207.0
 30
0.0
  0
POINT
  8
DEFPOINTS
  6
CONTINUOUS
 62
    30
 10
-295.5
 20
623.55560217370339
 30
0.0
  0
LINE
  8
NOTE
  6
CONTINUOUS
 62
     4
 10
100.0
 20
207.0
 30
0.0
 11
128.2361381256292
 21
220.68048638674651
 31
0.0
  0
LINE
  8
DETAIL
  6
CONTINUOUS
 62
     5
 10
-119.9879718812562
 20
-18.0
 30
0.0
 11
120.03172758908499
 21
-18.0
 31
0.0
  0
LINE
  8
DETAIL
  6
CONTINUOUS
 62
     5
 10
-119.9803176238738
 20
-25.0
 30
0.0
 11
120.0519178730483
 21
-25.0
 31
0.0
  0
CIRCLE
  8
ARRANGE
  6
CONTINUOUS
 62
     1
 10
0.0
 20
0.0
 30
0.0
 40
40.0
  0
LINE
  8
DETAIL
  6
CONTINUOUS
 62
     5
 10
-65.0
 20
-18.0
 30
0.0
 11
-65.0
 21
-7.0
 31
0.0
  0
LINE
  8
DETAIL
  6
CONTINUOUS
 62
     5
 10
-60.0
 20
-18.0
 30
0.0
 11
-60.0
 21
-7.0
 31
0.0
  0
LINE
  8
DETAIL
  6
CONTINUOUS
 62
     5
 10
-111.244631283027
 20
-18.0
 30
0.0
 11
-113.491458603411
 21
-7.0
 31
0.0
  0
LINE
  8
DETAIL
  6
CONTINUOUS
 62
     5
 10
-119.9803176238738
 20
-25.0
 30
0.0
 11
-120.0
 21
-7.0
 31
0.0
  0
LINE
  8
DETAIL
  6
CONTINUOUS
 62
     5
 10
65.0
 20
-18.0
 30
0.0
 11
65.0
 21
-7.0
 31
0.0
  0
LINE
  8
DETAIL
  6
CONTINUOUS
 62
     5
 10
60.0
 20
-18.0
 30
0.0
 11
60.0
 21
-7.0
 31
0.0
  0
LINE
  8
DETAIL
  6
CONTINUOUS
 62
     5
 10
120.0519178730483
 20
-25.0
 30
0.0
 11
120.0
 21
-7.0
 31
0.0
  0
LINE
  8
DETAIL
  6
CONTINUOUS
 62
     5
 10
111.244631283027
 20
-18.0
 30
0.0
 11
113.491458603411
 21
-7.0
 31
0.0
  0
LINE
  8
OUTLINE
  6
CONTINUOUS
 62
     3
 10
-158.75
 20
54.000000000000107
 30
0.0
 11
-158.75
 21
0.0
 31
0.0
  0
LINE
  8
OUTLINE
  6
CONTINUOUS
 62
     3
 10
-155.25
 20
229.00000000000011
 30
0.0
 11
-155.25
 21
0.0
 31
0.0
  0
LINE
  8
OUTLINE
  6
CONTINUOUS
 62
     3
 10
-153.5
 20
0.0
 30
0.0
 11
-153.5
 21
229.00000000000011
 31
0.0
  0
LINE
  8
OUTLINE
  6
CONTINUOUS
 62
     3
 10
-238.5
 20
216.00000000000011
 30
0.0
 11
-155.25
 21
216.00000000000011
 31
0.0
  0
LINE
  8
OUTLINE
  6
CONTINUOUS
 62
     3
 10
-238.5
 20
54.000000000000107
 30
0.0
 11
-153.5
 21
54.000000000000107
 31
0.0
  0
LINE
  8
OUTLINE
  6
CONTINUOUS
 62
     3
 10
-295.5
 20
63.000000000000107
 30
0.0
 11
-295.5
 21
207.00000000000011
 31
0.0
  0
LINE
  8
OUTLINE
  6
CONTINUOUS
 62
     3
 10
-268.5
 20
59.000000000000107
 30
0.0
 11
-268.5
 21
211.00000000000011
 31
0.0
  0
LINE
  8
OUTLINE
  6
CONTINUOUS
 62
     3
 10
-238.5
 20
54.000000000000107
 30
0.0
 11
-238.5
 21
216.00000000000011
 31
0.0
  0
LINE
  8
OUTLINE
  6
CONTINUOUS
 62
     3
 10
-295.5
 20
63.000000000000107
 30
0.0
 11
-268.5
 21
63.000000000000107
 31
0.0
  0
LINE
  8
OUTLINE
  6
CONTINUOUS
 62
     3
 10
-268.5
 20
59.000000000000107
 30
0.0
 11
-238.5
 21
59.000000000000107
 31
0.0
  0
LINE
  8
OUTLINE
  6
CONTINUOUS
 62
     3
 10
-295.5
 20
207.00000000000011
 30
0.0
 11
-268.5
 21
207.00000000000011
 31
0.0
  0
LINE
  8
OUTLINE
  6
CONTINUOUS
 62
     3
 10
-268.5
 20
211.00000000000011
 30
0.0
 11
-238.5
 21
211.00000000000011
 31
0.0
  0
LINE
  8
OUTLINE
  6
CONTINUOUS
 62
     3
 10
-158.75
 20
229.00000000000011
 30
0.0
 11
-158.75
 21
216.00000000000011
 31
0.0
  0
LINE
  8
OUTLINE
  6
CONTINUOUS
 62
     3
 10
-158.75
 20
229.00000000000011
 30
0.0
 11
-153.5
 21
229.00000000000011
 31
0.0
  0
TEXT
  8
ETC
  6
CONTINUOUS
 62
    61
 10
467.55107318527939
 20
660.73082783868676
 30
0.0
 40
64.0
  1
VD-18ZXP13-X_4
 41
0.9
  0
TEXT
  8
ETC
  6
CONTINUOUS
 62
    61
 10
465.1838951852792
 20
555.94956236301414
 30
0.0
 40
64.0
  1
換気扇
 41
0.9
  0
TEXT
  8
ETC
  6
CONTINUOUS
 62
    61
 10
549.54483652876024
 20
472.8821081142778
 30
0.0
 40
40.0
  1
VD-18ZXP13-X
 41
0.9
  0
TEXT
  8
ETC
  6
CONTINUOUS
 62
    61
 10
549.54483652876024
 20
406.8821081142778
 30
0.0
 40
40.0
  1
VD-18ZLXP13-X
 41
0.9
  0
TEXT
  8
ETC
  6
CONTINUOUS
 62
    61
 10
549.54483652876024
 20
340.88210811427803
 30
0.0
 40
40.0
  1
VD-20ZX13-X
 41
0.9
  0
ENDSEC
  0
EOF
