  0
SECTION
  2
HEADER
  9
$ACADVER
  1
AC1009
  9
$DWGCODEPAGE
  3
dos932
  9
$INSBASE
 10
0.0
 20
0.0
 30
0.0
  9
$EXTMIN
 10
-1074.504073318682
 20
-787.94859709212142
 30
-0.0015258207003583
  9
$EXTMAX
 10
1212.7258418625279
 20
1086.5936365288139
 30
0.0000000349246037
  9
$LIMMIN
 10
-2970.0
 20
-2100.0
  9
$LIMMAX
 10
2970.0
 20
2100.0
  9
$ORTHOMODE
 70
     1
  9
$REGENMODE
 70
     1
  9
$FILLMODE
 70
     1
  9
$QTEXTMODE
 70
     0
  9
$MIRRTEXT
 70
     0
  9
$LTSCALE
 40
20.0
  9
$ATTMODE
 70
     1
  9
$TEXTSIZE
 40
64.0
  9
$TRACEWID
 40
0.05
  9
$TEXTSTYLE
  7
STANDARD
  9
$CLAYER
  8
SIZE
  9
$CELTYPE
  6
CONTINUOUS
  9
$CECOLOR
 62
     7
  9
$DIMSCALE
 40
1.0
  9
$DIMASZ
 40
12.0
  9
$DIMEXO
 40
20.0
  9
$DIMDLI
 40
200.0
  9
$DIMRND
 40
0.0
  9
$DIMDLE
 40
0.0
  9
$DIMEXE
 40
20.0
  9
$DIMTP
 40
0.0
  9
$DIMTM
 40
0.0
  9
$DIMTXT
 40
64.0
  9
$DIMCEN
 40
0.09
  9
$DIMTSZ
 40
0.0
  9
$DIMTOL
 70
     0
  9
$DIMLIM
 70
     0
  9
$DIMTIH
 70
     0
  9
$DIMTOH
 70
     0
  9
$DIMSE1
 70
     0
  9
$DIMSE2
 70
     0
  9
$DIMTAD
 70
     1
  9
$DIMZIN
 70
     8
  9
$DIMBLK
  1

  9
$DIMASO
 70
     1
  9
$DIMSHO
 70
     0
  9
$DIMPOST
  1

  9
$DIMAPOST
  1

  9
$DIMALT
 70
     0
  9
$DIMALTD
 70
     2
  9
$DIMALTF
 40
25.399999999999999
  9
$DIMLFAC
 40
1.0
  9
$DIMTOFL
 70
     1
  9
$DIMTVP
 40
0.0
  9
$DIMTIX
 70
     1
  9
$DIMSOXD
 70
     0
  9
$DIMSAH
 70
     0
  9
$DIMBLK1
  1

  9
$DIMBLK2
  1

  9
$DIMSTYLE
  2
STANDARD
  9
$DIMCLRD
 70
     7
  9
$DIMCLRE
 70
     7
  9
$DIMCLRT
 70
     7
  9
$DIMTFAC
 40
1.0
  9
$DIMGAP
 40
25.0
  9
$LUNITS
 70
     2
  9
$LUPREC
 70
     4
  9
$SKETCHINC
 40
0.1
  9
$FILLETRAD
 40
3.0
  9
$AUNITS
 70
     1
  9
$AUPREC
 70
     3
  9
$MENU
  1
ACAD
  9
$ELEVATION
 40
0.0
  9
$PELEVATION
 40
0.0
  9
$THICKNESS
 40
0.0
  9
$LIMCHECK
 70
     0
  9
$CHAMFERA
 40
0.0
  9
$CHAMFERB
 40
0.0
  9
$SKPOLY
 70
     0
  9
$TDCREATE
 40
2453019.62301037
  9
$TDUPDATE
 40
2459025.513161111
  9
$TDINDWG
 40
1.7132914468
  9
$TDUSRTIMER
 40
1.7132914468
  9
$USRTIMER
 70
     1
  9
$ANGBASE
 50
0.0
  9
$ANGDIR
 70
     0
  9
$PDMODE
 70
     3
  9
$PDSIZE
 40
-2.0
  9
$PLINEWID
 40
0.0
  9
$SPLFRAME
 70
     0
  9
$SPLINETYPE
 70
     6
  9
$SPLINESEGS
 70
     8
  9
$SURFTAB1
 70
     6
  9
$SURFTAB2
 70
     6
  9
$SURFTYPE
 70
     6
  9
$SURFU
 70
     6
  9
$SURFV
 70
     6
  9
$UCSNAME
  2

  9
$UCSORG
 10
0.0
 20
0.0
 30
0.0
  9
$UCSXDIR
 10
1.0
 20
0.0
 30
0.0
  9
$UCSYDIR
 10
0.0
 20
1.0
 30
0.0
  9
$PUCSNAME
  2

  9
$PUCSORG
 10
0.0
 20
0.0
 30
0.0
  9
$PUCSXDIR
 10
1.0
 20
0.0
 30
0.0
  9
$PUCSYDIR
 10
0.0
 20
1.0
 30
0.0
  9
$USERI1
 70
     0
  9
$USERI2
 70
     0
  9
$USERI3
 70
     0
  9
$USERI4
 70
     0
  9
$USERI5
 70
     0
  9
$USERR1
 40
20.0
  9
$USERR2
 40
0.0
  9
$USERR3
 40
0.0
  9
$USERR4
 40
0.0
  9
$USERR5
 40
0.0
  9
$WORLDVIEW
 70
     1
  9
$SHADEDGE
 70
     3
  9
$SHADEDIF
 70
    70
  9
$TILEMODE
 70
     1
  9
$MAXACTVP
 70
    48
  9
$PINSBASE
 10
0.0
 20
0.0
 30
0.0
  9
$PLIMCHECK
 70
     0
  9
$PEXTMIN
 10
-100000000000000000000.0
 20
-100000000000000000000.0
 30
-100000000000000000000.0
  9
$PEXTMAX
 10
100000000000000000000.0
 20
100000000000000000000.0
 30
100000000000000000000.0
  9
$PLIMMIN
 10
0.0
 20
0.0
  9
$PLIMMAX
 10
12.0
 20
9.0
  9
$UNITMODE
 70
     0
  9
$VISRETAIN
 70
     0
  9
$PLINEGEN
 70
     0
  9
$PSLTSCALE
 70
     0
  9
$TREEDEPTH
 70
  3020
  9
$ATTDIA
 70
     0
  9
$ATTREQ
 70
     1
  9
$BLIPMODE
 70
     1
  9
$COORDS
 70
     1
  9
$DRAGMODE
 70
     2
  9
$OSMODE
 70
     0
  9
$HANDLING
 70
     0
  9
$HANDSEED
  5
EF54
  0
ENDSEC
  0
SECTION
  2
TABLES
  0
TABLE
  2
LTYPE
 70
     3
  0
LTYPE
  2
CONTINUOUS
 70
     0
  3
実線
 72
    65
 73
     0
 40
0.0
  0
LTYPE
  2
DASHDOT
 70
     0
  3
____ _ ____ _ ____ _ ____ _ ____ _ ____ _ ____
 72
    65
 73
     4
 40
5.5
 49
4.0
 49
-0.6
 49
0.3
 49
-0.6
  0
LTYPE
  2
DIVIDE
 70
     0
  3
Divide ____ . . ____ . . ____ . . ____ . . ____
 72
    65
 73
     6
 40
1.25
 49
0.5
 49
-0.25
 49
0.0
 49
-0.25
 49
0.0
 49
-0.25
  0
ENDTAB
  0
TABLE
  2
LAYER
 70
    12
  0
LAYER
  2
0
 70
     0
 62
     7
  6
CONTINUOUS
  0
LAYER
  2
BASIS
 70
     0
 62
     6
  6
DASHDOT
  0
LAYER
  2
OUTLINE
 70
     0
 62
     3
  6
CONTINUOUS
  0
LAYER
  2
DETAIL
 70
     0
 62
     5
  6
CONTINUOUS
  0
LAYER
  2
SIZE
 70
     0
 62
    30
  6
CONTINUOUS
  0
LAYER
  2
ARRANGE
 70
     0
 62
     1
  6
CONTINUOUS
  0
LAYER
  2
DEFPOINTS
 70
     0
 62
     7
  6
CONTINUOUS
  0
LAYER
  2
ETC
 70
     0
 62
    61
  6
CONTINUOUS
  0
LAYER
  2
FIX
 70
     0
 62
    11
  6
CONTINUOUS
  0
LAYER
  2
NOTE
 70
     0
 62
     4
  6
CONTINUOUS
  0
LAYER
  2
SERVICESPACE
 70
    64
 62
     2
  6
DASHDOT
  0
LAYER
  2
SYMBOLLINE
 70
    64
 62
    15
  6
CONTINUOUS
  0
ENDTAB
  0
TABLE
  2
STYLE
 70
     1
  0
STYLE
  2
STANDARD
 70
     0
 40
64.0
 41
0.9
 50
0.0
 71
     0
 42
64.0
  3
SIMPLEX.shx
  4
BIGFONT.shx
  0
ENDTAB
  0
TABLE
  2
APPID
 70
    19
  0
APPID
  2
ACAD
 70
     0
  0
APPID
  2
AUTOCAD_POSTSCRIPT_FIGURE
 70
     0
  0
APPID
  2
ACAD_EXEMPT_FROM_CAD_STANDARDS
 70
     0
  0
APPID
  2
ACAD_PSEXT
 70
     0
  0
APPID
  2
ACAUTHENVIRON
 70
     0
  0
APPID
  2
GENIUS_GENOENT_13
 70
     0
  0
APPID
  2
GENIUS_GENCFG_13
 70
     0
  0
APPID
  2
GENIUS_GENCFG0_13
 70
     0
  0
APPID
  2
GENIUS_GENCFG1_13
 70
     0
  0
APPID
  2
GENIUS_GENCFG2_13
 70
     0
  0
APPID
  2
GENIUS_GENCFG3_13
 70
     0
  0
APPID
  2
GENIUS_GENCFG4_13
 70
     0
  0
APPID
  2
GENIUS_GEVCFG0_13
 70
     0
  0
APPID
  2
CONTENTBLOCKICON
 70
     0
  0
APPID
  2
CONTENTBLOCKDESCRIPTION
 70
     0
  0
APPID
  2
ACAD_NAV_VCDISPLAY
 70
     0
  0
APPID
  2
ACAD_MLEADERVER
 70
     0
  0
APPID
  2
ACDBDYNAMICBLOCKTRUENAME
 70
     0
  0
APPID
  2
ACDBDYNAMICBLOCKGUID
 70
     0
  0
ENDTAB
  0
TABLE
  2
DIMSTYLE
 70
     1
  0
DIMSTYLE
  2
STANDARD
 70
     0
  3

  4

  5
_ORIGIN
  6

  7

 40
1.0
 41
12.0
 42
20.0
 43
200.0
 44
20.0
 45
0.0
 46
0.0
 47
0.0
 48
0.0
140
64.0
141
0.09
142
0.0
143
25.399999999999999
144
1.0
145
0.0
146
1.0
147
25.0
 71
     0
 72
     0
 73
     0
 74
     0
 75
     0
 76
     0
 77
     1
 78
     8
170
     0
171
     2
172
     1
173
     0
174
     1
175
     0
176
     7
177
     7
178
     7
  0
ENDTAB
  0
TABLE
  2
VIEW
 70
     1
  0
VIEW
  2
ALL
 70
     0
 40
4282.6198079999986
 10
0.0
 20
41.309904000000003
 41
5940.0
 11
0.0
 21
0.0
 31
1.0
 12
0.0
 22
0.0
 32
0.0
 42
50.0
 43
0.0
 44
0.0
 50
0.0
 71
     0
  0
ENDTAB
  0
TABLE
  2
UCS
 70
     0
  0
ENDTAB
  0
TABLE
  2
VPORT
 70
     1
  0
VPORT
  2
*ACTIVE
 70
     0
 10
0.0
 20
0.0
 11
1.0
 21
1.0
 12
69.110884271923283
 22
149.3225197183466
 13
0.0
 23
0.0
 14
1.0
 24
1.0
 15
0.0
 25
0.0
 16
0.0
 26
0.0
 36
1.0
 17
0.0
 27
0.0
 37
0.0
 40
1886.970137932235
 41
1.747787610619469
 42
50.0
 43
0.0
 44
0.0
 50
0.0
 51
0.0
 71
     0
 72
  1000
 73
     1
 74
     3
 75
     0
 76
     0
 77
     0
 78
     0
  0
ENDTAB
  0
ENDSEC
  0
SECTION
  2
BLOCKS
  0
BLOCK
  8
0
  2
_ORIGIN
 70
     0
 10
0.0
 20
0.0
 30
0.0
  3
_ORIGIN
  1
_ORIGIN
  0
CIRCLE
  8
0
  6
CONTINUOUS
 62
     7
 10
0.0
 20
0.0
 30
0.0
 40
0.5
  0
LINE
  8
0
  6
CONTINUOUS
 62
     7
 10
0.0
 20
0.0
 30
0.0
 11
-1.0
 21
0.0
 31
0.0
  0
ENDBLK
  8
0
  0
ENDSEC
  0
SECTION
  2
ENTITIES
  0
CIRCLE
  8
ARRANGE
  6
CONTINUOUS
 62
     1
 10
0.0
 20
0.0
 30
0.0
 40
40.0
  0
POINT
  8
ARRANGE
  6
CONTINUOUS
 62
     1
 10
0.0
 20
0.0
 30
0.0
  0
ARC
  8
DETAIL
  6
CONTINUOUS
 62
     5
 10
-152.50000000122051
 20
152.50000000122
 30
0.0
 40
1.0000000000079881
 50
90.0
 51
180.0
  0
LINE
  8
DETAIL
  6
CONTINUOUS
 62
     5
 10
-152.50000000122051
 20
153.50000000122799
 30
0.0
 11
152.50000000122051
 21
153.5000000012279
 31
0.0
  0
ARC
  8
DETAIL
  6
CONTINUOUS
 62
     5
 10
152.50000000122051
 20
152.50000000121989
 30
0.0
 40
1.0000000000079881
 50
0.0
 51
90.0
  0
ARC
  8
DETAIL
  6
CONTINUOUS
 62
     5
 10
152.50000000122051
 20
-152.50000000122009
 30
0.0
 40
1.000000000008
 50
270.0
 51
0.0
  0
ARC
  8
DETAIL
  6
CONTINUOUS
 62
     5
 10
-152.50000000122051
 20
-152.50000000122009
 30
0.0
 40
1.000000000008
 50
180.0
 51
270.0
  0
LINE
  8
DETAIL
  6
CONTINUOUS
 62
     5
 10
-152.50000000122051
 20
-153.50000000122799
 30
0.0
 11
-125.5000000010041
 21
-153.50000000122799
 31
0.0
  0
LINE
  8
DETAIL
  6
CONTINUOUS
 62
     5
 10
-25.50000000020373
 20
-153.50000000122799
 30
0.0
 11
152.50000000122051
 21
-153.50000000122799
 31
0.0
  0
LINE
  8
DETAIL
  6
CONTINUOUS
 62
     5
 10
153.50000000122779
 20
152.50000000121989
 30
0.0
 11
153.50000000122779
 21
-152.50000000122009
 31
0.0
  0
LINE
  8
DETAIL
  6
CONTINUOUS
 62
     5
 10
-153.50000000122779
 20
-152.3031433117651
 30
0.0
 11
-153.50000000122779
 21
152.50000000122
 31
0.0
  0
ARC
  8
DETAIL
  6
CONTINUOUS
 62
     5
 10
201.00000000160981
 20
-201.00000000160861
 30
0.0
 40
14.000000000111999
 50
270.0
 51
0.0
  0
LINE
  8
DETAIL
  6
CONTINUOUS
 62
     5
 10
215.00000000172079
 20
201.00000000160821
 30
0.0
 11
215.00000000172079
 21
-201.00000000160861
 31
0.0
  0
LINE
  8
DETAIL
  6
CONTINUOUS
 62
     5
 10
201.00000000160981
 20
-215.00000000172051
 30
0.0
 11
-5.5000000000418368
 21
-215.00000000172051
 31
0.0
  0
ARC
  8
DETAIL
  6
CONTINUOUS
 62
     5
 10
201.00000000160981
 20
201.00000000160821
 30
0.0
 40
14.00000000011198
 50
0.0
 51
90.0
  0
LINE
  8
DETAIL
  6
CONTINUOUS
 62
     5
 10
201.00000000160981
 20
215.00000000172039
 30
0.0
 11
-201.00000000160799
 21
215.00000000172051
 31
0.0
  0
ARC
  8
DETAIL
  6
CONTINUOUS
 62
     5
 10
-201.00000000160799
 20
201.00000000160821
 30
0.0
 40
14.000000000112021
 50
90.0
 51
180.0
  0
LINE
  8
DETAIL
  6
CONTINUOUS
 62
     5
 10
-215.00000000171889
 20
-201.00000000160841
 30
0.0
 11
-215.00000000171889
 21
201.00000000160821
 31
0.0
  0
ARC
  8
DETAIL
  6
CONTINUOUS
 62
     5
 10
-201.00000000160799
 20
-201.00000000160841
 30
0.0
 40
14.000000000111999
 50
180.0
 51
270.0
  0
LINE
  8
DETAIL
  6
CONTINUOUS
 62
     5
 10
-165.50000000132241
 20
-215.00000000172051
 30
0.0
 11
-201.00000000160799
 21
-215.00000000172051
 31
0.0
  0
LINE
  8
DETAIL
  6
CONTINUOUS
 62
     5
 10
-154.10000000123179
 20
-139.10314331165981
 30
0.0
 11
-154.10000000123179
 21
-152.30314331176561
 31
0.0
  0
LINE
  8
DETAIL
  6
CONTINUOUS
 62
     5
 10
-152.50000001253099
 20
-153.50314331177501
 30
0.0
 11
-178.90000000142939
 21
-153.50314331177501
 31
0.0
  0
LINE
  8
DETAIL
  6
CONTINUOUS
 62
     5
 10
-25.50000000020373
 20
-154.10314331177969
 30
0.0
 11
-25.50000000020373
 21
-142.10314331168351
 31
0.0
  0
LINE
  8
DETAIL
  6
CONTINUOUS
 62
     5
 10
-125.5000000010041
 20
-154.10314331177969
 30
0.0
 11
-125.5000000010041
 21
-142.10314331168351
 31
0.0
  0
LINE
  8
DETAIL
  6
CONTINUOUS
 62
     5
 10
-25.50000000020373
 20
-148.5031433117349
 30
0.0
 11
-125.5000000010041
 21
-148.5031433117349
 31
0.0
  0
ARC
  8
DETAIL
  6
CONTINUOUS
 62
     5
 10
-122.5000000009786
 20
-142.10314331168351
 30
0.0
 40
3.0000000000239999
 50
90.0
 51
180.0
  0
LINE
  8
DETAIL
  6
CONTINUOUS
 62
     5
 10
-28.50000000022737
 20
-139.10314331165981
 30
0.0
 11
-122.5000000009786
 21
-139.10314331165981
 31
0.0
  0
ARC
  8
DETAIL
  6
CONTINUOUS
 62
     5
 10
-28.50000000022737
 20
-142.10314331168351
 30
0.0
 40
3.0000000000239999
 50
0.0
 51
90.0
  0
LINE
  8
DETAIL
  6
CONTINUOUS
 62
     5
 10
6.7500000000545697
 20
-154.6030000012365
 30
0.0
 11
-177.75000000142239
 21
-154.6030000012365
 31
0.0
  0
LINE
  8
DETAIL
  6
CONTINUOUS
 62
     5
 10
6.7500000000545697
 20
-154.6030000012365
 30
0.0
 11
6.7500000000545697
 21
-154.10000000123279
 31
0.0
  0
ARC
  8
DETAIL
  6
CONTINUOUS
 62
     5
 10
-4.5000000000363798
 20
-155.60300000124451
 30
0.0
 40
1.000000000008
 50
90.0
 51
180.0
  0
LINE
  8
DETAIL
  6
CONTINUOUS
 62
     5
 10
-5.5000000000418368
 20
-155.60300000124451
 30
0.0
 11
-5.5000000000418368
 21
-229.10300000183261
 31
0.0
  0
ARC
  8
DETAIL
  6
CONTINUOUS
 62
     5
 10
-166.5000000013315
 20
-155.60300000124451
 30
0.0
 40
1.000000000008
 50
0.0
 51
90.0
  0
LINE
  8
DETAIL
  6
CONTINUOUS
 62
     5
 10
-165.50000000132241
 20
-155.60300000124451
 30
0.0
 11
-165.50000000132241
 21
-229.10300000183261
 31
0.0
  0
LINE
  8
DETAIL
  6
CONTINUOUS
 62
     5
 10
14.40000000011605
 20
-154.10314331177969
 30
0.0
 11
14.40000000011605
 21
-155.35314331178961
 31
0.0
  0
LINE
  8
DETAIL
  6
CONTINUOUS
 62
     5
 10
13.80000000011205
 20
-154.10314331177969
 30
0.0
 11
13.80000000011205
 21
-155.35314331178961
 31
0.0
  0
ARC
  8
DETAIL
  6
CONTINUOUS
 62
     5
 10
15.650000000126971
 20
-155.35314331178961
 30
0.0
 40
1.8500000000147041
 50
180.0
 51
90.0
  0
ARC
  8
DETAIL
  6
CONTINUOUS
 62
     5
 10
15.650000000126971
 20
-155.35314331178961
 30
0.0
 40
1.25000000001
 50
180.0
 51
90.0
  0
LINE
  8
DETAIL
  6
CONTINUOUS
 62
     5
 10
15.650000000126971
 20
-154.10314331177969
 30
0.0
 11
-178.90000000142939
 21
-154.10314331177969
 31
0.0
  0
LINE
  8
DETAIL
  6
CONTINUOUS
 62
     5
 10
-157.4997100842684
 20
-269.33113110639272
 30
0.0
 11
-157.4997100842684
 21
-295.00270398185182
 31
0.0
  0
LINE
  8
DETAIL
  6
CONTINUOUS
 62
     5
 10
-161.50000000129151
 20
-263.46688015867522
 30
0.0
 11
-161.50000000129151
 21
-238.50270398139989
 31
0.0
  0
ARC
  8
DETAIL
  6
CONTINUOUS
 62
     5
 10
-159.0000000012715
 20
-263.46688015867522
 30
0.0
 40
2.50000000002
 50
180.0
 51
224.99999999999079
  0
LINE
  8
DETAIL
  6
CONTINUOUS
 62
     5
 10
-158.0854965218987
 20
-267.91691754400858
 30
0.0
 11
-160.76776695425181
 21
-265.23464711165548
 31
0.0
  0
ARC
  8
DETAIL
  6
CONTINUOUS
 62
     5
 10
-159.49971008428469
 20
-269.33113110639272
 30
0.0
 40
2.0000000000160001
 50
0.0
 51
44.999999999990777
  0
ARC
  8
DETAIL
  6
CONTINUOUS
 62
     5
 10
-162.50000000130061
 20
-229.10300000183261
 30
0.0
 40
3.0000000000239999
 50
180.0
 51
207.04043027400189
  0
LINE
  8
DETAIL
  6
CONTINUOUS
 62
     5
 10
-161.88259918366381
 20
-236.91153706926389
 30
0.0
 11
-165.17205784500581
 21
-230.4668573550924
 31
0.0
  0
ARC
  8
DETAIL
  6
CONTINUOUS
 62
     5
 10
-165.0000000013188
 20
-238.50270398139989
 30
0.0
 40
3.5000000000279998
 50
0.0
 51
27.040430273997561
  0
ARC
  8
DETAIL
  6
CONTINUOUS
 62
     5
 10
-158.1792399059614
 20
-225.86775560289311
 30
0.0
 40
8.7899123811473672
 50
90.0
 51
146.3961466836202
  0
ARC
  8
DETAIL
  6
CONTINUOUS
 62
     5
 10
-158.17900083530549
 20
-258.84639342308071
 30
0.0
 40
41.76855020220107
 50
64.961827546940484
 51
90.000415351889899
  0
ARC
  8
DETAIL
  6
CONTINUOUS
 62
     5
 10
-85.502088218638164
 20
-103.26109751104489
 30
0.0
 40
129.95421712329559
 50
244.96180250154089
 51
295.03900315684228
  0
LINE
  8
DETAIL
  6
CONTINUOUS
 62
     5
 10
-9.5000000000763976
 20
-238.50270398139989
 30
0.0
 11
-161.00000000128779
 21
-238.50270398139989
 31
0.0
  0
LINE
  8
DETAIL
  6
CONTINUOUS
 62
     5
 10
-13.32064935934795
 20
-268.50270398164048
 30
0.0
 11
-157.6793506420199
 21
-268.5027039816398
 31
0.0
  0
LINE
  8
DETAIL
  6
CONTINUOUS
 62
     5
 10
-9.7245506972667499
 20
-264.50241406461572
 30
0.0
 11
-161.2754493041011
 21
-264.50241406461572
 31
0.0
  0
LINE
  8
DETAIL
  6
CONTINUOUS
 62
     5
 10
-13.50028991709951
 20
-269.33113110639329
 30
0.0
 11
-13.50028991709951
 21
-295.00270398185228
 31
0.0
  0
LINE
  8
DETAIL
  6
CONTINUOUS
 62
     5
 10
-9.5000000000763976
 20
-263.46688015867522
 30
0.0
 11
-9.5000000000763976
 21
-238.50270398139989
 31
0.0
  0
ARC
  8
DETAIL
  6
CONTINUOUS
 62
     5
 10
-12.00000000009641
 20
-263.46688015867522
 30
0.0
 40
2.5000000000200839
 50
315.00000000000921
 51
0.0
  0
ARC
  8
DETAIL
  6
CONTINUOUS
 62
     5
 10
-11.500289917083141
 20
-269.33113110639329
 30
0.0
 40
2.0000000000160361
 50
134.9999999999747
 51
180.0
  0
LINE
  8
DETAIL
  6
CONTINUOUS
 62
     5
 10
-12.914503479467379
 20
-267.91691754400858
 30
0.0
 11
-10.2322330471161
 21
-265.23464711165548
 31
0.0
  0
LINE
  8
DETAIL
  6
CONTINUOUS
 62
     5
 10
-9.1174008177022188
 20
-236.91153706926389
 30
0.0
 11
-5.8279421563620417
 21
-230.4668573550924
 31
0.0
  0
ARC
  8
DETAIL
  6
CONTINUOUS
 62
     5
 10
-8.5000000000673026
 20
-229.10300000183261
 30
0.0
 40
3.0000000000242149
 50
332.95956972600243
 51
0.0
  0
ARC
  8
DETAIL
  6
CONTINUOUS
 62
     5
 10
-6.0000000000491127
 20
-238.50270398139989
 30
0.0
 40
3.500000000027784
 50
152.9595697260024
 51
180.0
  0
ARC
  8
DETAIL
  6
CONTINUOUS
 62
     5
 10
-12.8232216228098
 20
-225.86670187960479
 30
0.0
 40
8.7899123811471522
 50
33.604684020172513
 51
90.0
  0
ARC
  8
DETAIL
  6
CONTINUOUS
 62
     5
 10
-12.822982552155739
 20
-258.84533969979248
 30
0.0
 40
41.768550202201467
 50
90.000415351889899
 51
115.0390031568424
  0
LINE
  8
DETAIL
  6
CONTINUOUS
 62
     5
 10
-177.75000000142239
 20
-154.6030000012365
 30
0.0
 11
-177.75000000142239
 21
-154.10000000123279
 31
0.0
  0
ARC
  8
DETAIL
  6
CONTINUOUS
 62
     5
 10
-178.90000000142939
 20
-153.50314331177501
 30
0.0
 40
0.600000000004704
 50
90.0
 51
270.0
  0
LINE
  8
DETAIL
  6
CONTINUOUS
 62
     5
 10
-154.70000000123761
 20
-152.90314331177021
 30
0.0
 11
-178.90000000142939
 21
-152.90314331177021
 31
0.0
  0
ARC
  8
DETAIL
  6
CONTINUOUS
 62
     5
 10
-154.70000000123761
 20
-152.30314331176561
 30
0.0
 40
0.600000000004704
 50
270.0
 51
0.0
  0
ARC
  8
DETAIL
  6
CONTINUOUS
 62
     5
 10
-154.70000000123761
 20
-152.3031433117651
 30
0.0
 40
1.2000000000098761
 50
270.0
 51
0.0
  0
LINE
  8
DETAIL
  6
CONTINUOUS
 62
     5
 10
-154.70000000123761
 20
-141.503143311679
 30
0.0
 11
-154.70000000123761
 21
-139.10314331165981
 31
0.0
  0
LINE
  8
DETAIL
  6
CONTINUOUS
 62
     5
 10
-154.10000000123179
 20
-141.503143311679
 30
0.0
 11
-154.70000000123761
 21
-141.503143311679
 31
0.0
  0
ARC
  8
DETAIL
  6
CONTINUOUS
 62
     5
 10
-154.10000000123179
 20
-139.10314331165981
 30
0.0
 40
0.600000000004704
 50
0.0
 51
180.0
  0
ARC
  8
DETAIL
  6
CONTINUOUS
 62
     5
 10
-156.99971008426471
 20
-295.00270398185182
 30
0.0
 40
0.5000000000039999
 50
180.0
 51
270.0
  0
LINE
  8
DETAIL
  6
CONTINUOUS
 62
     5
 10
-14.000289917103149
 20
-295.50270398185648
 30
0.0
 11
-156.99971008426471
 21
-295.5027039818558
 31
0.0
  0
ARC
  8
DETAIL
  6
CONTINUOUS
 62
     5
 10
-14.000289917103149
 20
-295.00270398185228
 30
0.0
 40
0.500000000003976
 50
270.0
 51
0.0
  0
LINE
  8
DETAIL
  6
CONTINUOUS
 62
     5
 10
187.30000000149991
 20
187.3000000014988
 30
0.0
 11
-187.30000000149809
 21
187.3000000014988
 31
0.0
  0
LINE
  8
DETAIL
  6
CONTINUOUS
 62
     5
 10
-165.50000000132241
 20
-187.300000001499
 30
0.0
 11
-187.30000000149809
 21
-187.300000001499
 31
0.0
  0
LINE
  8
DETAIL
  6
CONTINUOUS
 62
     5
 10
187.30000000149991
 20
-187.300000001499
 30
0.0
 11
-5.5000000000418368
 21
-187.300000001499
 31
0.0
  0
LINE
  8
DETAIL
  6
CONTINUOUS
 62
     5
 10
-187.30000000149809
 20
120.0000000009597
 30
0.0
 11
-187.30000000149809
 21
187.3000000014988
 31
0.0
  0
LINE
  8
DETAIL
  6
CONTINUOUS
 62
     5
 10
187.30000000149991
 20
187.3000000014988
 30
0.0
 11
187.30000000149991
 21
120.0000000009597
 31
0.0
  0
LINE
  8
DETAIL
  6
CONTINUOUS
 62
     5
 10
187.30000000149991
 20
-120.00000000096
 30
0.0
 11
187.30000000149991
 21
-187.300000001499
 31
0.0
  0
LINE
  8
DETAIL
  6
CONTINUOUS
 62
     5
 10
187.30000000149991
 20
80.000000000640057
 30
0.0
 11
187.30000000149991
 21
-80.00000000063983
 31
0.0
  0
LINE
  8
DETAIL
  6
CONTINUOUS
 62
     5
 10
-187.30000000149809
 20
-187.300000001499
 30
0.0
 11
-187.30000000149809
 21
-120.00000000096
 31
0.0
  0
LINE
  8
DETAIL
  6
CONTINUOUS
 62
     5
 10
-187.30000000149809
 20
-80.00000000063983
 30
0.0
 11
-187.30000000149809
 21
80.000000000639716
 31
0.0
  0
ARC
  8
DETAIL
  6
CONTINUOUS
 62
     5
 10
172.30015258926869
 20
100.0000000007999
 30
0.0
 40
13.000000000103791
 50
43.049079800243177
 51
136.9508849624462
  0
ARC
  8
DETAIL
  6
CONTINUOUS
 62
     5
 10
172.30015258926869
 20
100.0000000007999
 30
0.0
 40
9.5000000000760121
 50
50.833289283886522
 51
129.16676425220521
  0
LINE
  8
DETAIL
  6
CONTINUOUS
 62
     5
 10
157.30015258914861
 20
120.0000000009597
 30
0.0
 11
188.30015258939599
 21
120.0000000009597
 31
0.0
  0
ARC
  8
DETAIL
  6
CONTINUOUS
 62
     5
 10
183.30015258935779
 20
115.00000000092
 30
0.0
 40
5.00000000004
 50
0.0
 51
90.0
  0
ARC
  8
DETAIL
  6
CONTINUOUS
 62
     5
 10
172.30015258926869
 20
100.0000000007999
 30
0.0
 40
9.5000000000759872
 50
230.83321844496879
 51
309.16671071611353
  0
LINE
  8
DETAIL
  6
CONTINUOUS
 62
     5
 10
166.3001525892214
 20
92.634536743905073
 30
0.0
 11
166.3001525892214
 21
107.36546039667181
 31
0.0
  0
LINE
  8
DETAIL
  6
CONTINUOUS
 62
     5
 10
162.80015258919411
 20
91.125885010494699
 30
0.0
 11
162.80015258919411
 21
108.8741197594768
 31
0.0
  0
LINE
  8
DETAIL
  6
CONTINUOUS
 62
     5
 10
178.3001525893178
 20
92.634536743905073
 30
0.0
 11
178.3001525893178
 21
107.36545993218689
 31
0.0
  0
LINE
  8
DETAIL
  6
CONTINUOUS
 62
     5
 10
181.80015258934509
 20
91.125880326079823
 30
0.0
 11
181.80015258934509
 21
108.87411967552011
 31
0.0
  0
ARC
  8
DETAIL
  6
CONTINUOUS
 62
     5
 10
172.30015258926869
 20
100.0000000007999
 30
0.0
 40
13.00000000010389
 50
223.04906358376331
 51
316.95092019975681
  0
LINE
  8
NOTE
  6
CONTINUOUS
 62
     4
 10
172.30015258926869
 20
131.08772426675301
 30
0.0
 11
172.30015258926869
 21
71.087725039525367
 31
0.0
  0
LINE
  8
DETAIL
  6
CONTINUOUS
 62
     5
 10
157.30015258914861
 20
80.000000000640057
 30
0.0
 11
188.30015258939599
 21
80.000000000640057
 31
0.0
  0
LINE
  8
DETAIL
  6
CONTINUOUS
 62
     5
 10
157.30015258914861
 20
80.000000000640057
 30
0.0
 11
157.30015258914861
 21
120.0000000009597
 31
0.0
  0
LINE
  8
DETAIL
  6
CONTINUOUS
 62
     5
 10
188.30015258939599
 20
120.0000000009597
 30
0.0
 11
188.30015258939599
 21
80.000000000640057
 31
0.0
  0
ARC
  8
DETAIL
  6
CONTINUOUS
 62
     5
 10
183.30015258935779
 20
85.000000000679961
 30
0.0
 40
5.00000000004
 50
270.0
 51
0.0
  0
LINE
  8
NOTE
  6
CONTINUOUS
 62
     4
 10
190.70000000152689
 20
100.0000000007996
 30
0.0
 11
148.5000000011878
 21
100.0000000007999
 31
0.0
  0
ARC
  8
DETAIL
  6
CONTINUOUS
 62
     5
 10
-172.30015258926869
 20
100.0000000007997
 30
0.0
 40
13.000000000103739
 50
43.049115037553783
 51
136.9509201997497
  0
ARC
  8
DETAIL
  6
CONTINUOUS
 62
     5
 10
-172.30015258926869
 20
100.0000000007997
 30
0.0
 40
9.5000000000759997
 50
50.833235747794753
 51
129.1667107161135
  0
LINE
  8
DETAIL
  6
CONTINUOUS
 62
     5
 10
-157.30015258914861
 20
120.0000000009597
 30
0.0
 11
-188.30015258939599
 21
120.0000000009597
 31
0.0
  0
ARC
  8
DETAIL
  6
CONTINUOUS
 62
     5
 10
-183.30015258935779
 20
115.0000000009196
 30
0.0
 40
5.00000000004
 50
90.0
 51
180.0
  0
ARC
  8
DETAIL
  6
CONTINUOUS
 62
     5
 10
-172.30015258926869
 20
100.0000000007997
 30
0.0
 40
9.5000000000760121
 50
230.8332892838865
 51
309.16678155503109
  0
LINE
  8
DETAIL
  6
CONTINUOUS
 62
     5
 10
-166.3001525892214
 20
92.634536743904846
 30
0.0
 11
-166.3001525892214
 21
107.36546039667169
 31
0.0
  0
LINE
  8
DETAIL
  6
CONTINUOUS
 62
     5
 10
-162.80015258919229
 20
91.125885010494358
 30
0.0
 11
-162.80015258919229
 21
108.8741197594767
 31
0.0
  0
LINE
  8
DETAIL
  6
CONTINUOUS
 62
     5
 10
-178.30015258931601
 20
92.634536743904846
 30
0.0
 11
-178.30015258931601
 21
107.36545993218679
 31
0.0
  0
LINE
  8
DETAIL
  6
CONTINUOUS
 62
     5
 10
-181.80015258934509
 20
91.125880326079596
 30
0.0
 11
-181.80015258934509
 21
108.87411967551979
 31
0.0
  0
ARC
  8
DETAIL
  6
CONTINUOUS
 62
     5
 10
-172.30015258926869
 20
100.0000000007997
 30
0.0
 40
13.000000000103791
 50
223.04907980024319
 51
316.95093641623669
  0
LINE
  8
NOTE
  6
CONTINUOUS
 62
     4
 10
-172.30015258926869
 20
131.08772426675259
 30
0.0
 11
-172.30015258926869
 21
71.087725039525026
 31
0.0
  0
LINE
  8
DETAIL
  6
CONTINUOUS
 62
     5
 10
-157.30015258914861
 20
80.000000000639716
 30
0.0
 11
-188.30015258939599
 21
80.000000000639716
 31
0.0
  0
LINE
  8
DETAIL
  6
CONTINUOUS
 62
     5
 10
-157.30015258914861
 20
80.000000000639716
 30
0.0
 11
-157.30015258914861
 21
120.0000000009597
 31
0.0
  0
LINE
  8
DETAIL
  6
CONTINUOUS
 62
     5
 10
-188.30015258939599
 20
120.0000000009597
 30
0.0
 11
-188.30015258939599
 21
80.000000000639716
 31
0.0
  0
ARC
  8
DETAIL
  6
CONTINUOUS
 62
     5
 10
-183.30015258935779
 20
85.000000000679734
 30
0.0
 40
5.00000000004
 50
180.0
 51
270.0
  0
LINE
  8
NOTE
  6
CONTINUOUS
 62
     4
 10
-190.70000000152689
 20
100.0000000007993
 30
0.0
 11
-148.50000000118959
 21
100.0000000007999
 31
0.0
  0
ARC
  8
DETAIL
  6
CONTINUOUS
 62
     5
 10
-172.30015258926869
 20
-100.0000000007998
 30
0.0
 40
13.00000000010381
 50
223.04907980024319
 51
316.9508849624462
  0
ARC
  8
DETAIL
  6
CONTINUOUS
 62
     5
 10
-172.30015258926869
 20
-100.0000000007998
 30
0.0
 40
9.5000000000760121
 50
230.8332892838865
 51
309.16676425220521
  0
LINE
  8
DETAIL
  6
CONTINUOUS
 62
     5
 10
-157.30015258914861
 20
-120.00000000096
 30
0.0
 11
-188.30015258939599
 21
-120.00000000096
 31
0.0
  0
ARC
  8
DETAIL
  6
CONTINUOUS
 62
     5
 10
-183.30015258935779
 20
-115.00000000092
 30
0.0
 40
5.00000000004
 50
180.0
 51
270.0
  0
ARC
  8
DETAIL
  6
CONTINUOUS
 62
     5
 10
-172.30015258926869
 20
-100.0000000007998
 30
0.0
 40
9.5000000000759872
 50
50.833218444968892
 51
129.1667107161135
  0
LINE
  8
DETAIL
  6
CONTINUOUS
 62
     5
 10
-166.3001525892214
 20
-92.63453674390496
 30
0.0
 11
-166.3001525892214
 21
-107.36546039667181
 31
0.0
  0
LINE
  8
DETAIL
  6
CONTINUOUS
 62
     5
 10
-162.80015258919229
 20
-91.125885010494358
 30
0.0
 11
-162.80015258919229
 21
-108.8741197594768
 31
0.0
  0
LINE
  8
DETAIL
  6
CONTINUOUS
 62
     5
 10
-178.30015258931601
 20
-92.63453674390496
 30
0.0
 11
-178.30015258931601
 21
-107.36545993218679
 31
0.0
  0
LINE
  8
DETAIL
  6
CONTINUOUS
 62
     5
 10
-181.80015258934509
 20
-91.125880326079709
 30
0.0
 11
-181.80015258934509
 21
-108.87411967552001
 31
0.0
  0
ARC
  8
DETAIL
  6
CONTINUOUS
 62
     5
 10
-172.30015258926869
 20
-100.0000000007998
 30
0.0
 40
13.00000000010389
 50
43.049063583763292
 51
136.9509201997497
  0
LINE
  8
NOTE
  6
CONTINUOUS
 62
     4
 10
-172.30015258926869
 20
-131.08772426675301
 30
0.0
 11
-172.30015258926869
 21
-71.087725039525253
 31
0.0
  0
LINE
  8
DETAIL
  6
CONTINUOUS
 62
     5
 10
-157.30015258914861
 20
-80.00000000063983
 30
0.0
 11
-188.30015258939599
 21
-80.00000000063983
 31
0.0
  0
LINE
  8
DETAIL
  6
CONTINUOUS
 62
     5
 10
-157.30015258914861
 20
-80.00000000063983
 30
0.0
 11
-157.30015258914861
 21
-120.00000000096
 31
0.0
  0
LINE
  8
DETAIL
  6
CONTINUOUS
 62
     5
 10
-188.30015258939599
 20
-120.00000000096
 30
0.0
 11
-188.30015258939599
 21
-80.00000000063983
 31
0.0
  0
ARC
  8
DETAIL
  6
CONTINUOUS
 62
     5
 10
-183.30015258935779
 20
-85.000000000679847
 30
0.0
 40
5.00000000004
 50
90.0
 51
180.0
  0
LINE
  8
NOTE
  6
CONTINUOUS
 62
     4
 10
-190.70000000152689
 20
-100.0000000007997
 30
0.0
 11
-148.50000000118959
 21
-100.0000000008001
 31
0.0
  0
ARC
  8
DETAIL
  6
CONTINUOUS
 62
     5
 10
172.30015258926869
 20
-100.0000000007998
 30
0.0
 40
13.0000000001037
 50
223.0491150375538
 51
316.95092019975681
  0
ARC
  8
DETAIL
  6
CONTINUOUS
 62
     5
 10
172.30015258926869
 20
-100.0000000007998
 30
0.0
 40
9.5000000000759872
 50
230.83323574779479
 51
309.16671071611353
  0
LINE
  8
DETAIL
  6
CONTINUOUS
 62
     5
 10
157.30015258914861
 20
-120.00000000096
 30
0.0
 11
188.30015258939599
 21
-120.00000000096
 31
0.0
  0
ARC
  8
DETAIL
  6
CONTINUOUS
 62
     5
 10
183.30015258935779
 20
-115.00000000092
 30
0.0
 40
5.00000000004
 50
270.0
 51
0.0
  0
ARC
  8
DETAIL
  6
CONTINUOUS
 62
     5
 10
172.30015258926869
 20
-100.0000000007998
 30
0.0
 40
9.5000000000760121
 50
50.833289283886522
 51
129.16678155503109
  0
LINE
  8
DETAIL
  6
CONTINUOUS
 62
     5
 10
166.3001525892214
 20
-92.63453674390496
 30
0.0
 11
166.3001525892214
 21
-107.36546039667181
 31
0.0
  0
LINE
  8
DETAIL
  6
CONTINUOUS
 62
     5
 10
162.80015258919411
 20
-91.125885010494358
 30
0.0
 11
162.80015258919411
 21
-108.8741197594768
 31
0.0
  0
LINE
  8
DETAIL
  6
CONTINUOUS
 62
     5
 10
178.3001525893178
 20
-92.63453674390496
 30
0.0
 11
178.3001525893178
 21
-107.36545993218679
 31
0.0
  0
LINE
  8
DETAIL
  6
CONTINUOUS
 62
     5
 10
181.80015258934509
 20
-91.125880326079709
 30
0.0
 11
181.80015258934509
 21
-108.87411967552001
 31
0.0
  0
ARC
  8
DETAIL
  6
CONTINUOUS
 62
     5
 10
172.30015258926869
 20
-100.0000000007998
 30
0.0
 40
13.000000000103791
 50
43.049079800243177
 51
136.95093641623669
  0
LINE
  8
NOTE
  6
CONTINUOUS
 62
     4
 10
172.30015258926869
 20
-131.08772426675301
 30
0.0
 11
172.30015258926869
 21
-71.087725039525253
 31
0.0
  0
LINE
  8
DETAIL
  6
CONTINUOUS
 62
     5
 10
157.30015258914861
 20
-80.00000000063983
 30
0.0
 11
188.30015258939599
 21
-80.00000000063983
 31
0.0
  0
LINE
  8
DETAIL
  6
CONTINUOUS
 62
     5
 10
157.30015258914861
 20
-80.00000000063983
 30
0.0
 11
157.30015258914861
 21
-120.00000000096
 31
0.0
  0
LINE
  8
DETAIL
  6
CONTINUOUS
 62
     5
 10
188.30015258939599
 20
-120.00000000096
 30
0.0
 11
188.30015258939599
 21
-80.00000000063983
 31
0.0
  0
ARC
  8
DETAIL
  6
CONTINUOUS
 62
     5
 10
183.30015258935779
 20
-85.000000000679847
 30
0.0
 40
5.00000000004
 50
0.0
 51
90.0
  0
LINE
  8
NOTE
  6
CONTINUOUS
 62
     4
 10
190.70000000152689
 20
-100.0000000007997
 30
0.0
 11
148.5000000011878
 21
-100.0000000008001
 31
0.0
  0
CIRCLE
  8
DETAIL
  6
CONTINUOUS
 62
     5
 10
22.999997288276059
 20
2.000000000015802
 30
0.0
 40
41.000000000328008
  0
ARC
  8
OUTLINE
  6
CONTINUOUS
 62
     3
 10
201.00000000160981
 20
-201.00000000160861
 30
0.0
 40
14.000000000111999
 50
270.0
 51
0.0
  0
LINE
  8
OUTLINE
  6
CONTINUOUS
 62
     3
 10
215.00000000172079
 20
201.0000000016081
 30
0.0
 11
215.00000000172079
 21
-201.00000000160861
 31
0.0
  0
LINE
  8
OUTLINE
  6
CONTINUOUS
 62
     3
 10
201.00000000160981
 20
-215.00000000172051
 30
0.0
 11
-5.5000000000418368
 21
-215.00000000172051
 31
0.0
  0
ARC
  8
OUTLINE
  6
CONTINUOUS
 62
     3
 10
201.00000000160981
 20
201.0000000016081
 30
0.0
 40
14.00000000011198
 50
0.0
 51
90.0
  0
LINE
  8
OUTLINE
  6
CONTINUOUS
 62
     3
 10
201.00000000160981
 20
215.00000000172031
 30
0.0
 11
-201.00000000160799
 21
215.00000000172039
 31
0.0
  0
ARC
  8
OUTLINE
  6
CONTINUOUS
 62
     3
 10
-201.00000000160799
 20
201.00000000160821
 30
0.0
 40
14.000000000112021
 50
90.0
 51
180.0
  0
LINE
  8
OUTLINE
  6
CONTINUOUS
 62
     3
 10
-215.00000000171889
 20
-201.00000000160861
 30
0.0
 11
-215.00000000171889
 21
201.00000000160821
 31
0.0
  0
ARC
  8
OUTLINE
  6
CONTINUOUS
 62
     3
 10
-201.00000000160799
 20
-201.00000000160861
 30
0.0
 40
14.000000000111999
 50
180.0
 51
270.0
  0
LINE
  8
OUTLINE
  6
CONTINUOUS
 62
     3
 10
-165.50000000132241
 20
-215.00000000172051
 30
0.0
 11
-201.00000000160799
 21
-215.00000000172051
 31
0.0
  0
LINE
  8
OUTLINE
  6
CONTINUOUS
 62
     3
 10
-5.5000000000418368
 20
-155.60300000124451
 30
0.0
 11
-5.5000000000418368
 21
-229.10300000183261
 31
0.0
  0
LINE
  8
OUTLINE
  6
CONTINUOUS
 62
     3
 10
-165.50000000132241
 20
-155.60300000124451
 30
0.0
 11
-165.50000000132241
 21
-229.10300000183261
 31
0.0
  0
LINE
  8
OUTLINE
  6
CONTINUOUS
 62
     3
 10
-157.4997100842684
 20
-269.33113110639277
 30
0.0
 11
-157.4997100842684
 21
-295.00270398185188
 31
0.0
  0
LINE
  8
OUTLINE
  6
CONTINUOUS
 62
     3
 10
-161.50000000129151
 20
-263.46688015867522
 30
0.0
 11
-161.50000000129151
 21
-238.50270398139989
 31
0.0
  0
ARC
  8
OUTLINE
  6
CONTINUOUS
 62
     3
 10
-159.0000000012715
 20
-263.46688015867522
 30
0.0
 40
2.50000000002
 50
180.0
 51
224.99999999999079
  0
LINE
  8
OUTLINE
  6
CONTINUOUS
 62
     3
 10
-158.0854965218987
 20
-267.91691754400858
 30
0.0
 11
-160.76776695425181
 21
-265.23464711165548
 31
0.0
  0
ARC
  8
OUTLINE
  6
CONTINUOUS
 62
     3
 10
-159.49971008428469
 20
-269.33113110639277
 30
0.0
 40
2.0000000000160001
 50
0.0
 51
44.999999999990777
  0
ARC
  8
OUTLINE
  6
CONTINUOUS
 62
     3
 10
-162.50000000130061
 20
-229.10300000183261
 30
0.0
 40
3.0000000000239999
 50
180.0
 51
207.04043027400189
  0
LINE
  8
OUTLINE
  6
CONTINUOUS
 62
     3
 10
-161.88259918366381
 20
-236.91153706926389
 30
0.0
 11
-165.17205784500581
 21
-230.4668573550924
 31
0.0
  0
ARC
  8
OUTLINE
  6
CONTINUOUS
 62
     3
 10
-165.0000000013188
 20
-238.50270398139989
 30
0.0
 40
3.5000000000279998
 50
0.0
 51
27.040430273997561
  0
LINE
  8
OUTLINE
  6
CONTINUOUS
 62
     3
 10
-13.50028991709951
 20
-269.33113110639329
 30
0.0
 11
-13.50028991709951
 21
-295.00270398185228
 31
0.0
  0
LINE
  8
OUTLINE
  6
CONTINUOUS
 62
     3
 10
-9.5000000000763976
 20
-263.46688015867522
 30
0.0
 11
-9.5000000000763976
 21
-238.5027039814
 31
0.0
  0
ARC
  8
OUTLINE
  6
CONTINUOUS
 62
     3
 10
-12.00000000009641
 20
-263.46688015867522
 30
0.0
 40
2.5000000000200839
 50
315.00000000000921
 51
0.0
  0
ARC
  8
OUTLINE
  6
CONTINUOUS
 62
     3
 10
-11.500289917083141
 20
-269.33113110639329
 30
0.0
 40
2.0000000000160361
 50
134.9999999999724
 51
180.0
  0
LINE
  8
OUTLINE
  6
CONTINUOUS
 62
     3
 10
-12.914503479467379
 20
-267.91691754400858
 30
0.0
 11
-10.2322330471161
 21
-265.23464711165548
 31
0.0
  0
LINE
  8
OUTLINE
  6
CONTINUOUS
 62
     3
 10
-9.1174008177022188
 20
-236.91153706926389
 30
0.0
 11
-5.8279421563620417
 21
-230.4668573550924
 31
0.0
  0
ARC
  8
OUTLINE
  6
CONTINUOUS
 62
     3
 10
-8.5000000000673026
 20
-229.10300000183261
 30
0.0
 40
3.0000000000242149
 50
332.95956972600243
 51
0.0
  0
ARC
  8
OUTLINE
  6
CONTINUOUS
 62
     3
 10
-6.0000000000491127
 20
-238.5027039814
 30
0.0
 40
3.500000000027784
 50
152.9595697260024
 51
180.0
  0
ARC
  8
OUTLINE
  6
CONTINUOUS
 62
     3
 10
-156.99971008426471
 20
-295.00270398185188
 30
0.0
 40
0.5000000000039999
 50
180.0
 51
270.0
  0
LINE
  8
OUTLINE
  6
CONTINUOUS
 62
     3
 10
-14.000289917103149
 20
-295.50270398185648
 30
0.0
 11
-156.99971008426471
 21
-295.50270398185592
 31
0.0
  0
ARC
  8
OUTLINE
  6
CONTINUOUS
 62
     3
 10
-14.000289917103149
 20
-295.00270398185228
 30
0.0
 40
0.500000000003976
 50
270.0
 51
0.0
  0
LINE
  8
BASIS
  6
DASHDOT
 62
     6
 10
260.0
 20
0.0
 30
0.0
 11
-260.0
 21
0.0
 31
0.0
  0
LINE
  8
BASIS
  6
DASHDOT
 62
     6
 10
0.0
 20
260.0
 30
0.0
 11
0.0
 21
-320.0
 31
0.0
  0
LINE
  8
NOTE
  6
CONTINUOUS
 62
     4
 10
-200.0
 20
-80.0
 30
0.0
 11
-200.0
 21
-120.0
 31
0.0
  0
LINE
  8
NOTE
  6
CONTINUOUS
 62
     4
 10
-220.0
 20
-100.0
 30
0.0
 11
-180.0
 21
-100.0
 31
0.0
  0
LINE
  8
DETAIL
  6
CONTINUOUS
 62
     5
 10
-201.50718299999971
 20
-97.5
 30
0.0
 11
-198.50927200000021
 21
-97.5
 31
0.0
  0
LINE
  8
DETAIL
  6
CONTINUOUS
 62
     5
 10
-201.50718299999971
 20
-102.5
 30
0.0
 11
-198.49701300000021
 21
-102.5
 31
0.0
  0
ARC
  8
DETAIL
  6
CONTINUOUS
 62
     5
 10
-201.5
 20
-99.999998000000005
 30
0.0
 40
2.5
 50
89.931548000000177
 51
269.83538800000127
  0
ARC
  8
DETAIL
  6
CONTINUOUS
 62
     5
 10
-198.5
 20
-100.00000199999999
 30
0.0
 40
2.5
 50
269.78751000000523
 51
90.212489999994816
  0
LINE
  8
NOTE
  6
CONTINUOUS
 62
     4
 10
-200.0
 20
80.0
 30
0.0
 11
-200.0
 21
120.0
 31
0.0
  0
LINE
  8
NOTE
  6
CONTINUOUS
 62
     4
 10
-220.0
 20
100.0
 30
0.0
 11
-180.0
 21
100.0
 31
0.0
  0
ARC
  8
DETAIL
  6
CONTINUOUS
 62
     5
 10
-198.5
 20
100.00000199999999
 30
0.0
 40
2.5
 50
269.78751000000523
 51
90.212489999994816
  0
ARC
  8
DETAIL
  6
CONTINUOUS
 62
     5
 10
-201.5
 20
99.999998000000005
 30
0.0
 40
2.5
 50
90.164611999998712
 51
270.06845199999981
  0
LINE
  8
DETAIL
  6
CONTINUOUS
 62
     5
 10
-201.50718299999971
 20
102.5
 30
0.0
 11
-198.49701300000021
 21
102.5
 31
0.0
  0
LINE
  8
DETAIL
  6
CONTINUOUS
 62
     5
 10
-201.50718299999971
 20
97.5
 30
0.0
 11
-198.50927200000021
 21
97.5
 31
0.0
  0
LINE
  8
NOTE
  6
CONTINUOUS
 62
     4
 10
-120.0
 20
200.0
 30
0.0
 11
-80.0
 21
200.0
 31
0.0
  0
LINE
  8
NOTE
  6
CONTINUOUS
 62
     4
 10
-100.0
 20
180.0
 30
0.0
 11
-100.0
 21
220.0
 31
0.0
  0
LINE
  8
DETAIL
  6
CONTINUOUS
 62
     5
 10
-102.5
 20
201.50718299999991
 30
0.0
 11
-102.5
 21
198.50927200000001
 31
0.0
  0
LINE
  8
DETAIL
  6
CONTINUOUS
 62
     5
 10
-97.5
 20
201.50718299999991
 30
0.0
 11
-97.5
 21
198.4970129999999
 31
0.0
  0
ARC
  8
DETAIL
  6
CONTINUOUS
 62
     5
 10
-100.0000019999998
 20
201.5
 30
0.0
 40
2.5
 50
0.1646119999987282
 51
180.06845199999981
  0
ARC
  8
DETAIL
  6
CONTINUOUS
 62
     5
 10
-99.999998000000232
 20
198.5
 30
0.0
 40
2.5
 50
179.7875100000052
 51
0.2124899999948162
  0
LINE
  8
NOTE
  6
CONTINUOUS
 62
     4
 10
120.0
 20
-200.0
 30
0.0
 11
80.0
 21
-200.0
 31
0.0
  0
LINE
  8
NOTE
  6
CONTINUOUS
 62
     4
 10
100.0
 20
-180.0
 30
0.0
 11
100.0
 21
-220.0
 31
0.0
  0
LINE
  8
DETAIL
  6
CONTINUOUS
 62
     5
 10
102.5
 20
-201.50718299999991
 30
0.0
 11
102.5
 21
-198.50927200000001
 31
0.0
  0
LINE
  8
DETAIL
  6
CONTINUOUS
 62
     5
 10
97.5
 20
-201.50718299999991
 30
0.0
 11
97.5
 21
-198.49701300000001
 31
0.0
  0
ARC
  8
DETAIL
  6
CONTINUOUS
 62
     5
 10
100.0000019999998
 20
-201.5
 30
0.0
 40
2.5
 50
180.1646119999987
 51
0.0684519999998183
  0
ARC
  8
DETAIL
  6
CONTINUOUS
 62
     5
 10
99.999998000000232
 20
-198.5
 30
0.0
 40
2.5
 50
359.78751000000523
 51
180.2124899999948
  0
LINE
  8
NOTE
  6
CONTINUOUS
 62
     4
 10
200.0
 20
-80.0
 30
0.0
 11
200.0
 21
-120.0
 31
0.0
  0
CIRCLE
  8
DETAIL
  6
CONTINUOUS
 62
     5
 10
130.0
 20
-118.0
 30
0.0
 40
14.25
  0
LINE
  8
NOTE
  6
CONTINUOUS
 62
     4
 10
220.0
 20
-100.0
 30
0.0
 11
180.0
 21
-100.0
 31
0.0
  0
ARC
  8
DETAIL
  6
CONTINUOUS
 62
     5
 10
198.5
 20
-100.00000199999999
 30
0.0
 40
2.5
 50
89.787510000005199
 51
270.21248999999477
  0
ARC
  8
DETAIL
  6
CONTINUOUS
 62
     5
 10
201.5
 20
-99.999998000000005
 30
0.0
 40
2.5
 50
270.16461199999873
 51
90.068451999999837
  0
LINE
  8
DETAIL
  6
CONTINUOUS
 62
     5
 10
201.50718299999971
 20
-102.5
 30
0.0
 11
198.49701300000021
 21
-102.5
 31
0.0
  0
LINE
  8
DETAIL
  6
CONTINUOUS
 62
     5
 10
201.50718299999971
 20
-97.5
 30
0.0
 11
198.50927200000021
 21
-97.5
 31
0.0
  0
LINE
  8
NOTE
  6
CONTINUOUS
 62
     4
 10
200.0
 20
80.0
 30
0.0
 11
200.0
 21
120.0
 31
0.0
  0
LINE
  8
NOTE
  6
CONTINUOUS
 62
     4
 10
220.0
 20
100.0
 30
0.0
 11
180.0
 21
100.0
 31
0.0
  0
LINE
  8
DETAIL
  6
CONTINUOUS
 62
     5
 10
201.50718299999971
 20
97.5
 30
0.0
 11
198.50927200000021
 21
97.5
 31
0.0
  0
LINE
  8
DETAIL
  6
CONTINUOUS
 62
     5
 10
201.50718299999971
 20
102.5
 30
0.0
 11
198.49701300000021
 21
102.5
 31
0.0
  0
ARC
  8
DETAIL
  6
CONTINUOUS
 62
     5
 10
201.5
 20
99.999998000000005
 30
0.0
 40
2.5
 50
269.93154800000019
 51
89.835388000001302
  0
ARC
  8
DETAIL
  6
CONTINUOUS
 62
     5
 10
198.5
 20
100.00000199999999
 30
0.0
 40
2.5
 50
89.787510000005199
 51
270.21248999999477
  0
LINE
  8
NOTE
  6
CONTINUOUS
 62
     4
 10
120.0
 20
200.0
 30
0.0
 11
80.0
 21
200.0
 31
0.0
  0
LINE
  8
NOTE
  6
CONTINUOUS
 62
     4
 10
100.0
 20
180.0
 30
0.0
 11
100.0
 21
220.0
 31
0.0
  0
ARC
  8
DETAIL
  6
CONTINUOUS
 62
     5
 10
99.999998000000232
 20
198.5
 30
0.0
 40
2.5
 50
179.7875100000052
 51
0.2124899999948162
  0
ARC
  8
DETAIL
  6
CONTINUOUS
 62
     5
 10
100.0000019999998
 20
201.5
 30
0.0
 40
2.5
 50
359.93154800000019
 51
179.8353880000013
  0
LINE
  8
DETAIL
  6
CONTINUOUS
 62
     5
 10
97.5
 20
201.50718299999991
 30
0.0
 11
97.5
 21
198.4970129999999
 31
0.0
  0
LINE
  8
DETAIL
  6
CONTINUOUS
 62
     5
 10
102.5
 20
201.50718299999991
 30
0.0
 11
102.5
 21
198.50927200000001
 31
0.0
  0
CIRCLE
  8
FIX
  6
CONTINUOUS
 62
    11
 10
200.0
 20
-100.0
 30
0.0
 40
5.0
  0
CIRCLE
  8
FIX
  6
CONTINUOUS
 62
    11
 10
200.0
 20
100.0
 30
0.0
 40
5.0
  0
CIRCLE
  8
FIX
  6
CONTINUOUS
 62
    11
 10
100.0
 20
200.0
 30
0.0
 40
5.0
  0
CIRCLE
  8
FIX
  6
CONTINUOUS
 62
    11
 10
-200.0
 20
100.0
 30
0.0
 40
5.0
  0
CIRCLE
  8
FIX
  6
CONTINUOUS
 62
    11
 10
-100.0
 20
200.0
 30
0.0
 40
5.0
  0
CIRCLE
  8
FIX
  6
CONTINUOUS
 62
    11
 10
100.0
 20
-200.0
 30
0.0
 40
5.0
  0
CIRCLE
  8
FIX
  6
CONTINUOUS
 62
    11
 10
-200.0
 20
-100.0
 30
0.0
 40
5.0
  0
CIRCLE
  8
FIX
  6
CONTINUOUS
 62
    11
 10
-172.30015258926869
 20
-100.0000000007999
 30
0.0
 40
5.0
  0
CIRCLE
  8
FIX
  6
CONTINUOUS
 62
    11
 10
-172.30015258926869
 20
100.0000000007996
 30
0.0
 40
5.0
  0
CIRCLE
  8
FIX
  6
CONTINUOUS
 62
    11
 10
172.30015258926869
 20
-100.0000000007999
 30
0.0
 40
5.0
  0
CIRCLE
  8
FIX
  6
CONTINUOUS
 62
    11
 10
172.30015258926869
 20
100.0000000007996
 30
0.0
 40
5.0
  0
LINE
  8
SIZE
  6
CONTINUOUS
 62
    30
 10
411.73003574178802
 20
384.53697438202471
 30
0.0
 11
60.776366235370922
 21
39.174533611182262
 31
0.0
  0
LINE
  8
SIZE
  6
CONTINUOUS
 62
    30
 10
-14.776371658818791
 20
-35.17453361115065
 30
0.0
 11
-23.329511797730451
 21
-43.591409145702301
 31
0.0
  0
TEXT
  8
SIZE
  6
CONTINUOUS
 62
    30
 10
262.59463503128961
 20
272.85236614909218
 30
0.0
 40
64.0
  1
φ82
 50
44.539940381561451
 41
0.9
 72
     1
 11
324.56824472351991
 21
333.83864145087199
 31
0.0
  0
LINE
  8
SIZE
  6
CONTINUOUS
 62
    30
 10
-6.2232315199071309
 20
-26.757658076599
 30
0.0
 11
52.223226096459257
 21
30.757658076630609
 31
0.0
  0
CIRCLE
  8
SIZE
  6
CONTINUOUS
 62
    30
 10
-6.2232315199071309
 20
-26.757658076599
 30
0.0
 40
6.0
  0
LINE
  8
SIZE
  6
CONTINUOUS
 62
    30
 10
-6.2232315199071309
 20
-26.757658076599
 30
0.0
 11
-14.776371658818791
 21
-35.17453361115065
 31
0.0
  0
CIRCLE
  8
SIZE
  6
CONTINUOUS
 62
    30
 10
52.223226096459257
 20
30.757658076630609
 30
0.0
 40
6.0
  0
LINE
  8
SIZE
  6
CONTINUOUS
 62
    30
 10
52.223226096459257
 20
30.757658076630609
 30
0.0
 11
60.776366235370922
 21
39.174533611182262
 31
0.0
  0
POINT
  8
DEFPOINTS
  6
CONTINUOUS
 62
    30
 10
52.223226096459257
 20
30.757658076630609
 30
0.0
  0
POINT
  8
DEFPOINTS
  6
CONTINUOUS
 62
    30
 10
-6.2232315199071309
 20
-26.757658076599
 30
0.0
  0
LINE
  8
SIZE
  6
CONTINUOUS
 62
    30
 10
-100.0
 20
240.0
 30
0.0
 11
-100.0
 21
369.0
 31
0.0
  0
LINE
  8
SIZE
  6
CONTINUOUS
 62
    30
 10
100.0
 20
240.0
 30
0.0
 11
100.0
 21
369.0
 31
0.0
  0
LINE
  8
SIZE
  6
CONTINUOUS
 62
    30
 10
-88.0
 20
349.0
 30
0.0
 11
88.0
 21
349.0
 31
0.0
  0
CIRCLE
  8
SIZE
  6
CONTINUOUS
 62
    30
 10
-100.0
 20
349.0
 30
0.0
 40
6.0
  0
LINE
  8
SIZE
  6
CONTINUOUS
 62
    30
 10
-100.0
 20
349.0
 30
0.0
 11
-88.0
 21
349.0
 31
0.0
  0
CIRCLE
  8
SIZE
  6
CONTINUOUS
 62
    30
 10
100.0
 20
349.0
 30
0.0
 40
6.0
  0
LINE
  8
SIZE
  6
CONTINUOUS
 62
    30
 10
100.0
 20
349.0
 30
0.0
 11
88.0
 21
349.0
 31
0.0
  0
TEXT
  8
SIZE
  6
CONTINUOUS
 62
    30
 10
-74.057142857144214
 20
374.0
 30
0.0
 40
64.0
  1
200
 41
0.9
 72
     1
 11
-0.0000000000013642
 21
374.0
 31
0.0
  0
POINT
  8
DEFPOINTS
  6
CONTINUOUS
 62
    30
 10
-100.0
 20
220.0
 30
0.0
  0
POINT
  8
DEFPOINTS
  6
CONTINUOUS
 62
    30
 10
100.0
 20
220.0
 30
0.0
  0
POINT
  8
DEFPOINTS
  6
CONTINUOUS
 62
    30
 10
100.0
 20
349.0
 30
0.0
  0
LINE
  8
SIZE
  6
CONTINUOUS
 62
    30
 10
-187.30000000149809
 20
207.3000000014988
 30
0.0
 11
-187.30000000149809
 21
639.02427749860817
 31
0.0
  0
LINE
  8
SIZE
  6
CONTINUOUS
 62
    30
 10
187.30000000149991
 20
204.17721260675251
 30
0.0
 11
187.30000000149991
 21
639.02427749860817
 31
0.0
  0
LINE
  8
SIZE
  6
CONTINUOUS
 62
    30
 10
-175.30000000149809
 20
619.02427749860817
 30
0.0
 11
175.30000000149991
 21
619.02427749860817
 31
0.0
  0
CIRCLE
  8
SIZE
  6
CONTINUOUS
 62
    30
 10
-187.30000000149809
 20
619.02427749860817
 30
0.0
 40
6.0
  0
LINE
  8
SIZE
  6
CONTINUOUS
 62
    30
 10
-187.30000000149809
 20
619.02427749860817
 30
0.0
 11
-175.30000000149809
 21
619.02427749860817
 31
0.0
  0
CIRCLE
  8
SIZE
  6
CONTINUOUS
 62
    30
 10
187.30000000149991
 20
619.02427749860817
 30
0.0
 40
6.0
  0
LINE
  8
SIZE
  6
CONTINUOUS
 62
    30
 10
187.30000000149991
 20
619.02427749860817
 30
0.0
 11
175.30000000149991
 21
619.02427749860817
 31
0.0
  0
TEXT
  8
SIZE
  6
CONTINUOUS
 62
    30
 10
-110.537142857142
 20
644.02427749860817
 30
0.0
 40
64.0
  1
□375
 41
0.9
 72
     1
 11
0.0000000000009095
 21
644.02427749860817
 31
0.0
  0
POINT
  8
DEFPOINTS
  6
CONTINUOUS
 62
    30
 10
-187.30000000149809
 20
187.3000000014988
 30
0.0
  0
POINT
  8
DEFPOINTS
  6
CONTINUOUS
 62
    30
 10
187.30000000149991
 20
184.17721260675251
 30
0.0
  0
POINT
  8
DEFPOINTS
  6
CONTINUOUS
 62
    30
 10
187.30000000149991
 20
619.02427749860817
 30
0.0
  0
LINE
  8
SIZE
  6
CONTINUOUS
 62
    30
 10
-200.0
 20
140.0
 30
0.0
 11
-200.0
 21
772.76110400260222
 31
0.0
  0
LINE
  8
SIZE
  6
CONTINUOUS
 62
    30
 10
200.0
 20
140.0
 30
0.0
 11
200.0
 21
772.76110400260222
 31
0.0
  0
LINE
  8
SIZE
  6
CONTINUOUS
 62
    30
 10
-188.0
 20
752.76110400260222
 30
0.0
 11
188.0
 21
752.76110400260222
 31
0.0
  0
CIRCLE
  8
SIZE
  6
CONTINUOUS
 62
    30
 10
-200.0
 20
752.76110400260222
 30
0.0
 40
6.0
  0
LINE
  8
SIZE
  6
CONTINUOUS
 62
    30
 10
-200.0
 20
752.76110400260222
 30
0.0
 11
-188.0
 21
752.76110400260222
 31
0.0
  0
CIRCLE
  8
SIZE
  6
CONTINUOUS
 62
    30
 10
200.0
 20
752.76110400260222
 30
0.0
 40
6.0
  0
LINE
  8
SIZE
  6
CONTINUOUS
 62
    30
 10
200.0
 20
752.76110400260222
 30
0.0
 11
188.0
 21
752.76110400260222
 31
0.0
  0
TEXT
  8
SIZE
  6
CONTINUOUS
 62
    30
 10
-74.05714285714285
 20
777.76110400260222
 30
0.0
 40
64.0
  1
400
 41
0.9
 72
     1
 11
0.0
 21
777.76110400260222
 31
0.0
  0
POINT
  8
DEFPOINTS
  6
CONTINUOUS
 62
    30
 10
-200.0
 20
120.0
 30
0.0
  0
POINT
  8
DEFPOINTS
  6
CONTINUOUS
 62
    30
 10
200.0
 20
120.0
 30
0.0
  0
POINT
  8
DEFPOINTS
  6
CONTINUOUS
 62
    30
 10
200.0
 20
752.76110400260222
 30
0.0
  0
LINE
  8
SIZE
  6
CONTINUOUS
 62
    30
 10
-172.30015258926869
 20
151.08772426675259
 30
0.0
 11
-172.30015258926869
 21
498.24565724072909
 31
0.0
  0
LINE
  8
SIZE
  6
CONTINUOUS
 62
    30
 10
172.30015258926869
 20
151.08772426675301
 30
0.0
 11
172.30015258926869
 21
498.24565724072909
 31
0.0
  0
LINE
  8
SIZE
  6
CONTINUOUS
 62
    30
 10
-160.30015258926869
 20
478.24565724072909
 30
0.0
 11
160.30015258926869
 21
478.24565724072909
 31
0.0
  0
CIRCLE
  8
SIZE
  6
CONTINUOUS
 62
    30
 10
-172.30015258926869
 20
478.24565724072909
 30
0.0
 40
6.0
  0
LINE
  8
SIZE
  6
CONTINUOUS
 62
    30
 10
-172.30015258926869
 20
478.24565724072909
 30
0.0
 11
-160.30015258926869
 21
478.24565724072909
 31
0.0
  0
CIRCLE
  8
SIZE
  6
CONTINUOUS
 62
    30
 10
172.30015258926869
 20
478.24565724072909
 30
0.0
 40
6.0
  0
LINE
  8
SIZE
  6
CONTINUOUS
 62
    30
 10
172.30015258926869
 20
478.24565724072909
 30
0.0
 11
160.30015258926869
 21
478.24565724072909
 31
0.0
  0
TEXT
  8
SIZE
  6
CONTINUOUS
 62
    30
 10
-74.05714285714285
 20
503.24565724072909
 30
0.0
 40
64.0
  1
345
 41
0.9
 72
     1
 11
0.0
 21
503.24565724072909
 31
0.0
  0
POINT
  8
DEFPOINTS
  6
CONTINUOUS
 62
    30
 10
-172.30015258926869
 20
131.08772426675259
 30
0.0
  0
POINT
  8
DEFPOINTS
  6
CONTINUOUS
 62
    30
 10
172.30015258926869
 20
131.08772426675301
 30
0.0
  0
POINT
  8
DEFPOINTS
  6
CONTINUOUS
 62
    30
 10
172.30015258926869
 20
478.24565724072909
 30
0.0
  0
LINE
  8
SIZE
  6
CONTINUOUS
 62
    30
 10
-207.0
 20
220.0
 30
0.0
 11
-207.0
 21
901.69171372796973
 31
0.0
  0
LINE
  8
SIZE
  6
CONTINUOUS
 62
    30
 10
207.0
 20
220.0
 30
0.0
 11
207.0
 21
901.69171372796973
 31
0.0
  0
LINE
  8
SIZE
  6
CONTINUOUS
 62
    30
 10
-195.0
 20
881.69171372796973
 30
0.0
 11
195.0
 21
881.69171372796973
 31
0.0
  0
CIRCLE
  8
SIZE
  6
CONTINUOUS
 62
    30
 10
-207.0
 20
881.69171372796973
 30
0.0
 40
6.0
  0
LINE
  8
SIZE
  6
CONTINUOUS
 62
    30
 10
-207.0
 20
881.69171372796973
 30
0.0
 11
-195.0
 21
881.69171372796973
 31
0.0
  0
CIRCLE
  8
SIZE
  6
CONTINUOUS
 62
    30
 10
207.0
 20
881.69171372796973
 30
0.0
 40
6.0
  0
LINE
  8
SIZE
  6
CONTINUOUS
 62
    30
 10
207.0
 20
881.69171372796973
 30
0.0
 11
195.0
 21
881.69171372796973
 31
0.0
  0
TEXT
  8
SIZE
  6
CONTINUOUS
 62
    30
 10
-69.942857142857122
 20
906.69171372796973
 30
0.0
 40
64.0
  1
414
 41
0.9
 72
     1
 11
0.0
 21
906.69171372796973
 31
0.0
  0
POINT
  8
DEFPOINTS
  6
CONTINUOUS
 62
    30
 10
-207.0
 20
200.0
 30
0.0
  0
POINT
  8
DEFPOINTS
  6
CONTINUOUS
 62
    30
 10
207.0
 20
200.0
 30
0.0
  0
POINT
  8
DEFPOINTS
  6
CONTINUOUS
 62
    30
 10
207.0
 20
881.69171372796973
 30
0.0
  0
LINE
  8
SIZE
  6
CONTINUOUS
 62
    30
 10
-215.00000000171889
 20
221.00000000160821
 30
0.0
 11
-215.00000000171889
 21
1017.492673327042
 31
0.0
  0
LINE
  8
SIZE
  6
CONTINUOUS
 62
    30
 10
215.0000000017217
 20
221.0000000016081
 30
0.0
 11
215.0000000017217
 21
1017.492673327042
 31
0.0
  0
LINE
  8
SIZE
  6
CONTINUOUS
 62
    30
 10
-203.00000000171889
 20
997.49267332704221
 30
0.0
 11
203.0000000017217
 21
997.49267332704221
 31
0.0
  0
CIRCLE
  8
SIZE
  6
CONTINUOUS
 62
    30
 10
-215.00000000171889
 20
997.49267332704221
 30
0.0
 40
6.0
  0
LINE
  8
SIZE
  6
CONTINUOUS
 62
    30
 10
-215.00000000171889
 20
997.49267332704221
 30
0.0
 11
-203.00000000171889
 21
997.49267332704221
 31
0.0
  0
CIRCLE
  8
SIZE
  6
CONTINUOUS
 62
    30
 10
215.0000000017217
 20
997.49267332704221
 30
0.0
 40
6.0
  0
LINE
  8
SIZE
  6
CONTINUOUS
 62
    30
 10
215.0000000017217
 20
997.49267332704221
 30
0.0
 11
203.0000000017217
 21
997.49267332704221
 31
0.0
  0
TEXT
  8
SIZE
  6
CONTINUOUS
 62
    30
 10
-110.5371428571415
 20
1022.492673327042
 30
0.0
 40
64.0
  1
□430
 41
0.9
 72
     1
 11
0.0000000000013642
 21
1022.492673327042
 31
0.0
  0
POINT
  8
DEFPOINTS
  6
CONTINUOUS
 62
    30
 10
-215.00000000171889
 20
201.00000000160821
 30
0.0
  0
POINT
  8
DEFPOINTS
  6
CONTINUOUS
 62
    30
 10
215.0000000017217
 20
201.0000000016081
 30
0.0
  0
POINT
  8
DEFPOINTS
  6
CONTINUOUS
 62
    30
 10
215.0000000017217
 20
997.49267332704221
 30
0.0
  0
LINE
  8
SIZE
  6
CONTINUOUS
 62
    30
 10
-157.4997100842684
 20
-315.00270398185182
 30
0.0
 11
-157.4997100842684
 21
-630.92014915009906
 31
0.0
  0
LINE
  8
SIZE
  6
CONTINUOUS
 62
    30
 10
-13.50028991709951
 20
-315.00270398185228
 30
0.0
 11
-13.50028991709951
 21
-630.92014915009906
 31
0.0
  0
LINE
  8
SIZE
  6
CONTINUOUS
 62
    30
 10
-145.4997100842684
 20
-610.92014915009906
 30
0.0
 11
-25.500289917099511
 21
-610.92014915009906
 31
0.0
  0
LINE
  8
SIZE
  6
CONTINUOUS
 62
    30
 10
-13.50028991709951
 20
-610.92014915009906
 30
0.0
 11
248.72828151147181
 21
-610.92014915009906
 31
0.0
  0
CIRCLE
  8
SIZE
  6
CONTINUOUS
 62
    30
 10
-157.4997100842684
 20
-610.92014915009906
 30
0.0
 40
6.0
  0
LINE
  8
SIZE
  6
CONTINUOUS
 62
    30
 10
-157.4997100842684
 20
-610.92014915009906
 30
0.0
 11
-145.4997100842684
 21
-610.92014915009906
 31
0.0
  0
CIRCLE
  8
SIZE
  6
CONTINUOUS
 62
    30
 10
-13.50028991709951
 20
-610.92014915009906
 30
0.0
 40
6.0
  0
LINE
  8
SIZE
  6
CONTINUOUS
 62
    30
 10
-13.50028991709951
 20
-610.92014915009906
 30
0.0
 11
-25.500289917099511
 21
-610.92014915009906
 31
0.0
  0
TEXT
  8
SIZE
  6
CONTINUOUS
 62
    30
 10
13.35113865432923
 20
-575.25348248343244
 30
0.0
 40
64.0
  1
φ144
 41
0.9
 72
     1
 11
123.6139957971864
 21
-575.25348248343244
 31
0.0
  0
POINT
  8
DEFPOINTS
  6
CONTINUOUS
 62
    30
 10
-157.4997100842684
 20
-295.00270398185182
 30
0.0
  0
POINT
  8
DEFPOINTS
  6
CONTINUOUS
 62
    30
 10
-13.50028991709951
 20
-295.00270398185228
 30
0.0
  0
POINT
  8
DEFPOINTS
  6
CONTINUOUS
 62
    30
 10
-13.50028991709951
 20
-610.92014915009906
 30
0.0
  0
LINE
  8
SIZE
  6
CONTINUOUS
 62
    30
 10
-9.5000000000763976
 20
-283.46688015867511
 30
0.0
 11
-9.5000000000763976
 21
-787.9370455816171
 31
0.0
  0
LINE
  8
SIZE
  6
CONTINUOUS
 62
    30
 10
-161.50000000129151
 20
-283.46688015867511
 30
0.0
 11
-161.50000000129151
 21
-787.9370455816171
 31
0.0
  0
LINE
  8
SIZE
  6
CONTINUOUS
 62
    30
 10
-149.50000000129151
 20
-767.9370455816171
 30
0.0
 11
-21.500000000076401
 21
-767.9370455816171
 31
0.0
  0
LINE
  8
SIZE
  6
CONTINUOUS
 62
    30
 10
-9.5000000000763976
 20
-767.9370455816171
 30
0.0
 11
249.9857142856381
 21
-767.9370455816171
 31
0.0
  0
CIRCLE
  8
SIZE
  6
CONTINUOUS
 62
    30
 10
-161.50000000129151
 20
-767.9370455816171
 30
0.0
 40
6.0
  0
LINE
  8
SIZE
  6
CONTINUOUS
 62
    30
 10
-161.50000000129151
 20
-767.9370455816171
 30
0.0
 11
-149.50000000129151
 21
-767.9370455816171
 31
0.0
  0
CIRCLE
  8
SIZE
  6
CONTINUOUS
 62
    30
 10
-9.5000000000763976
 20
-767.9370455816171
 30
0.0
 40
6.0
  0
LINE
  8
SIZE
  6
CONTINUOUS
 62
    30
 10
-9.5000000000763976
 20
-767.9370455816171
 30
0.0
 11
-21.500000000076401
 21
-767.9370455816171
 31
0.0
  0
TEXT
  8
SIZE
  6
CONTINUOUS
 62
    30
 10
17.35142857135229
 20
-732.27037891495024
 30
0.0
 40
64.0
  1
φ152
 41
0.9
 72
     1
 11
126.24285714278081
 21
-732.27037891495024
 31
0.0
  0
POINT
  8
DEFPOINTS
  6
CONTINUOUS
 62
    30
 10
-9.5000000000763976
 20
-263.46688015867522
 30
0.0
  0
POINT
  8
DEFPOINTS
  6
CONTINUOUS
 62
    30
 10
-161.50000000129151
 20
-263.46688015867522
 30
0.0
  0
POINT
  8
DEFPOINTS
  6
CONTINUOUS
 62
    30
 10
-161.50000000129151
 20
-767.9370455816171
 30
0.0
  0
LINE
  8
SIZE
  6
CONTINUOUS
 62
    30
 10
-176.99971008426471
 20
-295.5027039818558
 30
0.0
 11
-419.59149051559228
 21
-295.50270398185569
 31
0.0
  0
LINE
  8
SIZE
  6
CONTINUOUS
 62
    30
 10
-177.6793506420199
 20
-268.5027039816398
 30
0.0
 11
-419.59149051559228
 21
-268.50270398163968
 31
0.0
  0
LINE
  8
SIZE
  6
CONTINUOUS
 62
    30
 10
-399.59149051559228
 20
-256.50270398163968
 30
0.0
 11
-399.59149051559228
 21
-244.5027039816398
 31
0.0
  0
LINE
  8
SIZE
  6
CONTINUOUS
 62
    30
 10
-399.59149051559228
 20
-307.50270398185569
 30
0.0
 11
-399.59149051559228
 21
-530.82124886411373
 31
0.0
  0
LINE
  8
SIZE
  6
CONTINUOUS
 62
    30
 10
-399.59149051559228
 20
-268.50270398163968
 30
0.0
 11
-399.59149051559228
 21
-295.50270398185569
 31
0.0
  0
CIRCLE
  8
SIZE
  6
CONTINUOUS
 62
    30
 10
-399.59149051559228
 20
-268.50270398163968
 30
0.0
 40
6.0
  0
LINE
  8
SIZE
  6
CONTINUOUS
 62
    30
 10
-399.59149051559228
 20
-268.50270398163968
 30
0.0
 11
-399.59149051559228
 21
-256.50270398163968
 31
0.0
  0
CIRCLE
  8
SIZE
  6
CONTINUOUS
 62
    30
 10
-399.59149051559228
 20
-295.50270398185569
 30
0.0
 40
6.0
  0
LINE
  8
SIZE
  6
CONTINUOUS
 62
    30
 10
-399.59149051559228
 20
-295.50270398185569
 30
0.0
 11
-399.59149051559228
 21
-307.50270398185569
 31
0.0
  0
TEXT
  8
SIZE
  6
CONTINUOUS
 62
    30
 10
-424.59149051559228
 20
-505.8212488641139
 30
0.0
 40
64.0
  1
27
 50
90.0
 41
0.9
 72
     1
 11
-424.59149051559228
 21
-459.19267743554252
 31
0.0
  0
POINT
  8
DEFPOINTS
  6
CONTINUOUS
 62
    30
 10
-156.99971008426471
 20
-295.5027039818558
 30
0.0
  0
POINT
  8
DEFPOINTS
  6
CONTINUOUS
 62
    30
 10
-157.6793506420199
 20
-268.5027039816398
 30
0.0
  0
POINT
  8
DEFPOINTS
  6
CONTINUOUS
 62
    30
 10
-399.59149051559228
 20
-268.50270398163968
 30
0.0
  0
LINE
  8
SIZE
  6
CONTINUOUS
 62
    30
 10
-294.96369182924172
 20
-295.50113232658242
 30
0.0
 11
-662.49103239482633
 21
-295.50113232658208
 31
0.0
  0
LINE
  8
SIZE
  6
CONTINUOUS
 62
    30
 10
-181.00000000128779
 20
-238.50270398139989
 30
0.0
 11
-662.49103239482611
 21
-238.50270398139969
 31
0.0
  0
LINE
  8
SIZE
  6
CONTINUOUS
 62
    30
 10
-642.49103239482611
 20
-226.50270398139969
 30
0.0
 11
-642.49103239482611
 21
-214.50270398139969
 31
0.0
  0
LINE
  8
SIZE
  6
CONTINUOUS
 62
    30
 10
-642.49103239482633
 20
-307.50113232658208
 30
0.0
 11
-642.49103239482633
 21
-462.75827518372512
 31
0.0
  0
LINE
  8
SIZE
  6
CONTINUOUS
 62
    30
 10
-642.49103239482611
 20
-238.50270398139969
 30
0.0
 11
-642.49103239482633
 21
-295.50113232658208
 31
0.0
  0
CIRCLE
  8
SIZE
  6
CONTINUOUS
 62
    30
 10
-642.49103239482611
 20
-238.50270398139969
 30
0.0
 40
6.0
  0
LINE
  8
SIZE
  6
CONTINUOUS
 62
    30
 10
-642.49103239482611
 20
-238.50270398139969
 30
0.0
 11
-642.49103239482611
 21
-226.50270398139969
 31
0.0
  0
CIRCLE
  8
SIZE
  6
CONTINUOUS
 62
    30
 10
-642.49103239482633
 20
-295.50113232658208
 30
0.0
 40
6.0
  0
LINE
  8
SIZE
  6
CONTINUOUS
 62
    30
 10
-642.49103239482633
 20
-295.50113232658208
 30
0.0
 11
-642.49103239482633
 21
-307.50113232658208
 31
0.0
  0
TEXT
  8
SIZE
  6
CONTINUOUS
 62
    30
 10
-667.49103239482611
 20
-437.75827518372512
 30
0.0
 40
64.0
  1
57
 50
90.0
 41
0.9
 72
     1
 11
-667.49103239482611
 21
-391.12970375515363
 31
0.0
  0
POINT
  8
DEFPOINTS
  6
CONTINUOUS
 62
    30
 10
-274.96369182924172
 20
-295.50113232658242
 30
0.0
  0
POINT
  8
DEFPOINTS
  6
CONTINUOUS
 62
    30
 10
-161.00000000128779
 20
-238.50270398139989
 30
0.0
  0
POINT
  8
DEFPOINTS
  6
CONTINUOUS
 62
    30
 10
-642.49103239482611
 20
-238.50270398139969
 30
0.0
  0
LINE
  8
SIZE
  6
CONTINUOUS
 62
    30
 10
-176.99971008426471
 20
-295.50270398185592
 30
0.0
 11
-779.33349534639365
 21
-295.50270398185569
 31
0.0
  0
LINE
  8
SIZE
  6
CONTINUOUS
 62
    30
 10
-198.90000000142939
 20
-153.50314331177501
 30
0.0
 11
-779.33349534639342
 21
-153.50314331177481
 31
0.0
  0
LINE
  8
SIZE
  6
CONTINUOUS
 62
    30
 10
-759.33349534639342
 20
-165.50314331177481
 30
0.0
 11
-759.33349534639365
 21
-283.50270398185569
 31
0.0
  0
LINE
  8
SIZE
  6
CONTINUOUS
 62
    30
 10
-759.33349534639365
 20
-295.50270398185569
 30
0.0
 11
-759.33349534639365
 21
-494.64556112471291
 31
0.0
  0
CIRCLE
  8
SIZE
  6
CONTINUOUS
 62
    30
 10
-759.33349534639342
 20
-153.50314331177481
 30
0.0
 40
6.0
  0
LINE
  8
SIZE
  6
CONTINUOUS
 62
    30
 10
-759.33349534639342
 20
-153.50314331177481
 30
0.0
 11
-759.33349534639342
 21
-165.50314331177481
 31
0.0
  0
CIRCLE
  8
SIZE
  6
CONTINUOUS
 62
    30
 10
-759.33349534639365
 20
-295.50270398185569
 30
0.0
 40
6.0
  0
LINE
  8
SIZE
  6
CONTINUOUS
 62
    30
 10
-759.33349534639365
 20
-295.50270398185569
 30
0.0
 11
-759.33349534639365
 21
-283.50270398185569
 31
0.0
  0
TEXT
  8
SIZE
  6
CONTINUOUS
 62
    30
 10
-784.33349534639342
 20
-469.64556112471291
 30
0.0
 40
64.0
  1
142
 50
90.0
 41
0.9
 72
     1
 11
-784.33349534639342
 21
-401.07413255328441
 31
0.0
  0
POINT
  8
DEFPOINTS
  6
CONTINUOUS
 62
    30
 10
-156.99971008426471
 20
-295.50270398185592
 30
0.0
  0
POINT
  8
DEFPOINTS
  6
CONTINUOUS
 62
    30
 10
-178.90000000142939
 20
-153.50314331177501
 30
0.0
  0
POINT
  8
DEFPOINTS
  6
CONTINUOUS
 62
    30
 10
-759.33349534639342
 20
-153.50314331177481
 30
0.0
  0
LINE
  8
SIZE
  6
CONTINUOUS
 62
    30
 10
-172.50000000122051
 20
153.50000000122799
 30
0.0
 11
-779.33349534639342
 21
153.50000000122819
 31
0.0
  0
LINE
  8
SIZE
  6
CONTINUOUS
 62
    30
 10
-194.50000000000139
 20
-153.50314331177501
 30
0.0
 11
-779.33349534639342
 21
-153.50314331177481
 31
0.0
  0
LINE
  8
SIZE
  6
CONTINUOUS
 62
    30
 10
-759.33349534639342
 20
141.50000000122819
 30
0.0
 11
-759.33349534639342
 21
-141.50314331177481
 31
0.0
  0
CIRCLE
  8
SIZE
  6
CONTINUOUS
 62
    30
 10
-759.33349534639342
 20
153.50000000122819
 30
0.0
 40
6.0
  0
LINE
  8
SIZE
  6
CONTINUOUS
 62
    30
 10
-759.33349534639342
 20
153.50000000122819
 30
0.0
 11
-759.33349534639342
 21
141.50000000122819
 31
0.0
  0
CIRCLE
  8
SIZE
  6
CONTINUOUS
 62
    30
 10
-759.33349534639342
 20
-153.50314331177481
 30
0.0
 40
6.0
  0
LINE
  8
SIZE
  6
CONTINUOUS
 62
    30
 10
-759.33349534639342
 20
-153.50314331177481
 30
0.0
 11
-759.33349534639342
 21
-141.50314331177481
 31
0.0
  0
TEXT
  8
SIZE
  6
CONTINUOUS
 62
    30
 10
-784.33349534639342
 20
-116.5371428571427
 30
0.0
 40
64.0
  1
□307
 50
90.0
 41
0.9
 72
     1
 11
-784.33349534639342
 21
-5.9999999999998863
 31
0.0
  0
POINT
  8
DEFPOINTS
  6
CONTINUOUS
 62
    30
 10
-152.50000000122051
 20
153.50000000122799
 30
0.0
  0
POINT
  8
DEFPOINTS
  6
CONTINUOUS
 62
    30
 10
-174.50000000000139
 20
-153.50314331177501
 30
0.0
  0
POINT
  8
DEFPOINTS
  6
CONTINUOUS
 62
    30
 10
-759.33349534639342
 20
-153.50314331177481
 30
0.0
  0
LINE
  8
SIZE
  6
CONTINUOUS
 62
    30
 10
0.0
 20
-340.0
 30
0.0
 11
0.0
 21
-485.01607106252959
 31
0.0
  0
LINE
  8
SIZE
  6
CONTINUOUS
 62
    30
 10
-85.50000000068394
 20
-335.51094409809889
 30
0.0
 11
-85.50000000068394
 21
-485.01607106252959
 31
0.0
  0
LINE
  8
SIZE
  6
CONTINUOUS
 62
    30
 10
-73.50000000068394
 20
-465.01607106252959
 30
0.0
 11
-12.0
 21
-465.01607106252959
 31
0.0
  0
LINE
  8
SIZE
  6
CONTINUOUS
 62
    30
 10
0.0
 20
-465.01607106252959
 30
0.0
 11
152.51428571428551
 21
-465.01607106252959
 31
0.0
  0
CIRCLE
  8
SIZE
  6
CONTINUOUS
 62
    30
 10
-85.50000000068394
 20
-465.01607106252959
 30
0.0
 40
6.0
  0
LINE
  8
SIZE
  6
CONTINUOUS
 62
    30
 10
-85.50000000068394
 20
-465.01607106252959
 30
0.0
 11
-73.50000000068394
 21
-465.01607106252959
 31
0.0
  0
CIRCLE
  8
SIZE
  6
CONTINUOUS
 62
    30
 10
0.0
 20
-465.01607106252959
 30
0.0
 40
6.0
  0
LINE
  8
SIZE
  6
CONTINUOUS
 62
    30
 10
0.0
 20
-465.01607106252959
 30
0.0
 11
-12.0
 21
-465.01607106252959
 31
0.0
  0
TEXT
  8
SIZE
  6
CONTINUOUS
 62
    30
 10
36.999999999999893
 20
-440.01607106252959
 30
0.0
 40
64.0
  1
86
 41
0.9
 72
     1
 11
82.257142857142753
 21
-440.01607106252959
 31
0.0
  0
POINT
  8
DEFPOINTS
  6
CONTINUOUS
 62
    30
 10
0.0
 20
-320.0
 30
0.0
  0
POINT
  8
DEFPOINTS
  6
CONTINUOUS
 62
    30
 10
-85.50000000068394
 20
-315.51094409809889
 30
0.0
  0
POINT
  8
DEFPOINTS
  6
CONTINUOUS
 62
    30
 10
-85.50000000068394
 20
-465.01607106252959
 30
0.0
  0
LINE
  8
BASIS
  6
DASHDOT
 62
     6
 10
-85.50000000068394
 20
-115.0755725520694
 30
0.0
 11
-85.50000000068394
 21
-315.51094409809889
 31
0.0
  0
LINE
  8
SIZE
  6
CONTINUOUS
 62
    30
 10
-179.5000000014343
 20
-173.50314331177501
 30
0.0
 11
-179.5000000014343
 21
-485.01607106252959
 31
0.0
  0
LINE
  8
SIZE
  6
CONTINUOUS
 62
    30
 10
-153.50000000122779
 20
-172.3031433117651
 30
0.0
 11
-153.50000000122779
 21
-485.01607106252959
 31
0.0
  0
LINE
  8
SIZE
  6
CONTINUOUS
 62
    30
 10
-141.50000000122779
 20
-465.01607106252959
 30
0.0
 11
-129.50000000122779
 21
-465.01607106252959
 31
0.0
  0
LINE
  8
SIZE
  6
CONTINUOUS
 62
    30
 10
-191.5000000014343
 20
-465.01607106252959
 30
0.0
 11
-344.01428571571978
 21
-465.01607106252959
 31
0.0
  0
LINE
  8
SIZE
  6
CONTINUOUS
 62
    30
 10
-153.50000000122779
 20
-465.01607106252959
 30
0.0
 11
-179.5000000014343
 21
-465.01607106252959
 31
0.0
  0
CIRCLE
  8
SIZE
  6
CONTINUOUS
 62
    30
 10
-153.50000000122779
 20
-465.01607106252959
 30
0.0
 40
6.0
  0
LINE
  8
SIZE
  6
CONTINUOUS
 62
    30
 10
-153.50000000122779
 20
-465.01607106252959
 30
0.0
 11
-141.50000000122779
 21
-465.01607106252959
 31
0.0
  0
CIRCLE
  8
SIZE
  6
CONTINUOUS
 62
    30
 10
-179.5000000014343
 20
-465.01607106252959
 30
0.0
 40
6.0
  0
LINE
  8
SIZE
  6
CONTINUOUS
 62
    30
 10
-179.5000000014343
 20
-465.01607106252959
 30
0.0
 11
-191.5000000014343
 21
-465.01607106252959
 31
0.0
  0
TEXT
  8
SIZE
  6
CONTINUOUS
 62
    30
 10
-319.01428571571989
 20
-440.01607106252959
 30
0.0
 40
64.0
  1
26
 41
0.9
 72
     1
 11
-273.75714285857703
 21
-440.01607106252959
 31
0.0
  0
POINT
  8
DEFPOINTS
  6
CONTINUOUS
 62
    30
 10
-179.5000000014343
 20
-153.50314331177501
 30
0.0
  0
POINT
  8
DEFPOINTS
  6
CONTINUOUS
 62
    30
 10
-153.50000000122779
 20
-152.3031433117651
 30
0.0
  0
POINT
  8
DEFPOINTS
  6
CONTINUOUS
 62
    30
 10
-153.50000000122779
 20
-465.01607106252959
 30
0.0
  0
LINE
  8
SIZE
  6
CONTINUOUS
 62
    30
 10
-220.0
 20
207.0
 30
0.0
 11
-1005.455571871767
 21
207.0000000000002
 31
0.0
  0
LINE
  8
SIZE
  6
CONTINUOUS
 62
    30
 10
-220.0
 20
-207.0
 30
0.0
 11
-1005.455571871767
 21
-206.9999999999998
 31
0.0
  0
LINE
  8
SIZE
  6
CONTINUOUS
 62
    30
 10
-985.45557187176632
 20
195.0000000000002
 30
0.0
 11
-985.45557187176632
 21
-194.9999999999998
 31
0.0
  0
CIRCLE
  8
SIZE
  6
CONTINUOUS
 62
    30
 10
-985.45557187176632
 20
207.0000000000002
 30
0.0
 40
6.0
  0
LINE
  8
SIZE
  6
CONTINUOUS
 62
    30
 10
-985.45557187176632
 20
207.0000000000002
 30
0.0
 11
-985.45557187176632
 21
195.0000000000002
 31
0.0
  0
CIRCLE
  8
SIZE
  6
CONTINUOUS
 62
    30
 10
-985.45557187176632
 20
-206.9999999999998
 30
0.0
 40
6.0
  0
LINE
  8
SIZE
  6
CONTINUOUS
 62
    30
 10
-985.45557187176632
 20
-206.9999999999998
 30
0.0
 11
-985.45557187176632
 21
-194.9999999999998
 31
0.0
  0
TEXT
  8
SIZE
  6
CONTINUOUS
 62
    30
 10
-1010.455571871767
 20
-69.941285487583571
 30
0.0
 40
64.0
  1
414
 50
90.0
 41
0.9
 72
     1
 11
-1010.455571871767
 21
0.0015716552735512
 31
0.0
  0
POINT
  8
DEFPOINTS
  6
CONTINUOUS
 62
    30
 10
-200.0
 20
207.0
 30
0.0
  0
POINT
  8
DEFPOINTS
  6
CONTINUOUS
 62
    30
 10
-200.0
 20
-207.0
 30
0.0
  0
POINT
  8
DEFPOINTS
  6
CONTINUOUS
 62
    30
 10
-985.45557187176632
 20
-206.9999999999998
 30
0.0
  0
LINE
  8
SIZE
  6
CONTINUOUS
 62
    30
 10
-240.0
 20
100.0
 30
0.0
 11
-379.10404047395508
 21
100.0000000000001
 31
0.0
  0
LINE
  8
SIZE
  6
CONTINUOUS
 62
    30
 10
-240.0
 20
-100.0
 30
0.0
 11
-379.10404047395508
 21
-100.0
 31
0.0
  0
LINE
  8
SIZE
  6
CONTINUOUS
 62
    30
 10
-359.10404047395508
 20
88.0
 30
0.0
 11
-359.10404047395508
 21
-88.0
 31
0.0
  0
CIRCLE
  8
SIZE
  6
CONTINUOUS
 62
    30
 10
-359.10404047395508
 20
100.0000000000001
 30
0.0
 40
6.0
  0
LINE
  8
SIZE
  6
CONTINUOUS
 62
    30
 10
-359.10404047395508
 20
100.0000000000001
 30
0.0
 11
-359.10404047395508
 21
88.000000000000114
 31
0.0
  0
CIRCLE
  8
SIZE
  6
CONTINUOUS
 62
    30
 10
-359.10404047395508
 20
-100.0
 30
0.0
 40
6.0
  0
LINE
  8
SIZE
  6
CONTINUOUS
 62
    30
 10
-359.10404047395508
 20
-100.0
 30
0.0
 11
-359.10404047395508
 21
-88.0
 31
0.0
  0
TEXT
  8
SIZE
  6
CONTINUOUS
 62
    30
 10
-384.10404047395508
 20
-74.05714285714285
 30
0.0
 40
64.0
  1
200
 50
90.0
 41
0.9
 72
     1
 11
-384.10404047395508
 21
0.0
 31
0.0
  0
POINT
  8
DEFPOINTS
  6
CONTINUOUS
 62
    30
 10
-220.0
 20
100.0
 30
0.0
  0
POINT
  8
DEFPOINTS
  6
CONTINUOUS
 62
    30
 10
-220.0
 20
-100.0
 30
0.0
  0
POINT
  8
DEFPOINTS
  6
CONTINUOUS
 62
    30
 10
-359.10404047395508
 20
-100.0
 30
0.0
  0
LINE
  8
SIZE
  6
CONTINUOUS
 62
    30
 10
-140.0
 20
200.0
 30
0.0
 11
-897.29747709137064
 21
200.0000000000002
 31
0.0
  0
LINE
  8
SIZE
  6
CONTINUOUS
 62
    30
 10
60.0
 20
-200.0
 30
0.0
 11
-897.29747709137064
 21
-199.99999999999969
 31
0.0
  0
LINE
  8
SIZE
  6
CONTINUOUS
 62
    30
 10
-877.29747709137064
 20
188.0000000000002
 30
0.0
 11
-877.29747709137064
 21
-187.99999999999969
 31
0.0
  0
CIRCLE
  8
SIZE
  6
CONTINUOUS
 62
    30
 10
-877.29747709137064
 20
200.0000000000002
 30
0.0
 40
6.0
  0
LINE
  8
SIZE
  6
CONTINUOUS
 62
    30
 10
-877.29747709137064
 20
200.0000000000002
 30
0.0
 11
-877.29747709137064
 21
188.0000000000002
 31
0.0
  0
CIRCLE
  8
SIZE
  6
CONTINUOUS
 62
    30
 10
-877.29747709137064
 20
-199.99999999999969
 30
0.0
 40
6.0
  0
LINE
  8
SIZE
  6
CONTINUOUS
 62
    30
 10
-877.29747709137064
 20
-199.99999999999969
 30
0.0
 11
-877.29747709137064
 21
-187.99999999999969
 31
0.0
  0
TEXT
  8
SIZE
  6
CONTINUOUS
 62
    30
 10
-902.29747709137041
 20
-74.055571201869299
 30
0.0
 40
64.0
  1
400
 50
90.0
 41
0.9
 72
     1
 11
-902.29747709137041
 21
0.0015716552735512
 31
0.0
  0
POINT
  8
DEFPOINTS
  6
CONTINUOUS
 62
    30
 10
-120.0
 20
200.0
 30
0.0
  0
POINT
  8
DEFPOINTS
  6
CONTINUOUS
 62
    30
 10
80.0
 20
-200.0
 30
0.0
  0
POINT
  8
DEFPOINTS
  6
CONTINUOUS
 62
    30
 10
-877.29747709137064
 20
-199.99999999999969
 30
0.0
  0
TEXT
  8
NOTE
  6
CONTINUOUS
 62
     4
 10
449.54497650425861
 20
-588.12219323001545
 30
0.0
 40
64.0
  1
8-φ5×8
 41
0.9
  0
TEXT
  8
NOTE
  6
CONTINUOUS
 62
     4
 10
-539.04069513533318
 20
336.67158289015612
 30
0.0
 40
64.0
  1
AH 4
 41
0.9
 72
     2
 11
-342.65212370676181
 21
336.67158289015612
 31
0.0
  0
TEXT
  8
NOTE
  6
CONTINUOUS
 62
     4
 10
402.74608397681283
 20
-364.74904985737697
 30
0.0
 40
64.0
  1
EL
 41
0.9
  0
TEXT
  8
NOTE
  6
CONTINUOUS
 62
     4
 10
-132.2627742197069
 20
-423.91082044866738
 30
0.0
 40
64.0
  1
EA
 41
0.9
  0
LINE
  8
SIZE
  6
CONTINUOUS
 62
    30
 10
-141.24985504247431
 20
-341.50270398185597
 30
0.0
 11
-544.48788972406169
 21
-341.50270398185592
 31
0.0
  0
LINE
  8
SIZE
  6
CONTINUOUS
 62
    30
 10
-176.99971008426471
 20
-295.5027039818558
 30
0.0
 11
-544.48788972406169
 21
-295.50270398185569
 31
0.0
  0
LINE
  8
SIZE
  6
CONTINUOUS
 62
    30
 10
-524.48788972406146
 20
-283.50270398185569
 30
0.0
 11
-524.48788972406146
 21
-271.50270398185569
 31
0.0
  0
LINE
  8
SIZE
  6
CONTINUOUS
 62
    30
 10
-524.48788972406146
 20
-353.50270398185592
 30
0.0
 11
-524.48788972406146
 21
-590.49698969614167
 31
0.0
  0
LINE
  8
SIZE
  6
CONTINUOUS
 62
    30
 10
-524.48788972406146
 20
-295.50270398185569
 30
0.0
 11
-524.48788972406146
 21
-341.50270398185592
 31
0.0
  0
CIRCLE
  8
SIZE
  6
CONTINUOUS
 62
    30
 10
-524.48788972406146
 20
-295.50270398185569
 30
0.0
 40
6.0
  0
LINE
  8
SIZE
  6
CONTINUOUS
 62
    30
 10
-524.48788972406146
 20
-295.50270398185569
 30
0.0
 11
-524.48788972406146
 21
-283.50270398185569
 31
0.0
  0
CIRCLE
  8
SIZE
  6
CONTINUOUS
 62
    30
 10
-524.48788972406146
 20
-341.50270398185592
 30
0.0
 40
6.0
  0
LINE
  8
SIZE
  6
CONTINUOUS
 62
    30
 10
-524.48788972406146
 20
-341.50270398185592
 30
0.0
 11
-524.48788972406146
 21
-353.50270398185592
 31
0.0
  0
TEXT
  8
SIZE
  6
CONTINUOUS
 62
    30
 10
-549.48788972406146
 20
-592.37698969614166
 30
0.0
 40
64.0
  1
（46）
 50
90.0
 41
0.9
 72
     1
 11
-549.48788972406146
 21
-477.99984683899879
 31
0.0
  0
POINT
  8
DEFPOINTS
  6
CONTINUOUS
 62
    30
 10
-121.24985504247429
 20
-341.50270398185597
 30
0.0
  0
POINT
  8
DEFPOINTS
  6
CONTINUOUS
 62
    30
 10
-156.99971008426471
 20
-295.5027039818558
 30
0.0
  0
POINT
  8
DEFPOINTS
  6
CONTINUOUS
 62
    30
 10
-524.48788972406146
 20
-295.50270398185569
 30
0.0
  0
LINE
  8
DETAIL
  6
CONTINUOUS
 62
     5
 10
-200.0
 20
207.0
 30
0.0
 11
200.0
 21
207.0
 31
0.0
  0
LINE
  8
DETAIL
  6
CONTINUOUS
 62
     5
 10
207.0
 20
200.0
 30
0.0
 11
207.0
 21
-200.0
 31
0.0
  0
LINE
  8
DETAIL
  6
CONTINUOUS
 62
     5
 10
200.0
 20
-207.0
 30
0.0
 11
-200.0
 21
-207.0
 31
0.0
  0
LINE
  8
DETAIL
  6
CONTINUOUS
 62
     5
 10
-207.0
 20
-200.0
 30
0.0
 11
-207.0
 21
200.0
 31
0.0
  0
LINE
  8
DETAIL
  6
CONTINUOUS
 62
     5
 10
-200.0
 20
207.0
 30
0.0
 11
-207.0
 21
200.0
 31
0.0
  0
LINE
  8
DETAIL
  6
CONTINUOUS
 62
     5
 10
200.0
 20
207.0
 30
0.0
 11
207.0
 21
200.0
 31
0.0
  0
LINE
  8
DETAIL
  6
CONTINUOUS
 62
     5
 10
-200.0
 20
-207.0
 30
0.0
 11
-207.0
 21
-200.0
 31
0.0
  0
LINE
  8
DETAIL
  6
CONTINUOUS
 62
     5
 10
200.0
 20
-207.0
 30
0.0
 11
207.0
 21
-200.0
 31
0.0
  0
LINE
  8
NOTE
  6
CONTINUOUS
 62
     4
 10
-174.37036747115141
 20
105.85652709736731
 30
0.0
 11
-172.30015258926869
 21
100.0000000007996
 31
0.0
  0
LINE
  8
NOTE
  6
CONTINUOUS
 62
     4
 10
-172.30015258926869
 20
100.0000000007996
 30
0.0
 11
-177.0212808997712
 21
104.03678668896779
 31
0.0
  0
LINE
  8
NOTE
  6
CONTINUOUS
 62
     4
 10
-172.30015258926869
 20
100.0000000007996
 30
0.0
 11
-179.09149578165349
 21
109.8933137855355
 31
0.0
  0
LINE
  8
NOTE
  6
CONTINUOUS
 62
     4
 10
-179.09149578165349
 20
109.8933137855355
 30
0.0
 11
-316.74114861255481
 21
310.41494393125322
 31
0.0
  0
LINE
  8
NOTE
  6
CONTINUOUS
 62
     4
 10
-316.74114861255481
 20
310.41494393125322
 30
0.0
 11
-550.12972004112612
 21
310.41494393125322
 31
0.0
  0
LINE
  8
NOTE
  6
CONTINUOUS
 62
     4
 10
133.0522652684831
 20
-123.4100255101813
 30
0.0
 11
130.0
 21
-118.0
 31
0.0
  0
LINE
  8
NOTE
  6
CONTINUOUS
 62
     4
 10
130.0
 20
-118.0
 30
0.0
 11
135.34835677724601
 21
-121.1590788330283
 31
0.0
  0
LINE
  8
NOTE
  6
CONTINUOUS
 62
     4
 10
130.0
 20
-118.0
 30
0.0
 11
138.40062204572911
 21
-126.5691043432096
 31
0.0
  0
LINE
  8
NOTE
  6
CONTINUOUS
 62
     4
 10
138.40062204572911
 20
-126.5691043432095
 30
0.0
 11
387.60976409322478
 21
-380.77636778895072
 31
0.0
  0
LINE
  8
NOTE
  6
CONTINUOUS
 62
     4
 10
387.60976409322478
 20
-380.77636778895072
 30
0.0
 11
509.63833552179631
 21
-380.77636778895072
 31
0.0
  0
LINE
  8
NOTE
  6
CONTINUOUS
 62
     4
 10
102.44360099532609
 20
-205.71082423697669
 30
0.0
 11
100.0
 21
-200.0
 31
0.0
  0
LINE
  8
NOTE
  6
CONTINUOUS
 62
     4
 10
100.0
 20
-200.0
 30
0.0
 11
104.97163826888389
 21
-203.72391087613161
 31
0.0
  0
LINE
  8
NOTE
  6
CONTINUOUS
 62
     4
 10
100.0
 20
-200.0
 30
0.0
 11
107.41523926421
 21
-209.43473511310839
 31
0.0
  0
LINE
  8
NOTE
  6
CONTINUOUS
 62
     4
 10
107.41523926421
 20
-209.43473511310839
 30
0.0
 11
434.40865662067063
 21
-625.48284449492246
 31
0.0
  0
LINE
  8
NOTE
  6
CONTINUOUS
 62
     4
 10
434.40865662067063
 20
-625.48284449492246
 30
0.0
 11
820.30008519209923
 21
-625.48284449492246
 31
0.0
  0
ARC
  8
DETAIL
  6
DIVIDE
 62
     5
 10
-111.9665622327207
 20
-297.39612919894938
 30
0.0
 40
45.072934944063192
 50
177.5924087009241
 51
258.11420529866223
  0
ARC
  8
DETAIL
  6
DIVIDE
 62
     5
 10
-131.5270979416882
 20
-296.62366025075431
 30
0.0
 40
46.040745952119067
 50
282.89826502877719
 51
1.3951209716349979
  0
TEXT
  8
ETC
  6
CONTINUOUS
 62
    61
 10
458.00759547010779
 20
1011.5006904890211
 30
0.0
 40
64.0
  1
VD-18ZXP13-Z_1
 41
0.9
  0
TEXT
  8
ETC
  6
CONTINUOUS
 62
    61
 10
453.82160147010751
 20
893.54538047418964
 30
0.0
 40
64.0
  1
換気扇
 41
0.9
  0
TEXT
  8
ETC
  6
CONTINUOUS
 62
    61
 10
504.52299971866341
 20
785.39660758796435
 30
0.0
 40
40.0
  1
VD-18ZXP13-Z
 41
0.9
  0
TEXT
  8
ETC
  6
CONTINUOUS
 62
    61
 10
504.52299971866341
 20
719.39660758796435
 30
0.0
 40
40.0
  1
VD-18ZNP13-Z
 41
0.9
  0
TEXT
  8
ETC
  6
CONTINUOUS
 62
    61
 10
504.52299971866341
 20
653.39660758796435
 30
0.0
 40
40.0
  1
VD-20ZX13-Z
 41
0.9
  0
TEXT
  8
ETC
  6
CONTINUOUS
 62
    61
 10
504.52299971866341
 20
587.39660758796435
 30
0.0
 40
40.0
  1
VD-20ZN13-Z
 41
0.9
  0
ENDSEC
  0
EOF
