  0
SECTION
  2
HEADER
  9
$ACADVER
  1
AC1009
  9
$DWGCODEPAGE
  3
dos932
  9
$INSBASE
 10
0.0
 20
0.0
 30
0.0
  9
$EXTMIN
 10
-1098.9761192456081
 20
-892.08983256492138
 30
-0.0015258207003583
  9
$EXTMAX
 10
1062.2680780154969
 20
869.65943217470704
 30
0.0000000349246037
  9
$LIMMIN
 10
-2970.0
 20
-2100.0
  9
$LIMMAX
 10
2970.0
 20
2100.0
  9
$ORTHOMODE
 70
     1
  9
$REGENMODE
 70
     1
  9
$FILLMODE
 70
     1
  9
$QTEXTMODE
 70
     0
  9
$MIRRTEXT
 70
     0
  9
$LTSCALE
 40
20.0
  9
$ATTMODE
 70
     1
  9
$TEXTSIZE
 40
64.0
  9
$TRACEWID
 40
0.05
  9
$TEXTSTYLE
  7
STANDARD
  9
$CLAYER
  8
SIZE
  9
$CELTYPE
  6
CONTINUOUS
  9
$CECOLOR
 62
     7
  9
$DIMSCALE
 40
1.0
  9
$DIMASZ
 40
12.0
  9
$DIMEXO
 40
20.0
  9
$DIMDLI
 40
200.0
  9
$DIMRND
 40
0.0
  9
$DIMDLE
 40
0.0
  9
$DIMEXE
 40
20.0
  9
$DIMTP
 40
0.0
  9
$DIMTM
 40
0.0
  9
$DIMTXT
 40
64.0
  9
$DIMCEN
 40
0.09
  9
$DIMTSZ
 40
0.0
  9
$DIMTOL
 70
     0
  9
$DIMLIM
 70
     0
  9
$DIMTIH
 70
     0
  9
$DIMTOH
 70
     0
  9
$DIMSE1
 70
     0
  9
$DIMSE2
 70
     0
  9
$DIMTAD
 70
     1
  9
$DIMZIN
 70
     8
  9
$DIMBLK
  1

  9
$DIMASO
 70
     1
  9
$DIMSHO
 70
     0
  9
$DIMPOST
  1

  9
$DIMAPOST
  1

  9
$DIMALT
 70
     0
  9
$DIMALTD
 70
     2
  9
$DIMALTF
 40
25.399999999999999
  9
$DIMLFAC
 40
1.0
  9
$DIMTOFL
 70
     1
  9
$DIMTVP
 40
0.0
  9
$DIMTIX
 70
     1
  9
$DIMSOXD
 70
     0
  9
$DIMSAH
 70
     0
  9
$DIMBLK1
  1

  9
$DIMBLK2
  1

  9
$DIMSTYLE
  2
STANDARD
  9
$DIMCLRD
 70
     7
  9
$DIMCLRE
 70
     7
  9
$DIMCLRT
 70
     7
  9
$DIMTFAC
 40
1.0
  9
$DIMGAP
 40
25.0
  9
$LUNITS
 70
     2
  9
$LUPREC
 70
     4
  9
$SKETCHINC
 40
0.1
  9
$FILLETRAD
 40
3.0
  9
$AUNITS
 70
     1
  9
$AUPREC
 70
     3
  9
$MENU
  1
ACAD
  9
$ELEVATION
 40
0.0
  9
$PELEVATION
 40
0.0
  9
$THICKNESS
 40
0.0
  9
$LIMCHECK
 70
     0
  9
$CHAMFERA
 40
0.0
  9
$CHAMFERB
 40
0.0
  9
$SKPOLY
 70
     0
  9
$TDCREATE
 40
2453019.62301037
  9
$TDUPDATE
 40
2459025.513592651
  9
$TDINDWG
 40
1.7138470023
  9
$TDUSRTIMER
 40
1.7138470023
  9
$USRTIMER
 70
     1
  9
$ANGBASE
 50
0.0
  9
$ANGDIR
 70
     0
  9
$PDMODE
 70
     3
  9
$PDSIZE
 40
-2.0
  9
$PLINEWID
 40
0.0
  9
$SPLFRAME
 70
     0
  9
$SPLINETYPE
 70
     6
  9
$SPLINESEGS
 70
     8
  9
$SURFTAB1
 70
     6
  9
$SURFTAB2
 70
     6
  9
$SURFTYPE
 70
     6
  9
$SURFU
 70
     6
  9
$SURFV
 70
     6
  9
$UCSNAME
  2

  9
$UCSORG
 10
0.0
 20
0.0
 30
0.0
  9
$UCSXDIR
 10
1.0
 20
0.0
 30
0.0
  9
$UCSYDIR
 10
0.0
 20
1.0
 30
0.0
  9
$PUCSNAME
  2

  9
$PUCSORG
 10
0.0
 20
0.0
 30
0.0
  9
$PUCSXDIR
 10
1.0
 20
0.0
 30
0.0
  9
$PUCSYDIR
 10
0.0
 20
1.0
 30
0.0
  9
$USERI1
 70
     0
  9
$USERI2
 70
     0
  9
$USERI3
 70
     0
  9
$USERI4
 70
     0
  9
$USERI5
 70
     0
  9
$USERR1
 40
20.0
  9
$USERR2
 40
0.0
  9
$USERR3
 40
0.0
  9
$USERR4
 40
0.0
  9
$USERR5
 40
0.0
  9
$WORLDVIEW
 70
     1
  9
$SHADEDGE
 70
     3
  9
$SHADEDIF
 70
    70
  9
$TILEMODE
 70
     1
  9
$MAXACTVP
 70
    48
  9
$PINSBASE
 10
0.0
 20
0.0
 30
0.0
  9
$PLIMCHECK
 70
     0
  9
$PEXTMIN
 10
-100000000000000000000.0
 20
-100000000000000000000.0
 30
-100000000000000000000.0
  9
$PEXTMAX
 10
100000000000000000000.0
 20
100000000000000000000.0
 30
100000000000000000000.0
  9
$PLIMMIN
 10
0.0
 20
0.0
  9
$PLIMMAX
 10
12.0
 20
9.0
  9
$UNITMODE
 70
     0
  9
$VISRETAIN
 70
     0
  9
$PLINEGEN
 70
     0
  9
$PSLTSCALE
 70
     0
  9
$TREEDEPTH
 70
  3020
  9
$ATTDIA
 70
     0
  9
$ATTREQ
 70
     1
  9
$BLIPMODE
 70
     1
  9
$COORDS
 70
     1
  9
$DRAGMODE
 70
     2
  9
$OSMODE
 70
     0
  9
$HANDLING
 70
     0
  9
$HANDSEED
  5
F1ED
  0
ENDSEC
  0
SECTION
  2
TABLES
  0
TABLE
  2
LTYPE
 70
     2
  0
LTYPE
  2
CONTINUOUS
 70
     0
  3
実線
 72
    65
 73
     0
 40
0.0
  0
LTYPE
  2
DASHDOT
 70
     0
  3
____ _ ____ _ ____ _ ____ _ ____ _ ____ _ ____
 72
    65
 73
     4
 40
5.5
 49
4.0
 49
-0.6
 49
0.3
 49
-0.6
  0
ENDTAB
  0
TABLE
  2
LAYER
 70
    12
  0
LAYER
  2
0
 70
     0
 62
     7
  6
CONTINUOUS
  0
LAYER
  2
BASIS
 70
     0
 62
     6
  6
DASHDOT
  0
LAYER
  2
OUTLINE
 70
     0
 62
     3
  6
CONTINUOUS
  0
LAYER
  2
DETAIL
 70
     0
 62
     5
  6
CONTINUOUS
  0
LAYER
  2
SIZE
 70
     0
 62
    30
  6
CONTINUOUS
  0
LAYER
  2
ARRANGE
 70
     0
 62
     1
  6
CONTINUOUS
  0
LAYER
  2
DEFPOINTS
 70
     0
 62
     7
  6
CONTINUOUS
  0
LAYER
  2
ETC
 70
     0
 62
    61
  6
CONTINUOUS
  0
LAYER
  2
FIX
 70
     0
 62
    11
  6
CONTINUOUS
  0
LAYER
  2
NOTE
 70
     0
 62
     4
  6
CONTINUOUS
  0
LAYER
  2
SERVICESPACE
 70
    64
 62
     2
  6
DASHDOT
  0
LAYER
  2
SYMBOLLINE
 70
    64
 62
    15
  6
CONTINUOUS
  0
ENDTAB
  0
TABLE
  2
STYLE
 70
     1
  0
STYLE
  2
STANDARD
 70
     0
 40
64.0
 41
0.9
 50
0.0
 71
     0
 42
64.0
  3
SIMPLEX.shx
  4
BIGFONT.shx
  0
ENDTAB
  0
TABLE
  2
APPID
 70
    19
  0
APPID
  2
ACAD
 70
     0
  0
APPID
  2
AUTOCAD_POSTSCRIPT_FIGURE
 70
     0
  0
APPID
  2
ACAD_EXEMPT_FROM_CAD_STANDARDS
 70
     0
  0
APPID
  2
ACAD_PSEXT
 70
     0
  0
APPID
  2
ACAUTHENVIRON
 70
     0
  0
APPID
  2
GENIUS_GENOENT_13
 70
     0
  0
APPID
  2
GENIUS_GENCFG_13
 70
     0
  0
APPID
  2
GENIUS_GENCFG0_13
 70
     0
  0
APPID
  2
GENIUS_GENCFG1_13
 70
     0
  0
APPID
  2
GENIUS_GENCFG2_13
 70
     0
  0
APPID
  2
GENIUS_GENCFG3_13
 70
     0
  0
APPID
  2
GENIUS_GENCFG4_13
 70
     0
  0
APPID
  2
GENIUS_GEVCFG0_13
 70
     0
  0
APPID
  2
CONTENTBLOCKICON
 70
     0
  0
APPID
  2
CONTENTBLOCKDESCRIPTION
 70
     0
  0
APPID
  2
ACAD_NAV_VCDISPLAY
 70
     0
  0
APPID
  2
ACAD_MLEADERVER
 70
     0
  0
APPID
  2
ACDBDYNAMICBLOCKTRUENAME
 70
     0
  0
APPID
  2
ACDBDYNAMICBLOCKGUID
 70
     0
  0
ENDTAB
  0
TABLE
  2
DIMSTYLE
 70
     1
  0
DIMSTYLE
  2
STANDARD
 70
     0
  3

  4

  5
_ORIGIN
  6

  7

 40
1.0
 41
12.0
 42
20.0
 43
200.0
 44
20.0
 45
0.0
 46
0.0
 47
0.0
 48
0.0
140
64.0
141
0.09
142
0.0
143
25.399999999999999
144
1.0
145
0.0
146
1.0
147
25.0
 71
     0
 72
     0
 73
     0
 74
     0
 75
     0
 76
     0
 77
     1
 78
     8
170
     0
171
     2
172
     1
173
     0
174
     1
175
     0
176
     7
177
     7
178
     7
  0
ENDTAB
  0
TABLE
  2
VIEW
 70
     1
  0
VIEW
  2
ALL
 70
     0
 40
4282.6198079999986
 10
0.0
 20
41.309904000000003
 41
5940.0
 11
0.0
 21
0.0
 31
1.0
 12
0.0
 22
0.0
 32
0.0
 42
50.0
 43
0.0
 44
0.0
 50
0.0
 71
     0
  0
ENDTAB
  0
TABLE
  2
UCS
 70
     0
  0
ENDTAB
  0
TABLE
  2
VPORT
 70
     1
  0
VPORT
  2
*ACTIVE
 70
     0
 10
0.0
 20
0.0
 11
1.0
 21
1.0
 12
-18.354020615055621
 22
-11.215200195107171
 13
0.0
 23
0.0
 14
1.0
 24
1.0
 15
0.0
 25
0.0
 16
0.0
 26
0.0
 36
1.0
 17
0.0
 27
0.0
 37
0.0
 40
1773.429370362212
 41
1.747787610619469
 42
50.0
 43
0.0
 44
0.0
 50
0.0
 51
0.0
 71
     0
 72
  1000
 73
     1
 74
     3
 75
     0
 76
     0
 77
     0
 78
     0
  0
ENDTAB
  0
ENDSEC
  0
SECTION
  2
BLOCKS
  0
BLOCK
  8
0
  2
_ORIGIN
 70
     0
 10
0.0
 20
0.0
 30
0.0
  3
_ORIGIN
  1
_ORIGIN
  0
CIRCLE
  8
0
  6
CONTINUOUS
 62
     7
 10
0.0
 20
0.0
 30
0.0
 40
0.5
  0
LINE
  8
0
  6
CONTINUOUS
 62
     7
 10
0.0
 20
0.0
 30
0.0
 11
-1.0
 21
0.0
 31
0.0
  0
ENDBLK
  8
0
  0
ENDSEC
  0
SECTION
  2
ENTITIES
  0
LINE
  8
OUTLINE
  6
CONTINUOUS
 62
     3
 10
-167.0
 20
0.0
 30
0.0
 11
167.0
 21
0.0
 31
0.0
  0
POINT
  8
ARRANGE
  6
CONTINUOUS
 62
     1
 10
0.0
 20
0.0
 30
0.0
  0
LINE
  8
OUTLINE
  6
CONTINUOUS
 62
     3
 10
135.0
 20
200.0
 30
0.0
 11
-135.0
 21
200.0
 31
0.0
  0
LINE
  8
BASIS
  6
DASHDOT
 62
     6
 10
40.017730999999912
 20
135.0
 30
0.0
 11
-175.43466100000001
 21
135.0
 31
0.0
  0
LINE
  8
DETAIL
  6
CONTINUOUS
 62
     5
 10
-167.0
 20
0.0
 30
0.0
 11
167.0
 21
0.0
 31
0.0
  0
LINE
  8
DETAIL
  6
CONTINUOUS
 62
     5
 10
-147.0
 20
214.0
 30
0.0
 11
35.0
 21
214.0
 31
0.0
  0
TEXT
  8
SIZE
  6
CONTINUOUS
 62
    30
 10
-111.90857142857141
 20
-846.80600400000003
 30
0.0
 40
64.0
  1
□334
 41
0.9
 72
     1
 11
0.0
 21
-846.80600400000003
 31
0.0
  0
LINE
  8
SIZE
  6
CONTINUOUS
 62
    30
 10
155.0
 20
-871.80600400000003
 30
0.0
 11
-155.0
 21
-871.80600400000003
 31
0.0
  0
LINE
  8
DETAIL
  6
CONTINUOUS
 62
     5
 10
-166.66393500000001
 20
-3.0
 30
0.0
 11
166.66393500000001
 21
-3.0
 31
0.0
  0
LINE
  8
DETAIL
  6
CONTINUOUS
 62
     5
 10
-162.20729700000001
 20
-7.5
 30
0.0
 11
162.2072969999999
 21
-7.5
 31
0.0
  0
LINE
  8
DETAIL
  6
CONTINUOUS
 62
     5
 10
125.0945819999999
 20
-15.0
 30
0.0
 11
0.0
 21
-15.0
 31
0.0
  0
ARC
  8
DETAIL
  6
CONTINUOUS
 62
     5
 10
-27.5
 20
167.05442799999989
 30
0.0
 40
35.0
 50
0.0
 51
86.80508499999857
  0
ARC
  8
DETAIL
  6
CONTINUOUS
 62
     5
 10
-27.5
 20
103.054428
 30
0.0
 40
35.0
 50
270.0
 51
0.0
  0
TEXT
  8
SIZE
  6
CONTINUOUS
 62
    30
 10
-75.428571428571416
 20
676.73408800000016
 30
0.0
 40
64.0
  1
304
 41
0.9
 72
     1
 11
0.0
 21
676.73408800000016
 31
0.0
  0
LINE
  8
SIZE
  6
CONTINUOUS
 62
    30
 10
140.0
 20
648.98174800000015
 30
0.0
 11
-140.0
 21
648.98174800000015
 31
0.0
  0
LINE
  8
SIZE
  6
CONTINUOUS
 62
    30
 10
50.0
 20
516.30019399999992
 30
0.0
 11
-8.000001999999995
 21
516.30019399999992
 31
0.0
  0
LINE
  8
SIZE
  6
CONTINUOUS
 62
    30
 10
1.0
 20
243.0
 30
0.0
 11
-782.14314999999999
 21
243.0
 31
0.0
  0
TEXT
  8
SIZE
  6
CONTINUOUS
 62
    30
 10
-110.5371428571429
 20
-459.761008
 30
0.0
 40
64.0
  1
□270
 41
0.9
 72
     1
 11
0.0
 21
-459.761008
 31
0.0
  0
LINE
  8
SIZE
  6
CONTINUOUS
 62
    30
 10
123.0
 20
-486.26309700000002
 30
0.0
 11
-123.0
 21
-486.26309700000002
 31
0.0
  0
TEXT
  8
SIZE
  6
CONTINUOUS
 62
    30
 10
-74.057142857142864
 20
-315.757205
 30
0.0
 40
64.0
  1
230
 41
0.9
 72
     1
 11
0.0
 21
-315.757205
 31
0.0
  0
LINE
  8
SIZE
  6
CONTINUOUS
 62
    30
 10
103.0
 20
-354.00584700000002
 30
0.0
 11
-103.0
 21
-354.00584700000002
 31
0.0
  0
LINE
  8
DETAIL
  6
CONTINUOUS
 62
     5
 10
21.0
 20
240.423902
 30
0.0
 11
-1.079999999999927
 21
240.423902
 31
0.0
  0
LINE
  8
DETAIL
  6
CONTINUOUS
 62
     5
 10
-1.079999999999927
 20
238.3999859999999
 30
0.0
 11
21.0
 21
238.3999859999999
 31
0.0
  0
LINE
  8
DETAIL
  6
CONTINUOUS
 62
     5
 10
-14.940000000000049
 20
238.3999859999999
 30
0.0
 11
21.0
 21
238.3999859999999
 31
0.0
  0
LINE
  8
DETAIL
  6
CONTINUOUS
 62
     5
 10
21.0
 20
240.423902
 30
0.0
 11
-8.4689530000000559
 21
240.423902
 31
0.0
  0
CIRCLE
  8
ARRANGE
  6
CONTINUOUS
 62
     1
 10
0.0
 20
0.0
 30
0.0
 40
40.0
  0
LINE
  8
OUTLINE
  6
CONTINUOUS
 62
     3
 10
-135.0
 20
0.0
 30
0.0
 11
-135.0
 21
200.0
 31
0.0
  0
LINE
  8
SIZE
  6
CONTINUOUS
 62
    30
 10
-762.14314999999999
 20
0.0
 30
0.0
 11
-762.14314999999999
 21
12.0
 31
0.0
  0
CIRCLE
  8
SIZE
  6
CONTINUOUS
 62
    30
 10
-762.14314999999999
 20
0.0
 30
0.0
 40
6.0
  0
LINE
  8
SIZE
  6
CONTINUOUS
 62
    30
 10
-586.79130699999996
 20
0.0
 30
0.0
 11
-586.79130699999996
 21
12.0
 31
0.0
  0
CIRCLE
  8
SIZE
  6
CONTINUOUS
 62
    30
 10
-586.79130699999996
 20
0.0
 30
0.0
 40
6.0
  0
LINE
  8
SIZE
  6
CONTINUOUS
 62
    30
 10
-762.14314999999999
 20
0.0
 30
0.0
 11
-762.14314999999999
 21
12.0
 31
0.0
  0
CIRCLE
  8
SIZE
  6
CONTINUOUS
 62
    30
 10
-762.14314999999999
 20
0.0
 30
0.0
 40
6.0
  0
LINE
  8
NOTE
  6
CONTINUOUS
 62
     4
 10
-115.0
 20
-20.0
 30
0.0
 11
-115.0
 21
20.0
 31
0.0
  0
LINE
  8
NOTE
  6
CONTINUOUS
 62
     4
 10
-146.0
 20
-20.0
 30
0.0
 11
-146.0
 21
20.0
 31
0.0
  0
CIRCLE
  8
FIX
  6
CONTINUOUS
 62
    11
 10
-146.0
 20
0.0
 30
0.0
 40
2.5
  0
CIRCLE
  8
FIX
  6
CONTINUOUS
 62
    11
 10
-115.0
 20
0.0
 30
0.0
 40
2.5
  0
LINE
  8
DETAIL
  6
CONTINUOUS
 62
     5
 10
-135.0
 20
0.0
 30
0.0
 11
-135.0
 21
68.05442800000003
 31
0.0
  0
LINE
  8
BASIS
  6
DASHDOT
 62
     6
 10
0.0
 20
-73.243109000000004
 30
0.0
 11
0.0
 21
291.47948300000007
 31
0.0
  0
LINE
  8
SIZE
  6
CONTINUOUS
 62
    30
 10
-167.0
 20
-20.0
 30
0.0
 11
-167.0
 21
-891.80600400000003
 31
0.0
  0
CIRCLE
  8
SIZE
  6
CONTINUOUS
 62
    30
 10
-167.0
 20
-871.80600400000003
 30
0.0
 40
6.0
  0
LINE
  8
SIZE
  6
CONTINUOUS
 62
    30
 10
-167.0
 20
-871.80600400000003
 30
0.0
 11
-155.0
 21
-871.80600400000003
 31
0.0
  0
LINE
  8
SIZE
  6
CONTINUOUS
 62
    30
 10
-187.0
 20
0.0
 30
0.0
 11
-782.14314999999999
 21
0.0
 31
0.0
  0
LINE
  8
SIZE
  6
CONTINUOUS
 62
    30
 10
-145.0945819999998
 20
-15.0
 30
0.0
 11
-782.14314999999999
 21
-15.0
 31
0.0
  0
LINE
  8
SIZE
  6
CONTINUOUS
 62
    30
 10
-187.5
 20
0.0
 30
0.0
 11
-782.14314999999999
 21
0.0
 31
0.0
  0
TEXT
  8
SIZE
  6
CONTINUOUS
 62
    30
 10
-787.18680199999983
 20
-140.41293214285719
 30
0.0
 40
64.0
  1
15
 50
90.0
 41
0.9
 72
     1
 11
-787.18680199999983
 21
-99.27007500000002
 31
0.0
  0
LINE
  8
SIZE
  6
CONTINUOUS
 62
    30
 10
-762.14314999999999
 20
-15.0
 30
0.0
 11
-762.14314999999999
 21
-142.21260499999991
 31
0.0
  0
LINE
  8
SIZE
  6
CONTINUOUS
 62
    30
 10
-762.14314999999999
 20
-15.0
 30
0.0
 11
-762.14314999999999
 21
-27.0
 31
0.0
  0
CIRCLE
  8
SIZE
  6
CONTINUOUS
 62
    30
 10
-762.14314999999999
 20
-15.0
 30
0.0
 40
6.0
  0
LINE
  8
SIZE
  6
CONTINUOUS
 62
    30
 10
-762.14314999999999
 20
-15.0
 30
0.0
 11
-762.14314999999999
 21
0.0
 31
0.0
  0
LINE
  8
SIZE
  6
CONTINUOUS
 62
    30
 10
-762.14314999999999
 20
-15.0
 30
0.0
 11
-762.14314999999999
 21
0.0
 31
0.0
  0
LINE
  8
SIZE
  6
CONTINUOUS
 62
    30
 10
-762.14314999999999
 20
-27.0
 30
0.0
 11
-762.14314999999999
 21
-39.0
 31
0.0
  0
LINE
  8
SIZE
  6
CONTINUOUS
 62
    30
 10
-135.0
 20
-20.0
 30
0.0
 11
-135.0
 21
-506.26309700000002
 31
0.0
  0
LINE
  8
SIZE
  6
CONTINUOUS
 62
    30
 10
-115.0
 20
-40.0
 30
0.0
 11
-115.0
 21
-374.00584700000002
 31
0.0
  0
CIRCLE
  8
SIZE
  6
CONTINUOUS
 62
    30
 10
-135.0
 20
-486.26309700000002
 30
0.0
 40
6.0
  0
CIRCLE
  8
SIZE
  6
CONTINUOUS
 62
    30
 10
-115.0
 20
-354.00584700000002
 30
0.0
 40
6.0
  0
LINE
  8
SIZE
  6
CONTINUOUS
 62
    30
 10
-135.0
 20
-486.26309700000002
 30
0.0
 11
-123.0
 21
-486.26309700000002
 31
0.0
  0
LINE
  8
SIZE
  6
CONTINUOUS
 62
    30
 10
-115.0
 20
-354.00584700000002
 30
0.0
 11
-103.0
 21
-354.00584700000002
 31
0.0
  0
LINE
  8
SIZE
  6
CONTINUOUS
 62
    30
 10
-196.0
 20
0.0
 30
0.0
 11
-606.79130699999996
 21
0.0
 31
0.0
  0
TEXT
  8
SIZE
  6
CONTINUOUS
 62
    30
 10
-611.79130699999996
 20
-177.18690757142861
 30
0.0
 40
64.0
  1
135
 50
90.0
 41
0.9
 72
     1
 11
-611.79130699999996
 21
-108.61547900000009
 31
0.0
  0
LINE
  8
SIZE
  6
CONTINUOUS
 62
    30
 10
-586.79130699999996
 20
-202.18690799999999
 30
0.0
 11
-586.79130699999996
 21
0.0
 31
0.0
  0
LINE
  8
SIZE
  6
CONTINUOUS
 62
    30
 10
-135.0
 20
-20.0
 30
0.0
 11
-135.0
 21
-199.85586699999999
 31
0.0
  0
LINE
  8
SIZE
  6
CONTINUOUS
 62
    30
 10
-135.0
 20
-20.0
 30
0.0
 11
-135.0
 21
-199.85586699999999
 31
0.0
  0
LINE
  8
DETAIL
  6
CONTINUOUS
 62
     5
 10
-125.0945819999999
 20
-15.0
 30
0.0
 11
0.0
 21
-15.0
 31
0.0
  0
LINE
  8
NOTE
  6
CONTINUOUS
 62
     4
 10
-135.0
 20
0.0
 30
0.0
 11
-95.0
 21
0.0
 31
0.0
  0
LINE
  8
NOTE
  6
CONTINUOUS
 62
     4
 10
-166.0
 20
0.0
 30
0.0
 11
-126.0
 21
0.0
 31
0.0
  0
LINE
  8
DETAIL
  6
CONTINUOUS
 62
     5
 10
-167.0
 20
-0.8571230000000014
 30
0.0
 11
-167.0
 21
0.0
 31
0.0
  0
ARC
  8
DETAIL
  6
CONTINUOUS
 62
     5
 10
-159.99999700000001
 20
-0.8571230000000014
 30
0.0
 40
7.0
 50
180.0
 51
258.07308500000272
  0
ARC
  8
DETAIL
  6
CONTINUOUS
 62
     5
 10
-43.986030000000028
 20
483.46498400000002
 30
0.0
 40
505.02073000000001
 50
256.55064799999519
 51
260.75802000000402
  0
TEXT
  8
NOTE
  6
CONTINUOUS
 62
     4
 10
-1051.230004
 20
552.86935300000005
 30
0.0
 40
64.0
  1
AH 4-φ15×22
 41
0.9
  0
LINE
  8
NOTE
  6
CONTINUOUS
 62
     4
 10
-1098.6283109999999
 20
508.51199100000008
 30
0.0
 11
-434.15302700000012
 21
508.51199100000008
 31
0.0
  0
LINE
  8
SIZE
  6
CONTINUOUS
 62
    30
 10
-152.0
 20
248.0
 30
0.0
 11
-152.0
 21
668.98174800000015
 31
0.0
  0
TEXT
  8
SIZE
  6
CONTINUOUS
 62
    30
 10
-790.78968999999984
 20
49.73991214285715
 30
0.0
 40
64.0
  1
243
 50
90.0
 41
0.9
 72
     1
 11
-790.78968999999984
 21
123.797055
 31
0.0
  0
LINE
  8
SIZE
  6
CONTINUOUS
 62
    30
 10
-762.14314999999999
 20
12.0
 30
0.0
 11
-762.14314999999999
 21
231.0
 31
0.0
  0
LINE
  8
SIZE
  6
CONTINUOUS
 62
    30
 10
-762.14314999999999
 20
12.0
 30
0.0
 11
-762.14314999999999
 21
24.0
 31
0.0
  0
CIRCLE
  8
SIZE
  6
CONTINUOUS
 62
    30
 10
-762.14314999999999
 20
243.0
 30
0.0
 40
6.0
  0
LINE
  8
SIZE
  6
CONTINUOUS
 62
    30
 10
-762.14314999999999
 20
243.0
 30
0.0
 11
-762.14314999999999
 21
231.0
 31
0.0
  0
LINE
  8
SIZE
  6
CONTINUOUS
 62
    30
 10
-20.000001999999991
 20
253.33999999999989
 30
0.0
 11
-20.000001999999991
 21
536.30019399999992
 31
0.0
  0
LINE
  8
NOTE
  6
CONTINUOUS
 62
     4
 10
-152.022558
 20
206.9997900000001
 30
0.0
 11
-434.15302700000012
 21
508.51199100000008
 31
0.0
  0
LINE
  8
SIZE
  6
CONTINUOUS
 62
    30
 10
-195.43466100000001
 20
135.0
 30
0.0
 11
-606.79130699999996
 21
135.0
 31
0.0
  0
LINE
  8
SIZE
  6
CONTINUOUS
 62
    30
 10
-586.79130699999996
 20
12.0
 30
0.0
 11
-586.79130699999996
 21
123.0
 31
0.0
  0
LINE
  8
SIZE
  6
CONTINUOUS
 62
    30
 10
-586.79130699999996
 20
135.0
 30
0.0
 11
-586.79130699999996
 21
123.0
 31
0.0
  0
CIRCLE
  8
SIZE
  6
CONTINUOUS
 62
    30
 10
-586.79130699999996
 20
135.0
 30
0.0
 40
6.0
  0
LINE
  8
DETAIL
  6
CONTINUOUS
 62
     5
 10
-147.0
 20
68.05442800000003
 30
0.0
 11
-147.0
 21
214.0
 31
0.0
  0
LINE
  8
DETAIL
  6
CONTINUOUS
 62
     5
 10
-130.0
 20
98.05442800000003
 30
0.0
 11
-130.0
 21
172.05442799999989
 31
0.0
  0
LINE
  8
DETAIL
  6
CONTINUOUS
 62
     5
 10
-4.0
 20
98.05442800000003
 30
0.0
 11
-4.0
 21
172.05442799999989
 31
0.0
  0
CIRCLE
  8
DETAIL
  6
CONTINUOUS
 62
     5
 10
-67.0
 20
135.0
 30
0.0
 40
49.0
  0
CIRCLE
  8
DETAIL
  6
CONTINUOUS
 62
     5
 10
-67.0
 20
135.0
 30
0.0
 40
52.5
  0
LINE
  8
DETAIL
  6
CONTINUOUS
 62
     5
 10
-141.5
 20
103.054428
 30
0.0
 11
-141.5
 21
167.05442799999989
 31
0.0
  0
LINE
  8
BASIS
  6
DASHDOT
 62
     6
 10
-67.0
 20
27.787791999999971
 30
0.0
 11
-67.0
 21
240.068172
 31
0.0
  0
ARC
  8
DETAIL
  6
CONTINUOUS
 62
     5
 10
-110.200034
 20
97.774397000000022
 30
0.0
 40
19.801946000000001
 50
179.18971999999951
 51
264.78470399999401
  0
ARC
  8
DETAIL
  6
CONTINUOUS
 62
     5
 10
-106.5
 20
103.054428
 30
0.0
 40
35.0
 50
180.0
 51
270.0
  0
LINE
  8
DETAIL
  6
CONTINUOUS
 62
     5
 10
-135.0
 20
68.05442800000003
 30
0.0
 11
-147.0
 21
68.05442800000003
 31
0.0
  0
LINE
  8
DETAIL
  6
CONTINUOUS
 62
     5
 10
-136.75
 20
68.05442800000003
 30
0.0
 11
-136.75
 21
7.0
 31
0.0
  0
LINE
  8
DETAIL
  6
CONTINUOUS
 62
     5
 10
-140.25
 20
68.05442800000003
 30
0.0
 11
-140.25
 21
7.0
 31
0.0
  0
LINE
  8
DETAIL
  6
CONTINUOUS
 62
     5
 10
-140.25
 20
7.0
 30
0.0
 11
-135.0
 21
7.0
 31
0.0
  0
ARC
  8
DETAIL
  6
CONTINUOUS
 62
     5
 10
-23.79996600000004
 20
97.774397000000022
 30
0.0
 40
19.801946000000001
 50
275.21529600000599
 51
0.810280000000552
  0
LINE
  8
DETAIL
  6
CONTINUOUS
 62
     5
 10
-67.0
 20
78.05442800000003
 30
0.0
 11
-22.0
 21
78.05442800000003
 31
0.0
  0
LINE
  8
DETAIL
  6
CONTINUOUS
 62
     5
 10
-27.5
 20
68.05442800000003
 30
0.0
 11
-67.0
 21
68.05442800000003
 31
0.0
  0
LINE
  8
DETAIL
  6
CONTINUOUS
 62
     5
 10
-67.0
 20
78.05442800000003
 30
0.0
 11
-112.0
 21
78.05442800000003
 31
0.0
  0
LINE
  8
DETAIL
  6
CONTINUOUS
 62
     5
 10
-106.5
 20
68.05442800000003
 30
0.0
 11
-67.0
 21
68.05442800000003
 31
0.0
  0
LINE
  8
DETAIL
  6
CONTINUOUS
 62
     5
 10
-30.211191999999979
 20
135.0
 30
0.0
 11
-103.788808
 21
135.0
 31
0.0
  0
TEXT
  8
NOTE
  6
CONTINUOUS
 62
     4
 10
-112.694328
 20
93.436005000000023
 30
0.0
 40
64.0
  1
EA
 41
0.9
  0
LINE
  8
DETAIL
  6
CONTINUOUS
 62
     5
 10
-105.43524499999999
 20
138.0
 30
0.0
 11
-103.788808
 21
135.0
 31
0.0
  0
LINE
  8
DETAIL
  6
CONTINUOUS
 62
     5
 10
-116.0
 20
138.0
 30
0.0
 11
-105.43524499999999
 21
138.0
 31
0.0
  0
LINE
  8
DETAIL
  6
CONTINUOUS
 62
     5
 10
-28.564755000000101
 20
138.0
 30
0.0
 11
-30.211191999999979
 21
135.0
 31
0.0
  0
LINE
  8
DETAIL
  6
CONTINUOUS
 62
     5
 10
-18.0
 20
138.0
 30
0.0
 11
-28.564755000000101
 21
138.0
 31
0.0
  0
ARC
  8
DETAIL
  6
CONTINUOUS
 62
     5
 10
-112.0
 20
172.05442799999989
 30
0.0
 40
18.0
 50
90.0
 51
180.0
  0
ARC
  8
DETAIL
  6
CONTINUOUS
 62
     5
 10
-106.5
 20
167.05442799999989
 30
0.0
 40
35.0
 50
90.0
 51
180.0
  0
LINE
  8
NOTE
  6
CONTINUOUS
 62
     4
 10
-186.31710200000001
 20
227.58824000000001
 30
0.0
 11
-152.022558
 21
206.9997900000001
 31
0.0
  0
CIRCLE
  8
FIX
  6
CONTINUOUS
 62
    11
 10
-152.0
 20
207.0
 30
0.0
 40
7.5
  0
LINE
  8
NOTE
  6
CONTINUOUS
 62
     4
 10
-132.0
 20
207.0
 30
0.0
 11
-172.0
 21
207.0
 31
0.0
  0
LINE
  8
NOTE
  6
CONTINUOUS
 62
     4
 10
-152.0
 20
187.0
 30
0.0
 11
-152.0
 21
227.0
 31
0.0
  0
LINE
  8
NOTE
  6
CONTINUOUS
 62
     4
 10
-152.022558
 20
206.9997900000001
 30
0.0
 11
-171.428279
 21
241.977183
 31
0.0
  0
LINE
  8
DETAIL
  6
CONTINUOUS
 62
     5
 10
-167.25
 20
203.5
 30
0.0
 11
-147.0
 21
203.5
 31
0.0
  0
LINE
  8
DETAIL
  6
CONTINUOUS
 62
     5
 10
-167.25
 20
207.0
 30
0.0
 11
-147.0
 21
207.0
 31
0.0
  0
LINE
  8
DETAIL
  6
CONTINUOUS
 62
     5
 10
-167.25
 20
207.0
 30
0.0
 11
-167.25
 21
203.5
 31
0.0
  0
LINE
  8
DETAIL
  6
CONTINUOUS
 62
     5
 10
-67.0
 20
190.05442799999989
 30
0.0
 11
-22.0
 21
190.05442799999989
 31
0.0
  0
LINE
  8
DETAIL
  6
CONTINUOUS
 62
     5
 10
-106.5
 20
202.0000279999999
 30
0.0
 11
-25.549348999999889
 21
202.0000279999999
 31
0.0
  0
LINE
  8
DETAIL
  6
CONTINUOUS
 62
     5
 10
-67.0
 20
190.05442799999989
 30
0.0
 11
-112.0
 21
190.05442799999989
 31
0.0
  0
ARC
  8
DETAIL
  6
CONTINUOUS
 62
     5
 10
-22.0
 20
172.05442799999989
 30
0.0
 40
18.0
 50
0.0
 51
90.0
  0
LINE
  8
DETAIL
  6
CONTINUOUS
 62
     5
 10
-20.0
 20
212.5
 30
0.0
 11
-20.0
 21
233.34421399999999
 31
0.0
  0
ARC
  8
DETAIL
  6
CONTINUOUS
 62
     5
 10
-14.940000000000049
 20
233.33999999999989
 30
0.0
 40
5.0600019999999999
 50
90.0
 51
179.99999899999861
  0
LINE
  8
DETAIL
  6
CONTINUOUS
 62
     5
 10
-9.6374699999998938
 20
238.3999859999999
 30
0.0
 11
-8.4689619999999195
 21
240.42388800000001
 31
0.0
  0
LINE
  8
SIZE
  6
CONTINUOUS
 62
    30
 10
-20.000001999999991
 20
516.30019399999992
 30
0.0
 11
-8.000001999999995
 21
516.30019399999992
 31
0.0
  0
CIRCLE
  8
SIZE
  6
CONTINUOUS
 62
    30
 10
-20.000001999999991
 20
516.30019399999992
 30
0.0
 40
6.0
  0
LINE
  8
SIZE
  6
CONTINUOUS
 62
    30
 10
-152.0
 20
648.98174800000015
 30
0.0
 11
-140.0
 21
648.98174800000015
 31
0.0
  0
CIRCLE
  8
SIZE
  6
CONTINUOUS
 62
    30
 10
-152.0
 20
648.98174800000015
 30
0.0
 40
6.0
  0
LINE
  8
OUTLINE
  6
CONTINUOUS
 62
     3
 10
135.0
 20
0.0
 30
0.0
 11
135.0
 21
200.0
 31
0.0
  0
LINE
  8
DETAIL
  6
CONTINUOUS
 62
     5
 10
35.0
 20
0.0
 30
0.0
 11
35.0
 21
214.0
 31
0.0
  0
LINE
  8
NOTE
  6
CONTINUOUS
 62
     4
 10
146.0
 20
-20.0
 30
0.0
 11
146.0
 21
20.0
 31
0.0
  0
CIRCLE
  8
FIX
  6
CONTINUOUS
 62
    11
 10
146.0
 20
0.0
 30
0.0
 40
2.5
  0
LINE
  8
NOTE
  6
CONTINUOUS
 62
     4
 10
115.0
 20
-20.0
 30
0.0
 11
115.0
 21
20.0
 31
0.0
  0
CIRCLE
  8
FIX
  6
CONTINUOUS
 62
    11
 10
115.0
 20
0.0
 30
0.0
 40
2.5
  0
LINE
  8
DETAIL
  6
CONTINUOUS
 62
     5
 10
135.0
 20
0.0
 30
0.0
 11
135.0
 21
207.0
 31
0.0
  0
LINE
  8
SIZE
  6
CONTINUOUS
 62
    30
 10
167.0
 20
-20.0
 30
0.0
 11
167.0
 21
-891.80600400000003
 31
0.0
  0
CIRCLE
  8
SIZE
  6
CONTINUOUS
 62
    30
 10
167.0
 20
-871.80600400000003
 30
0.0
 40
6.0
  0
LINE
  8
SIZE
  6
CONTINUOUS
 62
    30
 10
167.0
 20
-871.80600400000003
 30
0.0
 11
155.0
 21
-871.80600400000003
 31
0.0
  0
LINE
  8
NOTE
  6
CONTINUOUS
 62
     4
 10
146.0
 20
0.0
 30
0.0
 11
472.76981000000001
 21
-152.91665900000001
 31
0.0
  0
LINE
  8
SIZE
  6
CONTINUOUS
 62
    30
 10
135.0
 20
-20.0
 30
0.0
 11
135.0
 21
-506.26309700000002
 31
0.0
  0
LINE
  8
SIZE
  6
CONTINUOUS
 62
    30
 10
115.0
 20
-40.0
 30
0.0
 11
115.0
 21
-374.00584700000002
 31
0.0
  0
CIRCLE
  8
SIZE
  6
CONTINUOUS
 62
    30
 10
135.0
 20
-486.26309700000002
 30
0.0
 40
6.0
  0
CIRCLE
  8
SIZE
  6
CONTINUOUS
 62
    30
 10
115.0
 20
-354.00584700000002
 30
0.0
 40
6.0
  0
LINE
  8
SIZE
  6
CONTINUOUS
 62
    30
 10
115.0
 20
-354.00584700000002
 30
0.0
 11
103.0
 21
-354.00584700000002
 31
0.0
  0
LINE
  8
SIZE
  6
CONTINUOUS
 62
    30
 10
135.0
 20
-486.26309700000002
 30
0.0
 11
123.0
 21
-486.26309700000002
 31
0.0
  0
LINE
  8
NOTE
  6
CONTINUOUS
 62
     4
 10
95.0
 20
0.0
 30
0.0
 11
135.0
 21
0.0
 31
0.0
  0
LINE
  8
NOTE
  6
CONTINUOUS
 62
     4
 10
146.0
 20
0.0
 30
0.0
 11
185.47521200000011
 21
-6.4581460000000561
 31
0.0
  0
LINE
  8
NOTE
  6
CONTINUOUS
 62
     4
 10
176.95746299999999
 20
-25.33052499999997
 30
0.0
 11
146.0
 21
0.0
 31
0.0
  0
LINE
  8
NOTE
  6
CONTINUOUS
 62
     4
 10
126.0
 20
0.0
 30
0.0
 11
166.0
 21
0.0
 31
0.0
  0
ARC
  8
DETAIL
  6
CONTINUOUS
 62
     5
 10
43.986030000000028
 20
483.46498400000002
 30
0.0
 40
505.02073000000001
 50
279.24197999999598
 51
283.44935200000481
  0
LINE
  8
DETAIL
  6
CONTINUOUS
 62
     5
 10
167.0
 20
-0.8571230000000014
 30
0.0
 11
167.0
 21
0.0
 31
0.0
  0
ARC
  8
DETAIL
  6
CONTINUOUS
 62
     5
 10
159.99999699999989
 20
-0.8571230000000014
 30
0.0
 40
7.0
 50
281.92691499999728
 51
0.0
  0
LINE
  8
NOTE
  6
CONTINUOUS
 62
     4
 10
472.76981000000001
 20
-152.91665900000001
 30
0.0
 11
862.68654700000002
 21
-152.91665900000001
 31
0.0
  0
TEXT
  8
NOTE
  6
CONTINUOUS
 62
     4
 10
475.52563300000003
 20
-119.952389
 30
0.0
 40
64.0
  1
8-φ5×8
 41
0.9
  0
LINE
  8
SIZE
  6
CONTINUOUS
 62
    30
 10
152.0
 20
248.0
 30
0.0
 11
152.0
 21
668.98174800000015
 31
0.0
  0
LINE
  8
NOTE
  6
CONTINUOUS
 62
     4
 10
111.0
 20
200.0
 30
0.0
 11
468.17025000000012
 21
352.57899500000008
 31
0.0
  0
TEXT
  8
NOTE
  6
CONTINUOUS
 62
     4
 10
498.62225799999987
 20
371.51458400000001
 30
0.0
 40
64.0
  1
EL
 41
0.9
  0
LINE
  8
SIZE
  6
CONTINUOUS
 62
    30
 10
62.0
 20
253.33999999999989
 30
0.0
 11
62.0
 21
536.30019399999992
 31
0.0
  0
LINE
  8
DETAIL
  6
CONTINUOUS
 62
     5
 10
7.5
 20
103.054428
 30
0.0
 11
7.5
 21
167.05442799999989
 31
0.0
  0
LINE
  8
DETAIL
  6
CONTINUOUS
 62
     5
 10
140.25
 20
203.5
 30
0.0
 11
140.25
 21
7.0
 31
0.0
  0
LINE
  8
DETAIL
  6
CONTINUOUS
 62
     5
 10
136.75
 20
207.0
 30
0.0
 11
136.75
 21
7.0
 31
0.0
  0
LINE
  8
DETAIL
  6
CONTINUOUS
 62
     5
 10
140.25
 20
7.0
 30
0.0
 11
135.0
 21
7.0
 31
0.0
  0
LINE
  8
DETAIL
  6
CONTINUOUS
 62
     5
 10
135.0
 20
192.0
 30
0.0
 11
35.0
 21
192.0
 31
0.0
  0
LINE
  8
NOTE
  6
CONTINUOUS
 62
     4
 10
111.0
 20
200.0
 30
0.0
 11
150.584566
 21
205.7499700000001
 31
0.0
  0
LINE
  8
NOTE
  6
CONTINUOUS
 62
     4
 10
142.40625399999999
 20
224.77190300000009
 30
0.0
 11
111.0
 21
200.0
 31
0.0
  0
LINE
  8
DETAIL
  6
CONTINUOUS
 62
     5
 10
135.0
 20
200.0
 30
0.0
 11
35.0
 21
200.0
 31
0.0
  0
LINE
  8
NOTE
  6
CONTINUOUS
 62
     4
 10
91.5
 20
200.0
 30
0.0
 11
131.5
 21
200.0
 31
0.0
  0
LINE
  8
DETAIL
  6
CONTINUOUS
 62
     5
 10
62.0
 20
213.0
 30
0.0
 11
35.0
 21
213.0
 31
0.0
  0
ARC
  8
DETAIL
  6
CONTINUOUS
 62
     5
 10
56.940000000000047
 20
233.33999999999989
 30
0.0
 40
5.0600019999999999
 50
0.0000010000014034
 51
90.0
  0
LINE
  8
DETAIL
  6
CONTINUOUS
 62
     5
 10
81.0
 20
208.0
 30
0.0
 11
35.0
 21
208.0
 31
0.0
  0
LINE
  8
DETAIL
  6
CONTINUOUS
 62
     5
 10
51.637469999999887
 20
238.3999859999999
 30
0.0
 11
50.468961999999919
 21
240.42388800000001
 31
0.0
  0
LINE
  8
DETAIL
  6
CONTINUOUS
 62
     5
 10
56.940000000000047
 20
238.3999859999999
 30
0.0
 11
21.0
 21
238.3999859999999
 31
0.0
  0
LINE
  8
DETAIL
  6
CONTINUOUS
 62
     5
 10
21.0
 20
240.423902
 30
0.0
 11
50.468953000000063
 21
240.423902
 31
0.0
  0
LINE
  8
DETAIL
  6
CONTINUOUS
 62
     5
 10
27.67223400000012
 20
241.42907099999999
 30
0.0
 11
27.82082100000002
 21
240.423902
 31
0.0
  0
LINE
  8
DETAIL
  6
CONTINUOUS
 62
     5
 10
25.852012000000059
 20
243.0
 30
0.0
 11
21.0
 21
243.0
 31
0.0
  0
ARC
  8
DETAIL
  6
CONTINUOUS
 62
     5
 10
25.852012000000059
 20
241.15998599999989
 30
0.0
 40
1.840001
 50
8.4091109999987417
 51
90.0
  0
ARC
  8
DETAIL
  6
CONTINUOUS
 62
     5
 10
16.147987999999941
 20
241.15998599999989
 30
0.0
 40
1.840001
 50
90.0
 51
171.59088900000131
  0
LINE
  8
DETAIL
  6
CONTINUOUS
 62
     5
 10
16.147987999999941
 20
243.0
 30
0.0
 11
21.0
 21
243.0
 31
0.0
  0
LINE
  8
DETAIL
  6
CONTINUOUS
 62
     5
 10
14.327766000000111
 20
241.42907099999999
 30
0.0
 11
14.17917899999998
 21
240.423902
 31
0.0
  0
LINE
  8
DETAIL
  6
CONTINUOUS
 62
     5
 10
81.0
 20
208.0
 30
0.0
 11
87.394960000000083
 21
200.0
 31
0.0
  0
LINE
  8
DETAIL
  6
CONTINUOUS
 62
     5
 10
62.0
 20
208.0
 30
0.0
 11
62.0
 21
233.33999999999989
 31
0.0
  0
LINE
  8
NOTE
  6
CONTINUOUS
 62
     4
 10
111.0
 20
180.0
 30
0.0
 11
111.0
 21
220.0
 31
0.0
  0
LINE
  8
DETAIL
  6
CONTINUOUS
 62
     5
 10
135.0
 20
200.0
 30
0.0
 11
135.0
 21
207.0
 31
0.0
  0
CIRCLE
  8
FIX
  6
CONTINUOUS
 62
    11
 10
152.0
 20
207.0
 30
0.0
 40
7.5
  0
LINE
  8
NOTE
  6
CONTINUOUS
 62
     4
 10
132.0
 20
207.0
 30
0.0
 11
172.0
 21
207.0
 31
0.0
  0
LINE
  8
NOTE
  6
CONTINUOUS
 62
     4
 10
152.0
 20
188.0
 30
0.0
 11
152.0
 21
228.0
 31
0.0
  0
LINE
  8
DETAIL
  6
CONTINUOUS
 62
     5
 10
167.25
 20
203.5
 30
0.0
 11
140.25
 21
203.5
 31
0.0
  0
LINE
  8
DETAIL
  6
CONTINUOUS
 62
     5
 10
167.25
 20
207.0
 30
0.0
 11
135.0
 21
207.0
 31
0.0
  0
LINE
  8
DETAIL
  6
CONTINUOUS
 62
     5
 10
167.25
 20
207.0
 30
0.0
 11
167.25
 21
203.5
 31
0.0
  0
LINE
  8
SIZE
  6
CONTINUOUS
 62
    30
 10
62.0
 20
516.30019399999992
 30
0.0
 11
341.03262100000012
 21
516.30019399999992
 31
0.0
  0
TEXT
  8
SIZE
  6
CONTINUOUS
 62
    30
 10
155.4482975714285
 20
541.30019399999992
 30
0.0
 40
64.0
  1
φ82
 41
0.9
 72
     1
 11
242.3968689999999
 21
541.30019399999992
 31
0.0
  0
LINE
  8
SIZE
  6
CONTINUOUS
 62
    30
 10
342.82544000000013
 20
516.30019399999992
 30
0.0
 11
62.0
 21
516.30019399999992
 31
0.0
  0
LINE
  8
SIZE
  6
CONTINUOUS
 62
    30
 10
62.0
 20
516.30019399999992
 30
0.0
 11
50.0
 21
516.30019399999992
 31
0.0
  0
CIRCLE
  8
SIZE
  6
CONTINUOUS
 62
    30
 10
62.0
 20
516.30019399999992
 30
0.0
 40
6.0
  0
LINE
  8
NOTE
  6
CONTINUOUS
 62
     4
 10
468.17025000000012
 20
352.57899500000008
 30
0.0
 11
600.61870099999987
 21
352.57899500000008
 31
0.0
  0
LINE
  8
SIZE
  6
CONTINUOUS
 62
    30
 10
152.0
 20
648.98174800000015
 30
0.0
 11
140.0
 21
648.98174800000015
 31
0.0
  0
CIRCLE
  8
SIZE
  6
CONTINUOUS
 62
    30
 10
152.0
 20
648.98174800000015
 30
0.0
 40
6.0
  0
LINE
  8
SIZE
  6
CONTINUOUS
 62
    30
 10
187.0
 20
0.0
 30
0.0
 11
433.78829100000007
 21
0.0
 31
0.0
  0
LINE
  8
SIZE
  6
CONTINUOUS
 62
    30
 10
187.25
 20
207.0
 30
0.0
 11
433.78829100000007
 21
207.0
 31
0.0
  0
LINE
  8
SIZE
  6
CONTINUOUS
 62
    30
 10
413.78829100000007
 20
12.0
 30
0.0
 11
413.78829100000007
 21
195.0
 31
0.0
  0
CIRCLE
  8
SIZE
  6
CONTINUOUS
 62
    30
 10
413.78829100000007
 20
0.0
 30
0.0
 40
6.0
  0
LINE
  8
SIZE
  6
CONTINUOUS
 62
    30
 10
413.78829100000007
 20
0.0
 30
0.0
 11
413.78829100000007
 21
12.0
 31
0.0
  0
CIRCLE
  8
SIZE
  6
CONTINUOUS
 62
    30
 10
413.78829100000007
 20
207.0
 30
0.0
 40
6.0
  0
LINE
  8
SIZE
  6
CONTINUOUS
 62
    30
 10
413.78829100000007
 20
207.0
 30
0.0
 11
413.78829100000007
 21
195.0
 31
0.0
  0
TEXT
  8
SIZE
  6
CONTINUOUS
 62
    30
 10
388.78829100000007
 20
29.44285714285715
 30
0.0
 40
64.0
  1
207
 50
90.0
 41
0.9
 72
     1
 11
388.78829100000007
 21
103.5
 31
0.0
  0
POINT
  8
DEFPOINTS
  6
CONTINUOUS
 62
    30
 10
167.0
 20
0.0
 30
0.0
  0
POINT
  8
DEFPOINTS
  6
CONTINUOUS
 62
    30
 10
167.25
 20
207.0
 30
0.0
  0
POINT
  8
DEFPOINTS
  6
CONTINUOUS
 62
    30
 10
413.78829100000007
 20
207.0
 30
0.0
  0
LINE
  8
SIZE
  6
CONTINUOUS
 62
    30
 10
0.0
 20
-93.243109000000004
 30
0.0
 11
0.0
 21
-213.542835
 31
0.0
  0
LINE
  8
SIZE
  6
CONTINUOUS
 62
    30
 10
111.0
 20
160.0
 30
0.0
 11
111.0
 21
-213.542835
 31
0.0
  0
LINE
  8
SIZE
  6
CONTINUOUS
 62
    30
 10
12.0
 20
-193.542835
 30
0.0
 11
99.0
 21
-193.542835
 31
0.0
  0
LINE
  8
SIZE
  6
CONTINUOUS
 62
    30
 10
111.0
 20
-193.542835
 30
0.0
 11
326.40540900000002
 21
-193.542835
 31
0.0
  0
CIRCLE
  8
SIZE
  6
CONTINUOUS
 62
    30
 10
0.0
 20
-193.542835
 30
0.0
 40
6.0
  0
LINE
  8
SIZE
  6
CONTINUOUS
 62
    30
 10
0.0
 20
-193.542835
 30
0.0
 11
12.0
 21
-193.542835
 31
0.0
  0
CIRCLE
  8
SIZE
  6
CONTINUOUS
 62
    30
 10
111.0
 20
-193.542835
 30
0.0
 40
6.0
  0
LINE
  8
SIZE
  6
CONTINUOUS
 62
    30
 10
111.0
 20
-193.542835
 30
0.0
 11
99.0
 21
-193.542835
 31
0.0
  0
TEXT
  8
SIZE
  6
CONTINUOUS
 62
    30
 10
199.9196948571429
 20
-168.542835
 30
0.0
 40
64.0
  1
111
 41
0.9
 72
     1
 11
250.66255200000001
 21
-168.542835
 31
0.0
  0
POINT
  8
DEFPOINTS
  6
CONTINUOUS
 62
    30
 10
0.0
 20
-73.243109000000004
 30
0.0
  0
POINT
  8
DEFPOINTS
  6
CONTINUOUS
 62
    30
 10
111.0
 20
180.0
 30
0.0
  0
POINT
  8
DEFPOINTS
  6
CONTINUOUS
 62
    30
 10
111.0
 20
-193.542835
 30
0.0
  0
LINE
  8
SIZE
  6
CONTINUOUS
 62
    30
 10
-187.0
 20
0.0
 30
0.0
 11
-360.53630399999997
 21
0.0
 31
0.0
  0
LINE
  8
SIZE
  6
CONTINUOUS
 62
    30
 10
-167.0
 20
68.05442800000003
 30
0.0
 11
-360.53630399999997
 21
68.05442800000003
 31
0.0
  0
LINE
  8
SIZE
  6
CONTINUOUS
 62
    30
 10
-340.53630399999997
 20
80.05442800000003
 30
0.0
 11
-340.53630399999997
 21
92.05442800000003
 31
0.0
  0
LINE
  8
SIZE
  6
CONTINUOUS
 62
    30
 10
-340.53630399999997
 20
-12.0
 30
0.0
 11
-340.53630399999997
 21
-176.9405899999999
 31
0.0
  0
LINE
  8
SIZE
  6
CONTINUOUS
 62
    30
 10
-340.53630399999997
 20
68.05442800000003
 30
0.0
 11
-340.53630399999997
 21
0.0
 31
0.0
  0
CIRCLE
  8
SIZE
  6
CONTINUOUS
 62
    30
 10
-340.53630399999997
 20
68.05442800000003
 30
0.0
 40
6.0
  0
LINE
  8
SIZE
  6
CONTINUOUS
 62
    30
 10
-340.53630399999997
 20
68.05442800000003
 30
0.0
 11
-340.53630399999997
 21
80.05442800000003
 31
0.0
  0
CIRCLE
  8
SIZE
  6
CONTINUOUS
 62
    30
 10
-340.53630399999997
 20
0.0
 30
0.0
 40
6.0
  0
LINE
  8
SIZE
  6
CONTINUOUS
 62
    30
 10
-340.53630399999997
 20
0.0
 30
0.0
 11
-340.53630399999997
 21
-12.0
 31
0.0
  0
TEXT
  8
SIZE
  6
CONTINUOUS
 62
    30
 10
-365.53630399999997
 20
-151.9405904285714
 30
0.0
 40
64.0
  1
68
 50
90.0
 41
0.9
 72
     1
 11
-365.53630399999997
 21
-105.31201900000001
 31
0.0
  0
POINT
  8
DEFPOINTS
  6
CONTINUOUS
 62
    30
 10
-167.0
 20
0.0
 30
0.0
  0
POINT
  8
DEFPOINTS
  6
CONTINUOUS
 62
    30
 10
-147.0
 20
68.05442800000003
 30
0.0
  0
POINT
  8
DEFPOINTS
  6
CONTINUOUS
 62
    30
 10
-340.53630399999997
 20
68.05442800000003
 30
0.0
  0
LINE
  8
SIZE
  6
CONTINUOUS
 62
    30
 10
-135.0
 20
-20.0
 30
0.0
 11
-135.0
 21
-216.88328200000001
 31
0.0
  0
LINE
  8
SIZE
  6
CONTINUOUS
 62
    30
 10
-147.0
 20
48.05442800000003
 30
0.0
 11
-147.0
 21
-216.88328200000001
 31
0.0
  0
LINE
  8
SIZE
  6
CONTINUOUS
 62
    30
 10
-123.0
 20
-196.88328200000001
 30
0.0
 11
-111.0
 21
-196.88328200000001
 31
0.0
  0
LINE
  8
SIZE
  6
CONTINUOUS
 62
    30
 10
-159.0
 20
-196.88328200000001
 30
0.0
 11
-303.28571399999998
 21
-196.88328200000001
 31
0.0
  0
LINE
  8
SIZE
  6
CONTINUOUS
 62
    30
 10
-135.0
 20
-196.88328200000001
 30
0.0
 11
-147.0
 21
-196.88328200000001
 31
0.0
  0
CIRCLE
  8
SIZE
  6
CONTINUOUS
 62
    30
 10
-135.0
 20
-196.88328200000001
 30
0.0
 40
6.0
  0
LINE
  8
SIZE
  6
CONTINUOUS
 62
    30
 10
-135.0
 20
-196.88328200000001
 30
0.0
 11
-123.0
 21
-196.88328200000001
 31
0.0
  0
CIRCLE
  8
SIZE
  6
CONTINUOUS
 62
    30
 10
-147.0
 20
-196.88328200000001
 30
0.0
 40
6.0
  0
LINE
  8
SIZE
  6
CONTINUOUS
 62
    30
 10
-147.0
 20
-196.88328200000001
 30
0.0
 11
-159.0
 21
-196.88328200000001
 31
0.0
  0
TEXT
  8
SIZE
  6
CONTINUOUS
 62
    30
 10
-278.28571414285722
 20
-171.88328200000001
 30
0.0
 40
64.0
  1
12
 41
0.9
 72
     1
 11
-237.14285699999999
 21
-171.88328200000001
 31
0.0
  0
POINT
  8
DEFPOINTS
  6
CONTINUOUS
 62
    30
 10
-135.0
 20
0.0
 30
0.0
  0
POINT
  8
DEFPOINTS
  6
CONTINUOUS
 62
    30
 10
-147.0
 20
68.05442800000003
 30
0.0
  0
POINT
  8
DEFPOINTS
  6
CONTINUOUS
 62
    30
 10
-147.0
 20
-196.88328200000001
 30
0.0
  0
LINE
  8
SIZE
  6
CONTINUOUS
 62
    30
 10
-536.60146899999995
 20
384.05696799999993
 30
0.0
 11
-123.982005
 21
165.22087099999999
 31
0.0
  0
LINE
  8
SIZE
  6
CONTINUOUS
 62
    30
 10
-10.01799499999993
 20
104.779129
 30
0.0
 11
0.5833090000000993
 21
99.156641000000036
 31
0.0
  0
TEXT
  8
SIZE
  6
CONTINUOUS
 62
    30
 10
-515.40230419752493
 20
401.11226187428542
 30
0.0
 40
64.0
  1
φ105
 50
332.0603753262626
 41
0.9
 72
     1
 11
-419.20306373112157
 21
350.09217416352539
 31
0.0
  0
LINE
  8
SIZE
  6
CONTINUOUS
 62
    30
 10
-20.619298000000072
 20
110.401616
 30
0.0
 11
-113.380702
 21
159.5983839999999
 31
0.0
  0
CIRCLE
  8
SIZE
  6
CONTINUOUS
 62
    30
 10
-20.619298000000072
 20
110.401616
 30
0.0
 40
6.0
  0
LINE
  8
SIZE
  6
CONTINUOUS
 62
    30
 10
-20.619298000000072
 20
110.401616
 30
0.0
 11
-10.017994675112281
 21
104.7791283109316
 31
0.0
  0
CIRCLE
  8
SIZE
  6
CONTINUOUS
 62
    30
 10
-113.380702
 20
159.5983839999999
 30
0.0
 40
6.0
  0
LINE
  8
SIZE
  6
CONTINUOUS
 62
    30
 10
-113.380702
 20
159.5983839999999
 30
0.0
 11
-123.9820053248876
 21
165.22087168906839
 31
0.0
  0
POINT
  8
DEFPOINTS
  6
CONTINUOUS
 62
    30
 10
-113.380702
 20
159.5983839999999
 30
0.0
  0
POINT
  8
DEFPOINTS
  6
CONTINUOUS
 62
    30
 10
-20.619298000000072
 20
110.401616
 30
0.0
  0
LINE
  8
SIZE
  6
CONTINUOUS
 62
    30
 10
-716.38245900000004
 20
295.02929699999999
 30
0.0
 11
-126.22806799999999
 21
149.59575300000009
 31
0.0
  0
LINE
  8
SIZE
  6
CONTINUOUS
 62
    30
 10
-7.7719320000001062
 20
120.4042469999999
 30
0.0
 11
3.8794909999999159
 21
117.532951
 31
0.0
  0
TEXT
  8
SIZE
  6
CONTINUOUS
 62
    30
 10
-699.975346964555
 20
316.73400002967821
 30
0.0
 40
64.0
  1
φ98
 50
346.15624796428642
 41
0.9
 72
     1
 11
-615.55247080581125
 21
295.9293838458882
 31
0.0
  0
LINE
  8
SIZE
  6
CONTINUOUS
 62
    30
 10
-19.423356000000009
 20
123.275543
 30
0.0
 11
-114.576644
 21
146.724457
 31
0.0
  0
CIRCLE
  8
SIZE
  6
CONTINUOUS
 62
    30
 10
-19.423356000000009
 20
123.275543
 30
0.0
 40
6.0
  0
LINE
  8
SIZE
  6
CONTINUOUS
 62
    30
 10
-19.423356000000009
 20
123.275543
 30
0.0
 11
-7.7719328632599627
 21
120.4042473188415
 31
0.0
  0
CIRCLE
  8
SIZE
  6
CONTINUOUS
 62
    30
 10
-114.576644
 20
146.724457
 30
0.0
 40
6.0
  0
LINE
  8
SIZE
  6
CONTINUOUS
 62
    30
 10
-114.576644
 20
146.724457
 30
0.0
 11
-126.22806713673999
 21
149.5957526811585
 31
0.0
  0
POINT
  8
DEFPOINTS
  6
CONTINUOUS
 62
    30
 10
-114.576644
 20
146.724457
 30
0.0
  0
POINT
  8
DEFPOINTS
  6
CONTINUOUS
 62
    30
 10
-19.423356000000009
 20
123.275543
 30
0.0
  0
LINE
  8
DETAIL
  6
CONTINUOUS
 62
     5
 10
-138.0
 20
8.0
 30
0.0
 11
-135.0
 21
8.0
 31
0.0
  0
LINE
  8
DETAIL
  6
CONTINUOUS
 62
     5
 10
-138.0
 20
20.0
 30
0.0
 11
-135.0
 21
20.0
 31
0.0
  0
LINE
  8
DETAIL
  6
CONTINUOUS
 62
     5
 10
-138.0
 20
8.0
 30
0.0
 11
-138.0
 21
20.0
 31
0.0
  0
LINE
  8
DETAIL
  6
CONTINUOUS
 62
     5
 10
138.0
 20
8.0
 30
0.0
 11
135.0
 21
8.0
 31
0.0
  0
LINE
  8
DETAIL
  6
CONTINUOUS
 62
     5
 10
138.0
 20
20.0
 30
0.0
 11
135.0
 21
20.0
 31
0.0
  0
LINE
  8
DETAIL
  6
CONTINUOUS
 62
     5
 10
138.0
 20
8.0
 30
0.0
 11
138.0
 21
20.0
 31
0.0
  0
LINE
  8
SIZE
  6
CONTINUOUS
 62
    30
 10
-138.0
 20
-12.0
 30
0.0
 11
-138.0
 21
-630.92307300000004
 31
0.0
  0
LINE
  8
SIZE
  6
CONTINUOUS
 62
    30
 10
138.0
 20
-12.0
 30
0.0
 11
138.0
 21
-630.92307300000004
 31
0.0
  0
LINE
  8
SIZE
  6
CONTINUOUS
 62
    30
 10
-126.0
 20
-610.92307300000004
 30
0.0
 11
126.0
 21
-610.92307300000004
 31
0.0
  0
CIRCLE
  8
SIZE
  6
CONTINUOUS
 62
    30
 10
-138.0
 20
-610.92307300000004
 30
0.0
 40
6.0
  0
LINE
  8
SIZE
  6
CONTINUOUS
 62
    30
 10
-138.0
 20
-610.92307300000004
 30
0.0
 11
-126.0
 21
-610.92307300000004
 31
0.0
  0
CIRCLE
  8
SIZE
  6
CONTINUOUS
 62
    30
 10
138.0
 20
-610.92307300000004
 30
0.0
 40
6.0
  0
LINE
  8
SIZE
  6
CONTINUOUS
 62
    30
 10
138.0
 20
-610.92307300000004
 30
0.0
 11
126.0
 21
-610.92307300000004
 31
0.0
  0
TEXT
  8
SIZE
  6
CONTINUOUS
 62
    30
 10
-72.685714285714283
 20
-585.92307300000004
 30
0.0
 40
64.0
  1
276
 41
0.9
 72
     1
 11
0.0
 21
-585.92307300000004
 31
0.0
  0
POINT
  8
DEFPOINTS
  6
CONTINUOUS
 62
    30
 10
-138.0
 20
8.0
 30
0.0
  0
POINT
  8
DEFPOINTS
  6
CONTINUOUS
 62
    30
 10
138.0
 20
8.0
 30
0.0
  0
POINT
  8
DEFPOINTS
  6
CONTINUOUS
 62
    30
 10
138.0
 20
-610.92307300000004
 30
0.0
  0
LINE
  8
SIZE
  6
CONTINUOUS
 62
    30
 10
-132.0
 20
78.05442800000003
 30
0.0
 11
-486.76587300000011
 21
78.05442800000003
 31
0.0
  0
LINE
  8
SIZE
  6
CONTINUOUS
 62
    30
 10
-187.0
 20
0.0
 30
0.0
 11
-486.76587300000011
 21
0.0
 31
0.0
  0
LINE
  8
SIZE
  6
CONTINUOUS
 62
    30
 10
-466.76587300000011
 20
66.05442800000003
 30
0.0
 11
-466.76587300000011
 21
12.0
 31
0.0
  0
LINE
  8
SIZE
  6
CONTINUOUS
 62
    30
 10
-466.76587300000011
 20
0.0
 30
0.0
 11
-466.76587300000011
 21
-155.25714300000001
 31
0.0
  0
CIRCLE
  8
SIZE
  6
CONTINUOUS
 62
    30
 10
-466.76587300000011
 20
78.05442800000003
 30
0.0
 40
6.0
  0
LINE
  8
SIZE
  6
CONTINUOUS
 62
    30
 10
-466.76587300000011
 20
78.05442800000003
 30
0.0
 11
-466.76587300000011
 21
66.05442800000003
 31
0.0
  0
CIRCLE
  8
SIZE
  6
CONTINUOUS
 62
    30
 10
-466.76587300000011
 20
0.0
 30
0.0
 40
6.0
  0
LINE
  8
SIZE
  6
CONTINUOUS
 62
    30
 10
-466.76587300000011
 20
0.0
 30
0.0
 11
-466.76587300000011
 21
12.0
 31
0.0
  0
TEXT
  8
SIZE
  6
CONTINUOUS
 62
    30
 10
-491.76587300000011
 20
-130.2571424285714
 30
0.0
 40
64.0
  1
78
 50
90.0
 41
0.9
 72
     1
 11
-491.76587300000011
 21
-83.628570999999965
 31
0.0
  0
POINT
  8
DEFPOINTS
  6
CONTINUOUS
 62
    30
 10
-112.0
 20
78.05442800000003
 30
0.0
  0
POINT
  8
DEFPOINTS
  6
CONTINUOUS
 62
    30
 10
-167.0
 20
0.0
 30
0.0
  0
POINT
  8
DEFPOINTS
  6
CONTINUOUS
 62
    30
 10
-466.76587300000011
 20
0.0
 30
0.0
  0
LINE
  8
SIZE
  6
CONTINUOUS
 62
    30
 10
-146.0
 20
-40.0
 30
0.0
 11
-146.0
 21
-764.66528000000005
 31
0.0
  0
LINE
  8
SIZE
  6
CONTINUOUS
 62
    30
 10
146.0
 20
-40.0
 30
0.0
 11
146.0
 21
-764.66528000000005
 31
0.0
  0
LINE
  8
SIZE
  6
CONTINUOUS
 62
    30
 10
-134.0
 20
-744.66528000000005
 30
0.0
 11
134.0
 21
-744.66528000000005
 31
0.0
  0
CIRCLE
  8
SIZE
  6
CONTINUOUS
 62
    30
 10
-146.0
 20
-744.66528000000005
 30
0.0
 40
6.0
  0
LINE
  8
SIZE
  6
CONTINUOUS
 62
    30
 10
-146.0
 20
-744.66528000000005
 30
0.0
 11
-134.0
 21
-744.66528000000005
 31
0.0
  0
CIRCLE
  8
SIZE
  6
CONTINUOUS
 62
    30
 10
146.0
 20
-744.66528000000005
 30
0.0
 40
6.0
  0
LINE
  8
SIZE
  6
CONTINUOUS
 62
    30
 10
146.0
 20
-744.66528000000005
 30
0.0
 11
134.0
 21
-744.66528000000005
 31
0.0
  0
TEXT
  8
SIZE
  6
CONTINUOUS
 62
    30
 10
-74.05714285714285
 20
-719.66528000000017
 30
0.0
 40
64.0
  1
292
 41
0.9
 72
     1
 11
0.0
 21
-719.66528000000017
 31
0.0
  0
POINT
  8
DEFPOINTS
  6
CONTINUOUS
 62
    30
 10
-146.0
 20
-20.0
 30
0.0
  0
POINT
  8
DEFPOINTS
  6
CONTINUOUS
 62
    30
 10
146.0
 20
-20.0
 30
0.0
  0
POINT
  8
DEFPOINTS
  6
CONTINUOUS
 62
    30
 10
146.0
 20
-744.66528000000005
 30
0.0
  0
TEXT
  8
ETC
  6
CONTINUOUS
 62
    61
 10
467.03294320616169
 20
805.59654520920139
 30
0.0
 40
64.0
  1
VD-18ZY13_2
 41
0.9
  0
TEXT
  8
ETC
  6
CONTINUOUS
 62
    61
 10
462.84694920616181
 20
687.64123520920157
 30
0.0
 40
64.0
  1
換気扇
 41
0.9
  0
TEXT
  8
ETC
  6
CONTINUOUS
 62
    61
 10
513.45445120616159
 20
579.80545520920145
 30
0.0
 40
40.0
  1
VD-18ZY13
 41
0.9
  0
TEXT
  8
ETC
  6
CONTINUOUS
 62
    61
 10
513.45445120616159
 20
509.80545520920151
 30
0.0
 40
40.0
  1
VD-18ZLY13
 41
0.9
  0
ENDSEC
  0
EOF
