  0
SECTION
  2
HEADER
  9
$ACADVER
  1
AC1009
  9
$INSBASE
 10
0.0
 20
0.0
 30
0.0
  9
$EXTMIN
 10
-1276.9939999999999
 20
-534.20279600000003
 30
0.0
  9
$EXTMAX
 10
1156.1734643269619
 20
1005.301926513282
 30
50.0
  9
$LIMMIN
 10
-2970.0
 20
-2100.0
  9
$LIMMAX
 10
2970.0
 20
2100.0
  9
$ORTHOMODE
 70
     0
  9
$REGENMODE
 70
     0
  9
$FILLMODE
 70
     1
  9
$QTEXTMODE
 70
     0
  9
$MIRRTEXT
 70
     0
  9
$DRAGMODE
 70
     2
  9
$LTSCALE
 40
20.0
  9
$OSMODE
 70
   175
  9
$ATTMODE
 70
     1
  9
$TEXTSIZE
 40
64.0
  9
$TRACEWID
 40
0.05
  9
$TEXTSTYLE
  7
STANDARD
  9
$CLAYER
  8
OUTLINE
  9
$CELTYPE
  6
CONTINUOUS
  9
$CECOLOR
 62
     3
  9
$DIMSCALE
 40
1.0
  9
$DIMASZ
 40
12.0
  9
$DIMEXO
 40
20.0
  9
$DIMDLI
 40
200.0
  9
$DIMRND
 40
0.0
  9
$DIMDLE
 40
0.0
  9
$DIMEXE
 40
20.0
  9
$DIMTP
 40
0.0
  9
$DIMTM
 40
0.0
  9
$DIMTXT
 40
64.0
  9
$DIMCEN
 40
0.09
  9
$DIMTSZ
 40
0.0
  9
$DIMTOL
 70
     0
  9
$DIMLIM
 70
     0
  9
$DIMTIH
 70
     0
  9
$DIMTOH
 70
     0
  9
$DIMSE1
 70
     0
  9
$DIMSE2
 70
     0
  9
$DIMTAD
 70
     1
  9
$DIMZIN
 70
     8
  9
$DIMBLK
  1
DOT1
  9
$DIMASO
 70
     1
  9
$DIMSHO
 70
     0
  9
$DIMPOST
  1

  9
$DIMAPOST
  1

  9
$DIMALT
 70
     0
  9
$DIMALTD
 70
     2
  9
$DIMALTF
 40
25.399999999999999
  9
$DIMLFAC
 40
1.0
  9
$DIMTOFL
 70
     1
  9
$DIMTVP
 40
0.0
  9
$DIMTIX
 70
     1
  9
$DIMSOXD
 70
     0
  9
$DIMSAH
 70
     1
  9
$DIMBLK1
  1
ORIGIN
  9
$DIMBLK2
  1
ORIGIN
  9
$DIMSTYLE
  2
STANDARD
  9
$DIMCLRD
 70
     0
  9
$DIMCLRE
 70
     0
  9
$DIMCLRT
 70
     0
  9
$DIMTFAC
 40
1.0
  9
$DIMGAP
 40
0.09
  9
$LUNITS
 70
     2
  9
$LUPREC
 70
     4
  9
$SKETCHINC
 40
0.1
  9
$FILLETRAD
 40
4.0
  9
$AUNITS
 70
     1
  9
$AUPREC
 70
     3
  9
$MENU
  1
ACAD
  9
$ELEVATION
 40
0.0
  9
$PELEVATION
 40
0.0
  9
$THICKNESS
 40
50.0
  9
$LIMCHECK
 70
     0
  9
$BLIPMODE
 70
     0
  9
$CHAMFERA
 40
0.0
  9
$CHAMFERB
 40
0.0
  9
$SKPOLY
 70
     0
  9
$TDCREATE
 40
2452321.3961996529
  9
$TDUPDATE
 40
2453778.8696301621
  9
$TDINDWG
 40
0.2129724421
  9
$TDUSRTIMER
 40
0.2129722569
  9
$USRTIMER
 70
     1
  9
$ANGBASE
 50
0.0
  9
$ANGDIR
 70
     0
  9
$PDMODE
 70
     3
  9
$PDSIZE
 40
-2.0
  9
$PLINEWID
 40
0.0
  9
$COORDS
 70
     2
  9
$SPLFRAME
 70
     0
  9
$SPLINETYPE
 70
     6
  9
$SPLINESEGS
 70
     8
  9
$ATTDIA
 70
     0
  9
$ATTREQ
 70
     1
  9
$HANDLING
 70
 22529
  9
$HANDSEED
  5
5BD
  9
$SURFTAB1
 70
     6
  9
$SURFTAB2
 70
     6
  9
$SURFTYPE
 70
     6
  9
$SURFU
 70
     6
  9
$SURFV
 70
     6
  9
$UCSNAME
  2

  9
$UCSORG
 10
0.0
 20
0.0
 30
0.0
  9
$UCSXDIR
 10
1.0
 20
0.0
 30
0.0
  9
$UCSYDIR
 10
0.0
 20
1.0
 30
0.0
  9
$PUCSNAME
  2

  9
$PUCSORG
 10
0.0
 20
0.0
 30
0.0
  9
$PUCSXDIR
 10
1.0
 20
0.0
 30
0.0
  9
$PUCSYDIR
 10
0.0
 20
1.0
 30
0.0
  9
$USERI1
 70
     0
  9
$USERI2
 70
     0
  9
$USERI3
 70
     0
  9
$USERI4
 70
     0
  9
$USERI5
 70
     0
  9
$USERR1
 40
20.0
  9
$USERR2
 40
0.0
  9
$USERR3
 40
0.0
  9
$USERR4
 40
0.0
  9
$USERR5
 40
0.0
  9
$WORLDVIEW
 70
     1
  9
$SHADEDGE
 70
     3
  9
$SHADEDIF
 70
    70
  9
$TILEMODE
 70
     1
  9
$MAXACTVP
 70
    64
  9
$PLIMCHECK
 70
     0
  9
$PEXTMIN
 10
1.0000000000000000E+020
 20
1.0000000000000000E+020
 30
1.0000000000000000E+020
  9
$PEXTMAX
 10
-1.0000000000000000E+020
 20
-1.0000000000000000E+020
 30
-1.0000000000000000E+020
  9
$PLIMMIN
 10
0.0
 20
0.0
  9
$PLIMMAX
 10
12.0
 20
9.0
  9
$UNITMODE
 70
     0
  9
$VISRETAIN
 70
     1
  9
$PLINEGEN
 70
     0
  9
$PSLTSCALE
 70
     1
  0
ENDSEC
  0
SECTION
  2
TABLES
  0
TABLE
  2
VPORT
 70
     3
  0
VPORT
  2
*ACTIVE
 70
     0
 10
0.0
 20
0.0
 11
1.0
 21
1.0
 12
75.643046450533802
 22
192.87766318177029
 13
0.0
 23
0.0
 14
1.0
 24
1.0
 15
0.0
 25
0.0
 16
0.0
 26
0.0
 36
1.0
 17
0.0
 27
0.0
 37
0.0
 40
1947.0954970569519
 41
1.447268106734434
 42
50.0
 43
0.0
 44
0.0
 50
0.0
 51
0.0
 71
     0
 72
   100
 73
     1
 74
     0
 75
     0
 76
     0
 77
     0
 78
     0
  0
ENDTAB
  0
TABLE
  2
LTYPE
 70
     2
  0
LTYPE
  2
CONTINUOUS
 70
     0
  3
Ä└É³
 72
    65
 73
     0
 40
0.0
  0
LTYPE
  2
DASHDOT
 70
     0
  3
____ _ ____ _ ____ _ ____ _ ____ _ ____ _ ____
 72
    65
 73
     4
 40
5.5
 49
4.0
 49
-0.6
 49
0.3
 49
-0.6
  0
ENDTAB
  0
TABLE
  2
LAYER
 70
    12
  0
LAYER
  2
0
 70
     0
 62
     7
  6
CONTINUOUS
  0
LAYER
  2
OUTLINE
 70
     0
 62
     3
  6
CONTINUOUS
  0
LAYER
  2
SIZE
 70
     0
 62
    30
  6
CONTINUOUS
  0
LAYER
  2
BASIS
 70
     0
 62
     6
  6
DASHDOT
  0
LAYER
  2
DETAIL
 70
     0
 62
     5
  6
CONTINUOUS
  0
LAYER
  2
ARRANGE
 70
     0
 62
     1
  6
CONTINUOUS
  0
LAYER
  2
DEFPOINTS
 70
     0
 62
     7
  6
CONTINUOUS
  0
LAYER
  2
ETC
 70
     0
 62
    61
  6
CONTINUOUS
  0
LAYER
  2
FIX
 70
     0
 62
    11
  6
CONTINUOUS
  0
LAYER
  2
NOTE
 70
     0
 62
     4
  6
CONTINUOUS
  0
LAYER
  2
SERVICESPACE
 70
     0
 62
     2
  6
DASHDOT
  0
LAYER
  2
SYMBOLLINE
 70
     0
 62
    15
  6
CONTINUOUS
  0
ENDTAB
  0
TABLE
  2
STYLE
 70
     1
  0
STYLE
  2
STANDARD
 70
     0
 40
64.0
 41
0.9
 50
0.0
 71
     0
 42
64.0
  3
SIMPLEX.shx
  4
BIGFONT.shx
  0
ENDTAB
  0
TABLE
  2
VIEW
 70
     1
  0
VIEW
  2
ALL
 70
     0
 40
4282.6198079999967
 10
0.0
 20
41.309903999999989
 41
5940.0
 11
0.0
 21
0.0
 31
1.0
 12
0.0
 22
0.0
 32
0.0
 42
50.0
 43
0.0
 44
0.0
 50
0.0
 71
     0
  0
ENDTAB
  0
TABLE
  2
UCS
 70
     0
  0
ENDTAB
  0
TABLE
  2
APPID
 70
     1
  0
APPID
  2
ACAD
 70
     0
  0
ENDTAB
  0
TABLE
  2
DIMSTYLE
 70
     1
  0
DIMSTYLE
  2
STANDARD
 70
     0
  3

  4

  5

  6

  7

 40
1.0
 41
0.18
 42
0.0625
 43
0.38
 44
0.18
 45
0.0
 46
0.0
 47
0.0
 48
0.0
140
0.18
141
0.09
142
0.0
143
25.399999999999999
144
1.0
145
0.0
146
1.0
147
0.09
 71
     0
 72
     0
 73
     1
 74
     1
 75
     0
 76
     0
 77
     0
 78
     0
170
     0
171
     2
172
     0
173
     0
174
     0
175
     0
176
     0
177
     0
178
     0
  0
ENDTAB
  0
ENDSEC
  0
SECTION
  2
BLOCKS
  0
BLOCK
  8
0
  2
$MODEL_SPACE
 70
     0
 10
0.0
 20
0.0
 30
0.0
  3
$MODEL_SPACE
  1

  0
ENDBLK
  5
3FE
  8
0
  0
BLOCK
 67
     1
  8
0
  2
$PAPER_SPACE
 70
     0
 10
0.0
 20
0.0
 30
0.0
  3
$PAPER_SPACE
  1

  0
ENDBLK
  5
3FA
 67
     1
  8
0
  0
BLOCK
  8
0
  2
DOT1
 70
     0
 10
0.0
 20
0.0
 30
0.0
  3
DOT1
  1

  0
CIRCLE
  5
419
  8
SIZE
  6
CONTINUOUS
 62
     7
 10
0.0
 20
0.0
 30
0.0
 40
3.0
  0
ENDBLK
  5
41A
  8
0
  0
BLOCK
  8
0
  2
_ORIGIN
 70
     0
 10
0.0
 20
0.0
 30
0.0
  3
_ORIGIN
  1

  0
CIRCLE
  5
41D
  8
0
  6
CONTINUOUS
 62
     7
 10
0.0
 20
0.0
 30
0.0
 40
0.5
  0
LINE
  5
41E
  8
0
  6
CONTINUOUS
 62
     7
 10
0.0
 20
0.0
 30
0.0
 11
-1.0
 21
0.0
 31
0.0
  0
ENDBLK
  5
41F
  8
0
  0
ENDSEC
  0
SECTION
  2
ENTITIES
  0
CIRCLE
  5
420
  8
ARRANGE
  6
CONTINUOUS
 62
     1
 10
0.0
 20
0.0
 30
0.0
 40
40.0
  0
LINE
  5
421
  8
BASIS
  6
DASHDOT
 62
     6
 10
0.0
 20
-73.243108999999976
 30
0.0
 11
0.0
 21
291.47948300000002
 31
0.0
  0
LINE
  5
422
  8
DETAIL
  6
CONTINUOUS
 62
     5
 10
-61.0
 20
208.0
 30
0.0
 11
59.0
 21
208.0
 31
0.0
  0
LINE
  5
423
  8
DETAIL
  6
CONTINUOUS
 62
     5
 10
135.0
 20
0.0
 30
0.0
 11
135.0
 21
200.0
 31
0.0
  0
LINE
  5
424
  8
DETAIL
  6
CONTINUOUS
 62
     5
 10
-135.0
 20
0.0
 30
0.0
 11
-135.0
 21
200.0
 31
0.0
  0
ARC
  5
425
  8
DETAIL
  6
CONTINUOUS
 62
     5
 10
-36.939999999999991
 20
233.34
 30
0.0
 40
5.060001999999999
 50
90.0
 51
179.999999
  0
LINE
  5
426
  8
DETAIL
  6
CONTINUOUS
 62
     5
 10
-42.0
 20
208.0
 30
0.0
 11
-42.0
 21
233.34
 31
0.0
  0
LINE
  5
427
  8
DETAIL
  6
CONTINUOUS
 62
     5
 10
29.63747
 20
238.3999859999999
 30
0.0
 11
28.468962000000001
 21
240.42388799999981
 31
0.0
  0
LINE
  5
428
  8
DETAIL
  6
CONTINUOUS
 62
     5
 10
-1.0
 20
240.42390199999991
 30
0.0
 11
28.468952999999988
 21
240.42390199999991
 31
0.0
  0
LINE
  5
429
  8
DETAIL
  6
CONTINUOUS
 62
     5
 10
34.939999999999991
 20
238.3999859999999
 30
0.0
 11
-1.0
 21
238.3999859999999
 31
0.0
  0
ARC
  5
42A
  8
DETAIL
  6
CONTINUOUS
 62
     5
 10
34.939999999999991
 20
233.34
 30
0.0
 40
5.060001999999999
 50
0.000001
 51
90.0
  0
LINE
  5
42B
  8
DETAIL
  6
CONTINUOUS
 62
     5
 10
40.0
 20
208.0
 30
0.0
 11
40.0
 21
233.34421399999991
 31
0.0
  0
LINE
  5
42C
  8
DETAIL
  6
CONTINUOUS
 62
     5
 10
21.079999999999998
 20
238.3999859999999
 30
0.0
 11
-1.0
 21
238.3999859999999
 31
0.0
  0
LINE
  5
42D
  8
DETAIL
  6
CONTINUOUS
 62
     5
 10
-1.0
 20
240.42390199999991
 30
0.0
 11
21.079999999999998
 21
240.42390199999991
 31
0.0
  0
LINE
  5
42E
  8
DETAIL
  6
CONTINUOUS
 62
     5
 10
5.6722339999999987
 20
241.42907099999991
 30
0.0
 11
5.8208209999999987
 21
240.42390199999991
 31
0.0
  0
LINE
  5
42F
  8
DETAIL
  6
CONTINUOUS
 62
     5
 10
3.8520120000000002
 20
243.0
 30
0.0
 11
-1.0
 21
243.0
 31
0.0
  0
ARC
  5
430
  8
DETAIL
  6
CONTINUOUS
 62
     5
 10
3.8520120000000002
 20
241.15998599999989
 30
0.0
 40
1.8400009999999991
 50
8.4091109999999976
 51
90.0
  0
ARC
  5
431
  8
DETAIL
  6
CONTINUOUS
 62
     5
 10
-5.8520120000000002
 20
241.15998599999989
 30
0.0
 40
1.8400009999999991
 50
90.0
 51
171.59088899999981
  0
LINE
  5
432
  8
DETAIL
  6
CONTINUOUS
 62
     5
 10
-5.8520120000000002
 20
243.0
 30
0.0
 11
-1.0
 21
243.0
 31
0.0
  0
LINE
  5
433
  8
DETAIL
  6
CONTINUOUS
 62
     5
 10
-7.672233999999996
 20
241.42907099999991
 30
0.0
 11
-7.820820999999996
 21
240.42390199999991
 31
0.0
  0
LINE
  5
434
  8
DETAIL
  6
CONTINUOUS
 62
     5
 10
-1.0
 20
240.42390199999991
 30
0.0
 11
-30.468952999999999
 21
240.42390199999991
 31
0.0
  0
LINE
  5
435
  8
DETAIL
  6
CONTINUOUS
 62
     5
 10
-36.939999999999991
 20
238.3999859999999
 30
0.0
 11
-1.0
 21
238.3999859999999
 31
0.0
  0
LINE
  5
436
  8
DETAIL
  6
CONTINUOUS
 62
     5
 10
-31.63747
 20
238.3999859999999
 30
0.0
 11
-30.468962000000001
 21
240.42388799999981
 31
0.0
  0
CIRCLE
  5
437
  8
FIX
  6
CONTINUOUS
 62
    11
 10
115.0
 20
0.0
 30
0.0
 40
2.5
  0
CIRCLE
  5
438
  8
FIX
  6
CONTINUOUS
 62
    11
 10
-115.0
 20
0.0
 30
0.0
 40
2.5
  0
CIRCLE
  5
439
  8
FIX
  6
CONTINUOUS
 62
    11
 10
156.0
 20
0.0
 30
0.0
 40
2.5
  0
LINE
  5
43A
  8
NOTE
  6
CONTINUOUS
 62
     4
 10
156.0
 20
-20.0
 30
0.0
 11
156.0
 21
20.0
 31
0.0
  0
LINE
  5
43B
  8
NOTE
  6
CONTINUOUS
 62
     4
 10
176.0
 20
0.0
 30
0.0
 11
136.0
 21
0.0
 31
0.0
  0
LINE
  5
43C
  8
NOTE
  6
CONTINUOUS
 62
     4
 10
115.0
 20
-20.0
 30
0.0
 11
115.0
 21
20.0
 31
0.0
  0
LINE
  5
43D
  8
NOTE
  6
CONTINUOUS
 62
     4
 10
135.0
 20
0.0
 30
0.0
 11
95.0
 21
0.0
 31
0.0
  0
LINE
  5
43E
  8
NOTE
  6
CONTINUOUS
 62
     4
 10
-115.0
 20
-20.0
 30
0.0
 11
-115.0
 21
20.0
 31
0.0
  0
LINE
  5
43F
  8
NOTE
  6
CONTINUOUS
 62
     4
 10
-95.0
 20
0.0
 30
0.0
 11
-135.0
 21
0.0
 31
0.0
  0
CIRCLE
  5
440
  8
FIX
  6
CONTINUOUS
 62
    11
 10
-156.0
 20
0.0
 30
0.0
 40
2.5
  0
LINE
  5
441
  8
NOTE
  6
CONTINUOUS
 62
     4
 10
-156.0
 20
-20.0
 30
0.0
 11
-156.0
 21
20.0
 31
0.0
  0
LINE
  5
442
  8
NOTE
  6
CONTINUOUS
 62
     4
 10
-136.0
 20
0.0
 30
0.0
 11
-176.0
 21
0.0
 31
0.0
  0
LINE
  5
443
  8
DETAIL
  6
CONTINUOUS
 62
     5
 10
-135.0
 20
200.0
 30
0.0
 11
-125.0
 21
200.0
 31
0.0
  0
TEXT
  5
444
  8
NOTE
  6
CONTINUOUS
 62
     4
 10
-723.04698599999983
 20
-261.73783900000001
 30
0.0
 40
64.0
  1
8-âË5ü~8
 41
0.9
  0
LINE
  5
445
  8
NOTE
  6
CONTINUOUS
 62
     4
 10
-315.40427699999992
 20
385.12252999999993
 30
0.0
 11
-1276.9939999999999
 21
385.12252999999993
 31
0.0
  0
LINE
  5
446
  8
NOTE
  6
CONTINUOUS
 62
     4
 10
-334.19587399999989
 20
-294.70210900000001
 30
0.0
 11
-752.53932799999984
 21
-294.70210900000001
 31
0.0
  0
LINE
  5
447
  8
NOTE
  6
CONTINUOUS
 62
     4
 10
-156.04317
 20
-0.5722920000000002
 30
0.0
 11
-334.19587399999989
 21
-294.70210900000001
 31
0.0
  0
LINE
  5
448
  8
NOTE
  6
CONTINUOUS
 62
     4
 10
-167.72196599999981
 20
-38.772939999999998
 30
0.0
 11
-156.033985
 21
-0.5186450000000002
 31
0.0
  0
LINE
  5
449
  8
NOTE
  6
CONTINUOUS
 62
     4
 10
-156.033985
 20
-0.5186450000000002
 30
0.0
 11
-185.28322199999991
 21
-27.803844999999999
 31
0.0
  0
TEXT
  5
44A
  8
NOTE
  6
CONTINUOUS
 62
     4
 10
-1264.3679999999999
 20
423.99960999999979
 30
0.0
 40
64.0
  1
AH 4-âË15ü~22(4ô_Æ¦éÞ)
 41
0.9
  0
LINE
  5
44B
  8
SIZE
  6
CONTINUOUS
 62
    30
 10
-115.0
 20
-40.0
 30
0.0
 11
-115.0
 21
-260.27054399999992
 31
0.0
  0
LINE
  5
44C
  8
SIZE
  6
CONTINUOUS
 62
    30
 10
115.0
 20
-40.0
 30
0.0
 11
115.0
 21
-260.27054399999992
 31
0.0
  0
LINE
  5
44D
  8
SIZE
  6
CONTINUOUS
 62
    30
 10
-103.0
 20
-240.270544
 30
0.0
 11
103.0
 21
-240.270544
 31
0.0
  0
TEXT
  5
44E
  8
SIZE
  6
CONTINUOUS
 62
    30
 10
-65.797268857142853
 20
-217.10351
 30
0.0
 40
64.0
  1
230
 41
0.9
 72
     1
 11
8.2598739999999982
 21
-217.10351
 31
0.0
  0
CIRCLE
  5
44F
  8
SIZE
  6
CONTINUOUS
 62
    30
 10
-115.0
 20
-240.270544
 30
0.0
 40
6.0
  0
LINE
  5
450
  8
SIZE
  6
CONTINUOUS
 62
    30
 10
-115.0
 20
-240.270544
 30
0.0
 11
-103.0
 21
-240.270544
 31
0.0
  0
CIRCLE
  5
451
  8
SIZE
  6
CONTINUOUS
 62
    30
 10
115.0
 20
-240.270544
 30
0.0
 40
6.0
  0
LINE
  5
452
  8
SIZE
  6
CONTINUOUS
 62
    30
 10
115.0
 20
-240.270544
 30
0.0
 11
103.0
 21
-240.270544
 31
0.0
  0
LINE
  5
453
  8
SIZE
  6
CONTINUOUS
 62
    30
 10
-156.0
 20
-40.0
 30
0.0
 11
-156.0
 21
-397.60421000000002
 31
0.0
  0
LINE
  5
454
  8
SIZE
  6
CONTINUOUS
 62
    30
 10
156.0
 20
-40.0
 30
0.0
 11
156.0
 21
-397.60421000000002
 31
0.0
  0
LINE
  5
455
  8
SIZE
  6
CONTINUOUS
 62
    30
 10
-144.0
 20
-377.60421000000002
 30
0.0
 11
144.0
 21
-377.60421000000002
 31
0.0
  0
TEXT
  5
456
  8
SIZE
  6
CONTINUOUS
 62
    30
 10
-60.311554571428573
 20
-349.43156599999992
 30
0.0
 40
64.0
  1
312
 41
0.9
 72
     1
 11
8.2598739999999982
 21
-349.43156599999992
 31
0.0
  0
CIRCLE
  5
457
  8
SIZE
  6
CONTINUOUS
 62
    30
 10
-156.0
 20
-377.60421000000002
 30
0.0
 40
6.0
  0
LINE
  5
458
  8
SIZE
  6
CONTINUOUS
 62
    30
 10
-156.0
 20
-377.60421000000002
 30
0.0
 11
-144.0
 21
-377.60421000000002
 31
0.0
  0
CIRCLE
  5
459
  8
SIZE
  6
CONTINUOUS
 62
    30
 10
156.0
 20
-377.60421000000002
 30
0.0
 40
6.0
  0
LINE
  5
45A
  8
SIZE
  6
CONTINUOUS
 62
    30
 10
156.0
 20
-377.60421000000002
 30
0.0
 11
144.0
 21
-377.60421000000002
 31
0.0
  0
LINE
  5
45B
  8
DETAIL
  6
CONTINUOUS
 62
     5
 10
-135.0
 20
192.0
 30
0.0
 11
-125.0
 21
192.0
 31
0.0
  0
LINE
  5
45C
  8
DETAIL
  6
CONTINUOUS
 62
     5
 10
-61.0
 20
208.0
 30
0.0
 11
-67.394959999999983
 21
200.0
 31
0.0
  0
LINE
  5
45D
  8
SIZE
  6
CONTINUOUS
 62
    30
 10
-417.12024100000002
 20
208.0
 30
0.0
 11
-417.12024100000002
 21
340.12475699999982
 31
0.0
  0
LINE
  5
45E
  8
DETAIL
  6
CONTINUOUS
 62
     5
 10
59.0
 20
208.0
 30
0.0
 11
65.394959999999983
 21
200.0
 31
0.0
  0
LINE
  5
45F
  8
DETAIL
  6
CONTINUOUS
 62
     5
 10
-42.0
 20
214.0
 30
0.0
 11
40.0
 21
214.0
 31
0.0
  0
LINE
  5
460
  8
SIZE
  6
CONTINUOUS
 62
    30
 10
-187.5
 20
0.0
 30
0.0
 11
-437.12024100000002
 21
0.0
 31
0.0
  0
LINE
  5
461
  8
SIZE
  6
CONTINUOUS
 62
    30
 10
-155.0
 20
200.0
 30
0.0
 11
-437.12024100000002
 21
200.0
 31
0.0
  0
LINE
  5
462
  8
SIZE
  6
CONTINUOUS
 62
    30
 10
-417.12024100000002
 20
12.0
 30
0.0
 11
-417.12024100000002
 21
188.0
 31
0.0
  0
TEXT
  5
463
  8
SIZE
  6
CONTINUOUS
 62
    30
 10
-442.33905800000002
 20
25.94285714285715
 30
0.0
 40
64.0
  1
200
 50
90.0
 41
0.9
 72
     1
 11
-442.33905800000002
 21
100.0
 31
0.0
  0
CIRCLE
  5
464
  8
SIZE
  6
CONTINUOUS
 62
    30
 10
-417.12024100000002
 20
0.0
 30
0.0
 40
6.0
  0
LINE
  5
465
  8
SIZE
  6
CONTINUOUS
 62
    30
 10
-417.12024100000002
 20
0.0
 30
0.0
 11
-417.12024100000002
 21
12.0
 31
0.0
  0
CIRCLE
  5
466
  8
SIZE
  6
CONTINUOUS
 62
    30
 10
-417.12024100000002
 20
200.0
 30
0.0
 40
6.0
  0
LINE
  5
467
  8
SIZE
  6
CONTINUOUS
 62
    30
 10
-417.12024100000002
 20
200.0
 30
0.0
 11
-417.12024100000002
 21
188.0
 31
0.0
  0
LINE
  5
468
  8
SIZE
  6
CONTINUOUS
 62
    30
 10
-151.5
 20
200.0
 30
0.0
 11
-437.12024100000002
 21
200.0
 31
0.0
  0
LINE
  5
469
  8
SIZE
  6
CONTINUOUS
 62
    30
 10
-101.0
 20
208.0
 30
0.0
 11
-437.12024100000002
 21
208.0
 31
0.0
  0
LINE
  5
46A
  8
SIZE
  6
CONTINUOUS
 62
    30
 10
-417.12024100000002
 20
188.0
 30
0.0
 11
-417.12024100000002
 21
176.0
 31
0.0
  0
LINE
  5
46B
  8
SIZE
  6
CONTINUOUS
 62
    30
 10
-417.12024100000002
 20
220.0
 30
0.0
 11
-417.12024100000002
 21
232.0
 31
0.0
  0
LINE
  5
46C
  8
SIZE
  6
CONTINUOUS
 62
    30
 10
-417.12024100000002
 20
339.17642899999993
 30
0.0
 11
-417.12024100000002
 21
208.0
 31
0.0
  0
TEXT
  5
46D
  8
SIZE
  6
CONTINUOUS
 62
    30
 10
-442.12024100000002
 20
275.77642900000001
 30
0.0
 40
64.0
  1
8
 50
90.0
 41
0.9
 72
     1
 11
-442.12024100000002
 21
294.976429
 31
0.0
  0
LINE
  5
46E
  8
SIZE
  6
CONTINUOUS
 62
    30
 10
-417.12024100000002
 20
200.0
 30
0.0
 11
-417.12024100000002
 21
208.0
 31
0.0
  0
LINE
  5
46F
  8
SIZE
  6
CONTINUOUS
 62
    30
 10
-417.12024100000002
 20
200.0
 30
0.0
 11
-417.12024100000002
 21
208.0
 31
0.0
  0
CIRCLE
  5
470
  8
SIZE
  6
CONTINUOUS
 62
    30
 10
-417.12024100000002
 20
200.0
 30
0.0
 40
6.0
  0
LINE
  5
471
  8
SIZE
  6
CONTINUOUS
 62
    30
 10
-417.12024100000002
 20
200.0
 30
0.0
 11
-417.12024100000002
 21
188.0
 31
0.0
  0
CIRCLE
  5
472
  8
SIZE
  6
CONTINUOUS
 62
    30
 10
-417.12024100000002
 20
208.0
 30
0.0
 40
6.0
  0
LINE
  5
473
  8
SIZE
  6
CONTINUOUS
 62
    30
 10
-417.12024100000002
 20
208.0
 30
0.0
 11
-417.12024100000002
 21
220.0
 31
0.0
  0
LINE
  5
474
  8
DETAIL
  6
CONTINUOUS
 62
     5
 10
125.0
 20
7.0
 30
0.0
 11
75.0
 21
7.0
 31
0.0
  0
CIRCLE
  5
475
  8
FIX
  6
CONTINUOUS
 62
    11
 10
100.0
 20
208.0
 30
0.0
 40
7.5
  0
LINE
  5
476
  8
DETAIL
  6
CONTINUOUS
 62
     5
 10
125.0
 20
208.0
 30
0.0
 11
75.0
 21
208.0
 31
0.0
  0
LINE
  5
477
  8
DETAIL
  6
CONTINUOUS
 62
     5
 10
125.0
 20
208.0
 30
0.0
 11
75.0
 21
208.0
 31
0.0
  0
LINE
  5
478
  8
DETAIL
  6
CONTINUOUS
 62
     5
 10
75.0
 20
7.0
 30
0.0
 11
75.0
 21
208.0
 31
0.0
  0
LINE
  5
479
  8
DETAIL
  6
CONTINUOUS
 62
     5
 10
125.0
 20
7.0
 30
0.0
 11
125.0
 21
208.0
 31
0.0
  0
LINE
  5
47A
  8
DETAIL
  6
CONTINUOUS
 62
     5
 10
125.0
 20
204.49999999999989
 30
0.0
 11
75.0
 21
204.49999999999989
 31
0.0
  0
LINE
  5
47B
  8
NOTE
  6
CONTINUOUS
 62
     4
 10
100.0
 20
188.0
 30
0.0
 11
100.0
 21
228.0
 31
0.0
  0
LINE
  5
47C
  8
NOTE
  6
CONTINUOUS
 62
     4
 10
80.0
 20
208.0
 30
0.0
 11
120.0
 21
208.0
 31
0.0
  0
LINE
  5
47D
  8
DETAIL
  6
CONTINUOUS
 62
     5
 10
-125.0
 20
204.49999999999989
 30
0.0
 11
-75.0
 21
204.49999999999989
 31
0.0
  0
LINE
  5
47E
  8
DETAIL
  6
CONTINUOUS
 62
     5
 10
-125.0
 20
7.0
 30
0.0
 11
-125.0
 21
208.0
 31
0.0
  0
LINE
  5
47F
  8
DETAIL
  6
CONTINUOUS
 62
     5
 10
-75.0
 20
7.0
 30
0.0
 11
-75.0
 21
208.0
 31
0.0
  0
LINE
  5
480
  8
DETAIL
  6
CONTINUOUS
 62
     5
 10
-125.0
 20
208.0
 30
0.0
 11
-75.0
 21
208.0
 31
0.0
  0
LINE
  5
481
  8
DETAIL
  6
CONTINUOUS
 62
     5
 10
-125.0
 20
208.0
 30
0.0
 11
-75.0
 21
208.0
 31
0.0
  0
CIRCLE
  5
482
  8
FIX
  6
CONTINUOUS
 62
    11
 10
-100.0
 20
208.0
 30
0.0
 40
7.5
  0
LINE
  5
483
  8
DETAIL
  6
CONTINUOUS
 62
     5
 10
-125.0
 20
7.0
 30
0.0
 11
-75.0
 21
7.0
 31
0.0
  0
LINE
  5
484
  8
DETAIL
  6
CONTINUOUS
 62
     5
 10
-75.0
 20
200.0
 30
0.0
 11
75.0
 21
200.0
 31
0.0
  0
LINE
  5
485
  8
DETAIL
  6
CONTINUOUS
 62
     5
 10
-75.0
 20
192.0
 30
0.0
 11
75.0
 21
192.0
 31
0.0
  0
LINE
  5
486
  8
DETAIL
  6
CONTINUOUS
 62
     5
 10
125.0
 20
192.0
 30
0.0
 11
135.0
 21
192.0
 31
0.0
  0
LINE
  5
487
  8
DETAIL
  6
CONTINUOUS
 62
     5
 10
125.0
 20
200.0
 30
0.0
 11
135.0
 21
200.0
 31
0.0
  0
LINE
  5
488
  8
NOTE
  6
CONTINUOUS
 62
     4
 10
-100.0
 20
188.0
 30
0.0
 11
-100.0
 21
228.0
 31
0.0
  0
LINE
  5
489
  8
NOTE
  6
CONTINUOUS
 62
     4
 10
-80.0
 20
208.0
 30
0.0
 11
-120.0
 21
208.0
 31
0.0
  0
LINE
  5
48A
  8
DETAIL
  6
CONTINUOUS
 62
     5
 10
140.25
 20
214.0
 30
0.0
 11
140.25
 21
190.0
 31
0.0
  0
LINE
  5
48B
  8
DETAIL
  6
CONTINUOUS
 62
     5
 10
140.25
 20
214.0
 30
0.0
 11
135.0
 21
214.0
 31
0.0
  0
LINE
  5
48C
  8
DETAIL
  6
CONTINUOUS
 62
     5
 10
140.25
 20
80.0
 30
0.0
 11
140.25
 21
0.0
 31
0.0
  0
LINE
  5
48D
  8
DETAIL
  6
CONTINUOUS
 62
     5
 10
136.74999999999969
 20
214.0
 30
0.0
 11
136.74999999999969
 21
0.0
 31
0.0
  0
LINE
  5
48E
  8
DETAIL
  6
CONTINUOUS
 62
     5
 10
135.0
 20
0.0
 30
0.0
 11
135.0
 21
214.0
 31
0.0
  0
LINE
  5
48F
  8
BASIS
  6
DASHDOT
 62
     6
 10
308.76425699999982
 20
135.0
 30
0.0
 11
111.7164519999999
 21
135.0
 31
0.0
  0
LINE
  5
490
  8
SIZE
  6
CONTINUOUS
 62
    30
 10
328.76425699999999
 20
135.0
 30
0.0
 11
676.74284599999964
 21
135.0
 31
0.0
  0
LINE
  5
491
  8
SIZE
  6
CONTINUOUS
 62
    30
 10
187.5
 20
0.0
 30
0.0
 11
676.74284599999964
 21
0.0
 31
0.0
  0
LINE
  5
492
  8
SIZE
  6
CONTINUOUS
 62
    30
 10
656.74284599999999
 20
123.0
 30
0.0
 11
656.74284599999999
 21
12.0
 31
0.0
  0
TEXT
  5
493
  8
SIZE
  6
CONTINUOUS
 62
    30
 10
632.02265899999975
 20
-167.49613157142849
 30
0.0
 40
64.0
  1
135
 50
90.0
 41
0.9
 72
     1
 11
632.02265899999975
 21
-98.924702999999994
 31
0.0
  0
CIRCLE
  5
494
  8
SIZE
  6
CONTINUOUS
 62
    30
 10
656.74284599999999
 20
135.0
 30
0.0
 40
6.0
  0
LINE
  5
495
  8
SIZE
  6
CONTINUOUS
 62
    30
 10
656.74284599999999
 20
135.0
 30
0.0
 11
656.74284599999999
 21
123.0
 31
0.0
  0
CIRCLE
  5
496
  8
SIZE
  6
CONTINUOUS
 62
    30
 10
656.74284599999999
 20
0.0
 30
0.0
 40
6.0
  0
LINE
  5
497
  8
SIZE
  6
CONTINUOUS
 62
    30
 10
656.74284599999999
 20
0.0
 30
0.0
 11
656.74284599999999
 21
12.0
 31
0.0
  0
TEXT
  5
498
  8
NOTE
  6
CONTINUOUS
 62
     4
 10
336.72300200000001
 20
93.632475999999997
 30
0.0
 40
64.0
  1
EA
 41
0.9
  0
LINE
  5
499
  8
SIZE
  6
CONTINUOUS
 62
    30
 10
656.74284599999999
 20
-5.1023120000000004
 30
0.0
 11
656.74284599999999
 21
-171.74222299999991
 31
0.0
  0
LINE
  5
49A
  8
SIZE
  6
CONTINUOUS
 62
    30
 10
-187.5
 20
0.0
 30
0.0
 11
-561.33407799999986
 21
0.0
 31
0.0
  0
LINE
  5
49B
  8
SIZE
  6
CONTINUOUS
 62
    30
 10
-21.0
 20
243.0
 30
0.0
 11
-561.33407799999986
 21
243.0
 31
0.0
  0
LINE
  5
49C
  8
SIZE
  6
CONTINUOUS
 62
    30
 10
-541.33407799999986
 20
12.0
 30
0.0
 11
-541.33407799999986
 21
231.0
 31
0.0
  0
TEXT
  5
49D
  8
SIZE
  6
CONTINUOUS
 62
    30
 10
-565.81655499999965
 20
47.44285714285715
 30
0.0
 40
64.0
  1
243
 50
90.0
 41
0.9
 72
     1
 11
-565.81655499999965
 21
121.5
 31
0.0
  0
CIRCLE
  5
49E
  8
SIZE
  6
CONTINUOUS
 62
    30
 10
-541.33407799999986
 20
0.0
 30
0.0
 40
6.0
  0
LINE
  5
49F
  8
SIZE
  6
CONTINUOUS
 62
    30
 10
-541.33407799999986
 20
0.0
 30
0.0
 11
-541.33407799999986
 21
12.0
 31
0.0
  0
CIRCLE
  5
4A0
  8
SIZE
  6
CONTINUOUS
 62
    30
 10
-541.33407799999986
 20
243.0
 30
0.0
 40
6.0
  0
LINE
  5
4A1
  8
SIZE
  6
CONTINUOUS
 62
    30
 10
-541.33407799999986
 20
243.0
 30
0.0
 11
-541.33407799999986
 21
231.0
 31
0.0
  0
LINE
  5
4A2
  8
SIZE
  6
CONTINUOUS
 62
    30
 10
0.0
 20
311.47948300000002
 30
0.0
 11
0.0
 21
527.06205099999966
 31
0.0
  0
LINE
  5
4A3
  8
SIZE
  6
CONTINUOUS
 62
    30
 10
-1.0
 20
285.88841500000001
 30
0.0
 11
-1.0
 21
527.06205099999966
 31
0.0
  0
LINE
  5
4A4
  8
SIZE
  6
CONTINUOUS
 62
    30
 10
12.0
 20
507.062051
 30
0.0
 11
24.0
 21
507.062051
 31
0.0
  0
LINE
  5
4A5
  8
SIZE
  6
CONTINUOUS
 62
    30
 10
-13.0
 20
507.062051
 30
0.0
 11
-25.0
 21
507.062051
 31
0.0
  0
LINE
  5
4A6
  8
SIZE
  6
CONTINUOUS
 62
    30
 10
-213.27657599999981
 20
507.062051
 30
0.0
 11
-1.0
 21
507.062051
 31
0.0
  0
TEXT
  5
4A7
  8
SIZE
  6
CONTINUOUS
 62
    30
 10
-188.2765758571428
 20
532.062051
 30
0.0
 40
64.0
  1
1
 41
0.9
 72
     1
 11
-181.419433
 21
532.062051
 31
0.0
  0
LINE
  5
4A8
  8
SIZE
  6
CONTINUOUS
 62
    30
 10
0.0
 20
507.062051
 30
0.0
 11
-1.0
 21
507.062051
 31
0.0
  0
LINE
  5
4A9
  8
SIZE
  6
CONTINUOUS
 62
    30
 10
0.0
 20
507.062051
 30
0.0
 11
-1.0
 21
507.062051
 31
0.0
  0
CIRCLE
  5
4AA
  8
SIZE
  6
CONTINUOUS
 62
    30
 10
0.0
 20
507.062051
 30
0.0
 40
6.0
  0
LINE
  5
4AB
  8
SIZE
  6
CONTINUOUS
 62
    30
 10
0.0
 20
507.062051
 30
0.0
 11
12.0
 21
507.062051
 31
0.0
  0
CIRCLE
  5
4AC
  8
SIZE
  6
CONTINUOUS
 62
    30
 10
-1.0
 20
507.062051
 30
0.0
 40
6.0
  0
LINE
  5
4AD
  8
SIZE
  6
CONTINUOUS
 62
    30
 10
-1.0
 20
507.062051
 30
0.0
 11
-13.0
 21
507.062051
 31
0.0
  0
LINE
  5
4AE
  8
SIZE
  6
CONTINUOUS
 62
    30
 10
40.0
 20
253.34421399999999
 30
0.0
 11
40.0
 21
604.70201899999995
 31
0.0
  0
LINE
  5
4AF
  8
SIZE
  6
CONTINUOUS
 62
    30
 10
-42.0
 20
253.3399999999998
 30
0.0
 11
-42.0
 21
604.70201899999995
 31
0.0
  0
LINE
  5
4B0
  8
SIZE
  6
CONTINUOUS
 62
    30
 10
28.0
 20
584.70201900000018
 30
0.0
 11
-30.0
 21
584.70201900000018
 31
0.0
  0
TEXT
  5
4B1
  8
SIZE
  6
CONTINUOUS
 62
    30
 10
-87.948571428571384
 20
610.43154000000004
 30
0.0
 40
64.0
  1
âË82
 41
0.9
 72
     1
 11
-1.0
 21
610.43154000000004
 31
0.0
  0
CIRCLE
  5
4B2
  8
SIZE
  6
CONTINUOUS
 62
    30
 10
40.0
 20
584.70201900000018
 30
0.0
 40
6.0
  0
LINE
  5
4B3
  8
SIZE
  6
CONTINUOUS
 62
    30
 10
40.0
 20
584.70201900000018
 30
0.0
 11
28.0
 21
584.70201900000018
 31
0.0
  0
CIRCLE
  5
4B4
  8
SIZE
  6
CONTINUOUS
 62
    30
 10
-42.0
 20
584.70201900000018
 30
0.0
 40
6.0
  0
LINE
  5
4B5
  8
SIZE
  6
CONTINUOUS
 62
    30
 10
-42.0
 20
584.70201900000018
 30
0.0
 11
-30.0
 21
584.70201900000018
 31
0.0
  0
LINE
  5
4B6
  8
SIZE
  6
CONTINUOUS
 62
    30
 10
135.0
 20
247.0
 30
0.0
 11
135.0
 21
854.32756400000005
 31
0.0
  0
LINE
  5
4B7
  8
SIZE
  6
CONTINUOUS
 62
    30
 10
-135.0
 20
220.0
 30
0.0
 11
-135.0
 21
854.32756400000005
 31
0.0
  0
LINE
  5
4B8
  8
SIZE
  6
CONTINUOUS
 62
    30
 10
123.0
 20
834.32756399999982
 30
0.0
 11
-123.0
 21
834.32756399999982
 31
0.0
  0
TEXT
  5
4B9
  8
SIZE
  6
CONTINUOUS
 62
    30
 10
-110.5371428571428
 20
860.00560599999983
 30
0.0
 40
64.0
  1
üá270
 41
0.9
 72
     1
 11
0.0
 21
860.00560599999983
 31
0.0
  0
CIRCLE
  5
4BA
  8
SIZE
  6
CONTINUOUS
 62
    30
 10
135.0
 20
834.32756399999982
 30
0.0
 40
6.0
  0
LINE
  5
4BB
  8
SIZE
  6
CONTINUOUS
 62
    30
 10
135.0
 20
834.32756399999982
 30
0.0
 11
123.0
 21
834.32756399999982
 31
0.0
  0
CIRCLE
  5
4BC
  8
SIZE
  6
CONTINUOUS
 62
    30
 10
-135.0
 20
834.32756399999982
 30
0.0
 40
6.0
  0
LINE
  5
4BD
  8
SIZE
  6
CONTINUOUS
 62
    30
 10
-135.0
 20
834.32756399999982
 30
0.0
 11
-123.0
 21
834.32756399999982
 31
0.0
  0
LINE
  5
4BE
  8
SIZE
  6
CONTINUOUS
 62
    30
 10
100.0
 20
248.0
 30
0.0
 11
100.0
 21
730.86064299999998
 31
0.0
  0
LINE
  5
4BF
  8
SIZE
  6
CONTINUOUS
 62
    30
 10
-100.0
 20
248.0
 30
0.0
 11
-100.0
 21
730.86064299999998
 31
0.0
  0
LINE
  5
4C0
  8
SIZE
  6
CONTINUOUS
 62
    30
 10
88.0
 20
710.86064299999998
 30
0.0
 11
-88.0
 21
710.86064299999998
 31
0.0
  0
TEXT
  5
4C1
  8
SIZE
  6
CONTINUOUS
 62
    30
 10
-74.05714285714285
 20
736.15682300000003
 30
0.0
 40
64.0
  1
200
 41
0.9
 72
     1
 11
0.0
 21
736.15682300000003
 31
0.0
  0
CIRCLE
  5
4C2
  8
SIZE
  6
CONTINUOUS
 62
    30
 10
100.0
 20
710.86064299999998
 30
0.0
 40
6.0
  0
LINE
  5
4C3
  8
SIZE
  6
CONTINUOUS
 62
    30
 10
100.0
 20
710.86064299999998
 30
0.0
 11
88.0
 21
710.86064299999998
 31
0.0
  0
CIRCLE
  5
4C4
  8
SIZE
  6
CONTINUOUS
 62
    30
 10
-100.0
 20
710.86064299999998
 30
0.0
 40
6.0
  0
LINE
  5
4C5
  8
SIZE
  6
CONTINUOUS
 62
    30
 10
-100.0
 20
710.86064299999998
 30
0.0
 11
-88.0
 21
710.86064299999998
 31
0.0
  0
LINE
  5
4C6
  8
SIZE
  6
CONTINUOUS
 62
    30
 10
-1.0
 20
507.062051
 30
0.0
 11
-207.429393
 21
507.062051
 31
0.0
  0
LINE
  5
4C7
  8
SIZE
  6
CONTINUOUS
 62
    30
 10
-541.33407799999986
 20
-17.0
 30
0.0
 11
-541.33407799999986
 21
-142.424173
 31
0.0
  0
LINE
  5
4C8
  8
NOTE
  6
CONTINUOUS
 62
     4
 10
-100.0334049999999
 20
208.2563089999999
 30
0.0
 11
-315.40427699999992
 21
385.12252999999993
 31
0.0
  0
LINE
  5
4C9
  8
NOTE
  6
CONTINUOUS
 62
     4
 10
-136.6980419999999
 20
224.2470689999999
 30
0.0
 11
-100.0334049999999
 21
208.2563089999999
 31
0.0
  0
LINE
  5
4CA
  8
NOTE
  6
CONTINUOUS
 62
     4
 10
-100.0334049999999
 20
208.2563089999999
 30
0.0
 11
-123.790532
 21
240.4370319999999
 31
0.0
  0
LINE
  5
4CB
  8
DETAIL
  6
CONTINUOUS
 62
     5
 10
-167.0
 20
0.0
 30
0.0
 11
167.0
 21
0.0
 31
0.0
  0
ARC
  5
4CC
  8
DETAIL
  6
CONTINUOUS
 62
     5
 10
159.99999700000001
 20
-0.8571229999999998
 30
0.0
 40
7.0
 50
281.92691500000001
 51
0.0
  0
LINE
  5
4CD
  8
DETAIL
  6
CONTINUOUS
 62
     5
 10
167.0
 20
-0.8571229999999998
 30
0.0
 11
167.0
 21
0.0
 31
0.0
  0
LINE
  5
4CE
  8
DETAIL
  6
CONTINUOUS
 62
     5
 10
125.094582
 20
-15.0
 30
0.0
 11
0.0
 21
-15.0
 31
0.0
  0
ARC
  5
4CF
  8
DETAIL
  6
CONTINUOUS
 62
     5
 10
43.98603
 20
483.46498399999979
 30
0.0
 40
505.02072999999967
 50
279.24197999999973
 51
283.44935199999992
  0
LINE
  5
4D0
  8
DETAIL
  6
CONTINUOUS
 62
     5
 10
-125.094582
 20
-15.0
 30
0.0
 11
0.0
 21
-15.0
 31
0.0
  0
ARC
  5
4D1
  8
DETAIL
  6
CONTINUOUS
 62
     5
 10
-43.98603
 20
483.46498399999979
 30
0.0
 40
505.02072999999967
 50
256.55064800000002
 51
260.75801999999999
  0
ARC
  5
4D2
  8
DETAIL
  6
CONTINUOUS
 62
     5
 10
-159.99999700000001
 20
-0.8571229999999998
 30
0.0
 40
7.0
 50
180.0
 51
258.07308499999999
  0
LINE
  5
4D3
  8
DETAIL
  6
CONTINUOUS
 62
     5
 10
-167.0
 20
-0.8571229999999998
 30
0.0
 11
-167.0
 21
0.0
 31
0.0
  0
LINE
  5
4D4
  8
DETAIL
  6
CONTINUOUS
 62
     5
 10
-162.20729700000001
 20
-7.5
 30
0.0
 11
162.20729700000001
 21
-7.5
 31
0.0
  0
LINE
  5
4D5
  8
DETAIL
  6
CONTINUOUS
 62
     5
 10
-166.66393500000001
 20
-3.0
 30
0.0
 11
166.66393500000001
 21
-3.0
 31
0.0
  0
LINE
  5
4D6
  8
SIZE
  6
CONTINUOUS
 62
    30
 10
167.0
 20
-20.857123000000001
 30
0.0
 11
167.0
 21
-534.20279600000003
 31
0.0
  0
LINE
  5
4D7
  8
SIZE
  6
CONTINUOUS
 62
    30
 10
-167.0
 20
-20.0
 30
0.0
 11
-167.0
 21
-534.20279600000003
 31
0.0
  0
LINE
  5
4D8
  8
SIZE
  6
CONTINUOUS
 62
    30
 10
155.0
 20
-514.20279600000003
 30
0.0
 11
-155.0
 21
-514.20279600000003
 31
0.0
  0
TEXT
  5
4D9
  8
SIZE
  6
CONTINUOUS
 62
    30
 10
-103.6486974285714
 20
-489.468054
 30
0.0
 40
64.0
  1
üá334
 41
0.9
 72
     1
 11
8.2598739999999982
 21
-489.468054
 31
0.0
  0
CIRCLE
  5
4DA
  8
SIZE
  6
CONTINUOUS
 62
    30
 10
167.0
 20
-514.20279600000003
 30
0.0
 40
6.0
  0
LINE
  5
4DB
  8
SIZE
  6
CONTINUOUS
 62
    30
 10
167.0
 20
-514.20279600000003
 30
0.0
 11
155.0
 21
-514.20279600000003
 31
0.0
  0
CIRCLE
  5
4DC
  8
SIZE
  6
CONTINUOUS
 62
    30
 10
-167.0
 20
-514.20279600000003
 30
0.0
 40
6.0
  0
LINE
  5
4DD
  8
SIZE
  6
CONTINUOUS
 62
    30
 10
-167.0
 20
-514.20279600000003
 30
0.0
 11
-155.0
 21
-514.20279600000003
 31
0.0
  0
LINE
  5
4DE
  8
DETAIL
  6
CONTINUOUS
 62
     5
 10
222.0
 20
82.5
 30
0.0
 11
222.0
 21
187.5
 31
0.0
  0
LINE
  5
4DF
  8
DETAIL
  6
CONTINUOUS
 62
     5
 10
197.0
 20
80.0
 30
0.0
 11
197.0
 21
190.0
 31
0.0
  0
LINE
  5
4E0
  8
DETAIL
  6
CONTINUOUS
 62
     5
 10
222.0
 20
187.5
 30
0.0
 11
197.0
 21
187.5
 31
0.0
  0
LINE
  5
4E1
  8
DETAIL
  6
CONTINUOUS
 62
     5
 10
222.0
 20
82.5
 30
0.0
 11
197.0
 21
82.5
 31
0.0
  0
LINE
  5
4E2
  8
DETAIL
  6
CONTINUOUS
 62
     5
 10
249.0
 20
184.0
 30
0.0
 11
222.0
 21
184.0
 31
0.0
  0
LINE
  5
4E3
  8
DETAIL
  6
CONTINUOUS
 62
     5
 10
249.0
 20
86.0
 30
0.0
 11
222.0
 21
86.0
 31
0.0
  0
LINE
  5
4E4
  8
DETAIL
  6
CONTINUOUS
 62
     5
 10
197.0
 20
190.0
 30
0.0
 11
136.74999999999969
 21
190.0
 31
0.0
  0
LINE
  5
4E5
  8
DETAIL
  6
CONTINUOUS
 62
     5
 10
197.0
 20
80.0
 30
0.0
 11
136.74999999999969
 21
80.0
 31
0.0
  0
LINE
  5
4E6
  8
SIZE
  6
CONTINUOUS
 62
    30
 10
242.0
 20
82.5
 30
0.0
 11
864.96550999999999
 21
82.5
 31
0.0
  0
LINE
  5
4E7
  8
SIZE
  6
CONTINUOUS
 62
    30
 10
242.0
 20
187.5
 30
0.0
 11
864.96550999999999
 21
187.5
 31
0.0
  0
LINE
  5
4E8
  8
SIZE
  6
CONTINUOUS
 62
    30
 10
844.96550999999988
 20
94.500000000000014
 30
0.0
 11
844.96550999999988
 21
175.5
 31
0.0
  0
LINE
  5
4E9
  8
SIZE
  6
CONTINUOUS
 62
    30
 10
844.96550999999988
 20
450.67596299999991
 30
0.0
 11
844.96550999999988
 21
187.5
 31
0.0
  0
TEXT
  5
4EA
  8
SIZE
  6
CONTINUOUS
 62
    30
 10
819.96550999999988
 20
219.41310642857141
 30
0.0
 40
64.0
  1
âË105
 50
90.0
 41
0.9
 72
     1
 11
819.96550999999988
 21
328.30453499999999
 31
0.0
  0
CIRCLE
  5
4EB
  8
SIZE
  6
CONTINUOUS
 62
    30
 10
844.96550999999988
 20
82.5
 30
0.0
 40
6.0
  0
LINE
  5
4EC
  8
SIZE
  6
CONTINUOUS
 62
    30
 10
844.96550999999988
 20
82.5
 30
0.0
 11
844.96550999999988
 21
94.500000000000014
 31
0.0
  0
CIRCLE
  5
4ED
  8
SIZE
  6
CONTINUOUS
 62
    30
 10
844.96550999999988
 20
187.5
 30
0.0
 40
6.0
  0
LINE
  5
4EE
  8
SIZE
  6
CONTINUOUS
 62
    30
 10
844.96550999999988
 20
187.5
 30
0.0
 11
844.96550999999988
 21
175.5
 31
0.0
  0
LINE
  5
4EF
  8
SIZE
  6
CONTINUOUS
 62
    30
 10
269.0
 20
86.0
 30
0.0
 11
748.03927199999998
 21
86.0
 31
0.0
  0
LINE
  5
4F0
  8
SIZE
  6
CONTINUOUS
 62
    30
 10
269.0
 20
184.0
 30
0.0
 11
748.03927199999998
 21
184.0
 31
0.0
  0
LINE
  5
4F1
  8
SIZE
  6
CONTINUOUS
 62
    30
 10
728.03927199999998
 20
98.0
 30
0.0
 11
728.03927199999998
 21
172.0
 31
0.0
  0
LINE
  5
4F2
  8
SIZE
  6
CONTINUOUS
 62
    30
 10
728.03927199999998
 20
406.46766200000002
 30
0.0
 11
728.03927199999998
 21
184.0
 31
0.0
  0
TEXT
  5
4F3
  8
SIZE
  6
CONTINUOUS
 62
    30
 10
703.03927199999998
 20
219.0905195714285
 30
0.0
 40
64.0
  1
âË98
 50
90.0
 41
0.9
 72
     1
 11
703.03927199999998
 21
306.03909099999993
 31
0.0
  0
CIRCLE
  5
4F4
  8
SIZE
  6
CONTINUOUS
 62
    30
 10
728.03927199999998
 20
86.0
 30
0.0
 40
6.0
  0
LINE
  5
4F5
  8
SIZE
  6
CONTINUOUS
 62
    30
 10
728.03927199999998
 20
86.0
 30
0.0
 11
728.03927199999998
 21
98.0
 31
0.0
  0
CIRCLE
  5
4F6
  8
SIZE
  6
CONTINUOUS
 62
    30
 10
728.03927199999998
 20
184.0
 30
0.0
 40
6.0
  0
LINE
  5
4F7
  8
SIZE
  6
CONTINUOUS
 62
    30
 10
728.03927199999998
 20
184.0
 30
0.0
 11
728.03927199999998
 21
172.0
 31
0.0
  0
LINE
  5
4F8
  8
SIZE
  6
CONTINUOUS
 62
    30
 10
249.0
 20
204.0
 30
0.0
 11
249.0
 21
718.67731100000003
 31
0.0
  0
LINE
  5
4F9
  8
SIZE
  6
CONTINUOUS
 62
    30
 10
197.0
 20
207.5
 30
0.0
 11
197.0
 21
718.67731100000003
 31
0.0
  0
LINE
  5
4FA
  8
SIZE
  6
CONTINUOUS
 62
    30
 10
261.0
 20
698.67731100000003
 30
0.0
 11
273.0
 21
698.67731100000003
 31
0.0
  0
LINE
  5
4FB
  8
SIZE
  6
CONTINUOUS
 62
    30
 10
420.10376400000001
 20
698.67731100000003
 30
0.0
 11
249.0
 21
698.67731100000003
 31
0.0
  0
TEXT
  5
4FC
  8
SIZE
  6
CONTINUOUS
 62
    30
 10
301.84662057142828
 20
723.67731100000003
 30
0.0
 40
64.0
  1
52
 41
0.9
 72
     1
 11
348.47519199999982
 21
723.67731100000003
 31
0.0
  0
LINE
  5
4FD
  8
SIZE
  6
CONTINUOUS
 62
    30
 10
249.0
 20
698.67731100000003
 30
0.0
 11
197.0
 21
698.67731100000003
 31
0.0
  0
LINE
  5
4FE
  8
SIZE
  6
CONTINUOUS
 62
    30
 10
249.0
 20
698.67731100000003
 30
0.0
 11
197.0
 21
698.67731100000003
 31
0.0
  0
CIRCLE
  5
4FF
  8
SIZE
  6
CONTINUOUS
 62
    30
 10
249.0
 20
698.67731100000003
 30
0.0
 40
6.0
  0
LINE
  5
500
  8
SIZE
  6
CONTINUOUS
 62
    30
 10
249.0
 20
698.67731100000003
 30
0.0
 11
261.0
 21
698.67731100000003
 31
0.0
  0
CIRCLE
  5
501
  8
SIZE
  6
CONTINUOUS
 62
    30
 10
197.0
 20
698.67731100000003
 30
0.0
 40
6.0
  0
LINE
  5
502
  8
SIZE
  6
CONTINUOUS
 62
    30
 10
249.0
 20
204.0
 30
0.0
 11
249.0
 21
591.10725500000001
 31
0.0
  0
LINE
  5
503
  8
SIZE
  6
CONTINUOUS
 62
    30
 10
222.0
 20
207.5
 30
0.0
 11
222.0
 21
591.10725500000001
 31
0.0
  0
LINE
  5
504
  8
SIZE
  6
CONTINUOUS
 62
    30
 10
261.0
 20
571.1072549999999
 30
0.0
 11
273.0
 21
571.1072549999999
 31
0.0
  0
LINE
  5
505
  8
SIZE
  6
CONTINUOUS
 62
    30
 10
210.0
 20
571.1072549999999
 30
0.0
 11
198.0
 21
571.1072549999999
 31
0.0
  0
LINE
  5
506
  8
SIZE
  6
CONTINUOUS
 62
    30
 10
419.90567099999981
 20
571.1072549999999
 30
0.0
 11
249.0
 21
571.1072549999999
 31
0.0
  0
TEXT
  5
507
  8
SIZE
  6
CONTINUOUS
 62
    30
 10
301.64852857142853
 20
596.1072549999999
 30
0.0
 40
64.0
  1
27
 41
0.9
 72
     1
 11
348.27710000000002
 21
596.1072549999999
 31
0.0
  0
LINE
  5
508
  8
SIZE
  6
CONTINUOUS
 62
    30
 10
249.0
 20
571.1072549999999
 30
0.0
 11
222.0
 21
571.1072549999999
 31
0.0
  0
LINE
  5
509
  8
SIZE
  6
CONTINUOUS
 62
    30
 10
249.0
 20
571.1072549999999
 30
0.0
 11
222.0
 21
571.1072549999999
 31
0.0
  0
CIRCLE
  5
50A
  8
SIZE
  6
CONTINUOUS
 62
    30
 10
249.0
 20
571.1072549999999
 30
0.0
 40
6.0
  0
LINE
  5
50B
  8
SIZE
  6
CONTINUOUS
 62
    30
 10
249.0
 20
571.1072549999999
 30
0.0
 11
261.0
 21
571.1072549999999
 31
0.0
  0
CIRCLE
  5
50C
  8
SIZE
  6
CONTINUOUS
 62
    30
 10
222.0
 20
571.1072549999999
 30
0.0
 40
6.0
  0
LINE
  5
50D
  8
SIZE
  6
CONTINUOUS
 62
    30
 10
222.0
 20
571.1072549999999
 30
0.0
 11
210.0
 21
571.1072549999999
 31
0.0
  0
LINE
  5
50E
  8
SIZE
  6
CONTINUOUS
 62
    30
 10
249.594188
 20
834.32756399999982
 30
0.0
 11
441.14623599999987
 21
834.32756399999982
 31
0.0
  0
LINE
  5
50F
  8
SIZE
  6
CONTINUOUS
 62
    30
 10
251.594188
 20
698.67731100000003
 30
0.0
 11
411.81462799999991
 21
698.67731100000003
 31
0.0
  0
LINE
  5
510
  8
SIZE
  6
CONTINUOUS
 62
    30
 10
254.0
 20
571.1072549999999
 30
0.0
 11
409.61892999999981
 21
571.1072549999999
 31
0.0
  0
LINE
  5
511
  8
SIZE
  6
CONTINUOUS
 62
    30
 10
249.0
 20
204.0
 30
0.0
 11
249.0
 21
854.32756400000005
 31
0.0
  0
LINE
  5
512
  8
SIZE
  6
CONTINUOUS
 62
    30
 10
135.0
 20
234.0
 30
0.0
 11
135.0
 21
854.32756400000005
 31
0.0
  0
LINE
  5
513
  8
SIZE
  6
CONTINUOUS
 62
    30
 10
237.0
 20
834.32756399999982
 30
0.0
 11
147.0
 21
834.32756399999982
 31
0.0
  0
LINE
  5
514
  8
SIZE
  6
CONTINUOUS
 62
    30
 10
449.83013699999998
 20
834.32756399999982
 30
0.0
 11
249.0
 21
834.32756399999982
 31
0.0
  0
TEXT
  5
515
  8
SIZE
  6
CONTINUOUS
 62
    30
 10
295.91585114285709
 20
859.32756399999982
 30
0.0
 40
64.0
  1
114
 41
0.9
 72
     1
 11
360.37299400000001
 21
859.32756399999982
 31
0.0
  0
CIRCLE
  5
516
  8
SIZE
  6
CONTINUOUS
 62
    30
 10
249.0
 20
834.32756399999982
 30
0.0
 40
6.0
  0
LINE
  5
517
  8
SIZE
  6
CONTINUOUS
 62
    30
 10
249.0
 20
834.32756399999982
 30
0.0
 11
237.0
 21
834.32756399999982
 31
0.0
  0
CIRCLE
  5
518
  8
SIZE
  6
CONTINUOUS
 62
    30
 10
135.0
 20
834.32756399999982
 30
0.0
 40
6.0
  0
LINE
  5
519
  8
SIZE
  6
CONTINUOUS
 62
    30
 10
135.0
 20
834.32756399999982
 30
0.0
 11
147.0
 21
834.32756399999982
 31
0.0
  0
LINE
  5
51A
  8
SIZE
  6
CONTINUOUS
 62
    30
 10
-187.0
 20
0.0
 30
0.0
 11
-561.33407799999986
 21
0.0
 31
0.0
  0
LINE
  5
51B
  8
SIZE
  6
CONTINUOUS
 62
    30
 10
-145.094582
 20
-15.0
 30
0.0
 11
-561.33407799999986
 21
-15.0
 31
0.0
  0
LINE
  5
51C
  8
SIZE
  6
CONTINUOUS
 62
    30
 10
-541.33407799999986
 20
12.0
 30
0.0
 11
-541.33407799999986
 21
24.0
 31
0.0
  0
LINE
  5
51D
  8
SIZE
  6
CONTINUOUS
 62
    30
 10
-541.33407799999986
 20
-27.0
 30
0.0
 11
-541.33407799999986
 21
-39.0
 31
0.0
  0
TEXT
  5
51E
  8
SIZE
  6
CONTINUOUS
 62
    30
 10
-565.81655499999965
 20
-134.16548114285709
 30
0.0
 40
64.0
  1
15
 50
90.0
 41
0.9
 72
     1
 11
-565.81655499999965
 21
-93.022623999999993
 31
0.0
  0
LINE
  5
51F
  8
SIZE
  6
CONTINUOUS
 62
    30
 10
-541.33407799999986
 20
0.0
 30
0.0
 11
-541.33407799999986
 21
-15.0
 31
0.0
  0
LINE
  5
520
  8
SIZE
  6
CONTINUOUS
 62
    30
 10
-541.33407799999986
 20
0.0
 30
0.0
 11
-541.33407799999986
 21
-15.0
 31
0.0
  0
CIRCLE
  5
521
  8
SIZE
  6
CONTINUOUS
 62
    30
 10
-541.33407799999986
 20
0.0
 30
0.0
 40
6.0
  0
LINE
  5
522
  8
SIZE
  6
CONTINUOUS
 62
    30
 10
-541.33407799999986
 20
0.0
 30
0.0
 11
-541.33407799999986
 21
12.0
 31
0.0
  0
CIRCLE
  5
523
  8
SIZE
  6
CONTINUOUS
 62
    30
 10
-541.33407799999986
 20
-15.0
 30
0.0
 40
6.0
  0
LINE
  5
524
  8
SIZE
  6
CONTINUOUS
 62
    30
 10
-541.33407799999986
 20
-15.0
 30
0.0
 11
-541.33407799999986
 21
-27.0
 31
0.0
  0
LINE
  5
525
  8
SIZE
  6
CONTINUOUS
 62
    30
 10
844.96550999999988
 20
191.5
 30
0.0
 11
844.96550999999988
 21
446.73908499999999
 31
0.0
  0
LINE
  5
526
  8
SIZE
  6
CONTINUOUS
 62
    30
 10
728.03927199999998
 20
186.0
 30
0.0
 11
728.03927199999998
 21
398.01539200000002
 31
0.0
  0
LINE
  5
527
  8
SIZE
  6
CONTINUOUS
 62
    30
 10
187.0
 20
0.0
 30
0.0
 11
977.58677399999999
 21
0.0
 31
0.0
  0
LINE
  5
528
  8
SIZE
  6
CONTINUOUS
 62
    30
 10
160.25
 20
214.0
 30
0.0
 11
977.58677399999999
 21
214.0
 31
0.0
  0
LINE
  5
529
  8
SIZE
  6
CONTINUOUS
 62
    30
 10
957.58677399999988
 20
12.0
 30
0.0
 11
957.58677399999988
 21
202.0
 31
0.0
  0
TEXT
  5
52A
  8
SIZE
  6
CONTINUOUS
 62
    30
 10
932.58677399999988
 20
39.991424857142889
 30
0.0
 40
64.0
  1
214
 50
90.0
 41
0.9
 72
     1
 11
932.58677399999988
 21
109.934282
 31
0.0
  0
CIRCLE
  5
52B
  8
SIZE
  6
CONTINUOUS
 62
    30
 10
957.58677399999988
 20
0.0
 30
0.0
 40
6.0
  0
LINE
  5
52C
  8
SIZE
  6
CONTINUOUS
 62
    30
 10
957.58677399999988
 20
0.0
 30
0.0
 11
957.58677399999988
 21
12.0
 31
0.0
  0
CIRCLE
  5
52D
  8
SIZE
  6
CONTINUOUS
 62
    30
 10
957.58677399999988
 20
214.0
 30
0.0
 40
6.0
  0
LINE
  5
52E
  8
SIZE
  6
CONTINUOUS
 62
    30
 10
957.58677399999988
 20
214.0
 30
0.0
 11
957.58677399999988
 21
202.0
 31
0.0
  0
LINE
  5
52F
  8
DETAIL
  6
CONTINUOUS
 62
     5
 10
249.0
 20
86.0
 30
0.0
 11
249.0
 21
184.0
 31
0.0
  0
TEXT
  5
530
  8
ETC
  6
CONTINUOUS
 62
    61
 10
735.9181804805396
 20
746.52812353738204
 30
0.0
 40
50.0
  1
VD-18ZY7
 41
0.9
  0
TEXT
  5
531
  8
ETC
  6
CONTINUOUS
 62
    61
 10
604.85917861267615
 20
941.30192651328196
 30
0.0
 40
64.0
  1
VD-18ZY7_5
 41
0.9
  0
TEXT
  5
532
  8
ETC
  6
CONTINUOUS
 62
    61
 10
596.94347161267615
 20
838.50692151328235
 30
0.0
 40
64.0
  1
èÀïCÉ¯
 41
0.9
  0
LINE
  5
533
  8
OUTLINE
  6
CONTINUOUS
 62
     3
 10
-135.0
 20
200.0
 30
0.0
 11
135.0
 21
200.0
 31
0.0
  0
LINE
  5
534
  8
OUTLINE
  6
CONTINUOUS
 62
     3
 10
-135.0
 20
0.0
 30
0.0
 11
-135.0
 21
200.0
 31
0.0
  0
LINE
  5
535
  8
OUTLINE
  6
CONTINUOUS
 62
     3
 10
135.0
 20
0.0
 30
0.0
 11
135.0
 21
200.0
 31
0.0
  0
POINT
  5
536
  8
ARRANGE
  6
CONTINUOUS
 62
     1
 10
0.0
 20
0.0
 30
0.0
  0
LINE
  5
537
  8
OUTLINE
  6
CONTINUOUS
 62
     3
 39
50.0
 10
-167.0
 20
0.0
 30
0.0
 11
167.0
 21
0.0
 31
0.0
  0
LINE
  5
55B
  8
BASIS
  6
DASHDOT
 62
     6
 10
-79.533820999999975
 20
17.518864000000001
 30
0.0
 11
-28.967738999999991
 21
17.518864000000001
 31
0.0
  0
LINE
  5
55C
  8
DETAIL
  6
CONTINUOUS
 62
     5
 10
-65.0
 20
10.518864000000001
 30
0.0
 11
-44.0
 21
10.518864000000001
 31
0.0
  0
LINE
  5
55D
  8
DETAIL
  6
CONTINUOUS
 62
     5
 10
-65.0
 20
24.518864000000011
 30
0.0
 11
-44.0
 21
24.518864000000011
 31
0.0
  0
LINE
  5
55E
  8
DETAIL
  6
CONTINUOUS
 62
     5
 10
-65.0
 20
7.5188640000000069
 30
0.0
 11
-44.0
 21
7.5188640000000069
 31
0.0
  0
LINE
  5
55F
  8
DETAIL
  6
CONTINUOUS
 62
     5
 10
-65.0
 20
27.518864000000001
 30
0.0
 11
-44.0
 21
27.518864000000001
 31
0.0
  0
ARC
  5
560
  8
DETAIL
  6
CONTINUOUS
 62
     5
 10
-65.0
 20
17.518864000000001
 30
0.0
 40
7.0
 50
180.0
 51
270.0
  0
ARC
  5
561
  8
DETAIL
  6
CONTINUOUS
 62
     5
 10
-65.0
 20
17.518864000000001
 30
0.0
 40
7.0
 50
90.0
 51
180.0
  0
ARC
  5
562
  8
DETAIL
  6
CONTINUOUS
 62
     5
 10
-65.0
 20
17.518864000000001
 30
0.0
 40
10.0
 50
180.0
 51
270.0
  0
ARC
  5
563
  8
DETAIL
  6
CONTINUOUS
 62
     5
 10
-65.0
 20
17.518864000000001
 30
0.0
 40
10.0
 50
90.0
 51
180.0
  0
LINE
  5
564
  8
DETAIL
  6
CONTINUOUS
 62
     5
 10
-75.0
 20
17.518864000000001
 30
0.0
 11
-75.0
 21
17.518864000000001
 31
0.0
  0
LINE
  5
565
  8
BASIS
  6
DASHDOT
 62
     6
 10
-54.5
 20
3.0427549999999992
 30
0.0
 11
-54.5
 21
32.957245
 31
0.0
  0
ARC
  5
566
  8
DETAIL
  6
CONTINUOUS
 62
     5
 10
-44.0
 20
17.518864000000001
 30
0.0
 40
7.0
 50
0.0
 51
90.0
  0
ARC
  5
567
  8
DETAIL
  6
CONTINUOUS
 62
     5
 10
-44.0
 20
17.518864000000001
 30
0.0
 40
7.0
 50
270.0
 51
0.0
  0
ARC
  5
568
  8
DETAIL
  6
CONTINUOUS
 62
     5
 10
-44.0
 20
17.518864000000001
 30
0.0
 40
10.0
 50
270.0
 51
0.0
  0
ARC
  5
569
  8
DETAIL
  6
CONTINUOUS
 62
     5
 10
-44.0
 20
17.518864000000001
 30
0.0
 40
10.0
 50
0.0
 51
90.0
  0
LINE
  5
56A
  8
BASIS
  6
DASHDOT
 62
     6
 10
79.533820999999975
 20
17.518864000000001
 30
0.0
 11
28.967738999999991
 21
17.518864000000001
 31
0.0
  0
LINE
  5
56B
  8
DETAIL
  6
CONTINUOUS
 62
     5
 10
65.0
 20
27.518864000000001
 30
0.0
 11
44.0
 21
27.518864000000001
 31
0.0
  0
LINE
  5
56C
  8
DETAIL
  6
CONTINUOUS
 62
     5
 10
65.0
 20
7.5188640000000069
 30
0.0
 11
44.0
 21
7.5188640000000069
 31
0.0
  0
LINE
  5
56D
  8
DETAIL
  6
CONTINUOUS
 62
     5
 10
65.0
 20
24.518864000000011
 30
0.0
 11
44.0
 21
24.518864000000011
 31
0.0
  0
LINE
  5
56E
  8
DETAIL
  6
CONTINUOUS
 62
     5
 10
65.0
 20
10.518864000000001
 30
0.0
 11
44.0
 21
10.518864000000001
 31
0.0
  0
LINE
  5
56F
  8
BASIS
  6
DASHDOT
 62
     6
 10
54.5
 20
3.0427549999999992
 30
0.0
 11
54.5
 21
32.957245
 31
0.0
  0
ARC
  5
570
  8
DETAIL
  6
CONTINUOUS
 62
     5
 10
44.0
 20
17.518864000000001
 30
0.0
 40
10.0
 50
90.0
 51
180.0
  0
ARC
  5
571
  8
DETAIL
  6
CONTINUOUS
 62
     5
 10
44.0
 20
17.518864000000001
 30
0.0
 40
10.0
 50
180.0
 51
270.0
  0
ARC
  5
572
  8
DETAIL
  6
CONTINUOUS
 62
     5
 10
44.0
 20
17.518864000000001
 30
0.0
 40
7.0
 50
180.0
 51
270.0
  0
ARC
  5
573
  8
DETAIL
  6
CONTINUOUS
 62
     5
 10
44.0
 20
17.518864000000001
 30
0.0
 40
7.0
 50
90.0
 51
180.0
  0
LINE
  5
574
  8
DETAIL
  6
CONTINUOUS
 62
     5
 10
75.0
 20
17.518864000000001
 30
0.0
 11
75.0
 21
17.518864000000001
 31
0.0
  0
ARC
  5
575
  8
DETAIL
  6
CONTINUOUS
 62
     5
 10
65.0
 20
17.518864000000001
 30
0.0
 40
10.0
 50
0.0
 51
90.0
  0
ARC
  5
576
  8
DETAIL
  6
CONTINUOUS
 62
     5
 10
65.0
 20
17.518864000000001
 30
0.0
 40
10.0
 50
270.0
 51
0.0
  0
ARC
  5
577
  8
DETAIL
  6
CONTINUOUS
 62
     5
 10
65.0
 20
17.518864000000001
 30
0.0
 40
7.0
 50
0.0
 51
90.0
  0
ARC
  5
578
  8
DETAIL
  6
CONTINUOUS
 62
     5
 10
65.0
 20
17.518864000000001
 30
0.0
 40
7.0
 50
270.0
 51
0.0
  0
ENDSEC
  0
EOF
