  0
SECTION
  2
HEADER
  9
$ACADVER
  1
AC1009
  9
$DWGCODEPAGE
  3
dos932
  9
$INSBASE
 10
0.0
 20
0.0
 30
0.0
  9
$EXTMIN
 10
-648.05601374019898
 20
-441.55882618105898
 30
-0.0015258207003583
  9
$EXTMAX
 10
968.00538259326095
 20
603.37830393502736
 30
0.0000000349246037
  9
$LIMMIN
 10
-2970.0
 20
-2100.0
  9
$LIMMAX
 10
2970.0
 20
2100.0
  9
$ORTHOMODE
 70
     1
  9
$REGENMODE
 70
     1
  9
$FILLMODE
 70
     1
  9
$QTEXTMODE
 70
     0
  9
$MIRRTEXT
 70
     0
  9
$LTSCALE
 40
20.0
  9
$ATTMODE
 70
     1
  9
$TEXTSIZE
 40
64.0
  9
$TRACEWID
 40
0.05
  9
$TEXTSTYLE
  7
STANDARD
  9
$CLAYER
  8
SIZE
  9
$CELTYPE
  6
CONTINUOUS
  9
$CECOLOR
 62
     7
  9
$DIMSCALE
 40
1.0
  9
$DIMASZ
 40
12.0
  9
$DIMEXO
 40
20.0
  9
$DIMDLI
 40
200.0
  9
$DIMRND
 40
0.0
  9
$DIMDLE
 40
0.0
  9
$DIMEXE
 40
20.0
  9
$DIMTP
 40
0.0
  9
$DIMTM
 40
0.0
  9
$DIMTXT
 40
64.0
  9
$DIMCEN
 40
0.09
  9
$DIMTSZ
 40
0.0
  9
$DIMTOL
 70
     0
  9
$DIMLIM
 70
     0
  9
$DIMTIH
 70
     0
  9
$DIMTOH
 70
     0
  9
$DIMSE1
 70
     0
  9
$DIMSE2
 70
     0
  9
$DIMTAD
 70
     1
  9
$DIMZIN
 70
     8
  9
$DIMBLK
  1

  9
$DIMASO
 70
     1
  9
$DIMSHO
 70
     0
  9
$DIMPOST
  1

  9
$DIMAPOST
  1

  9
$DIMALT
 70
     0
  9
$DIMALTD
 70
     2
  9
$DIMALTF
 40
25.399999999999999
  9
$DIMLFAC
 40
1.0
  9
$DIMTOFL
 70
     1
  9
$DIMTVP
 40
0.0
  9
$DIMTIX
 70
     1
  9
$DIMSOXD
 70
     0
  9
$DIMSAH
 70
     0
  9
$DIMBLK1
  1

  9
$DIMBLK2
  1

  9
$DIMSTYLE
  2
STANDARD
  9
$DIMCLRD
 70
     7
  9
$DIMCLRE
 70
     7
  9
$DIMCLRT
 70
     7
  9
$DIMTFAC
 40
1.0
  9
$DIMGAP
 40
25.0
  9
$LUNITS
 70
     2
  9
$LUPREC
 70
     4
  9
$SKETCHINC
 40
0.1
  9
$FILLETRAD
 40
3.0
  9
$AUNITS
 70
     1
  9
$AUPREC
 70
     3
  9
$MENU
  1
ACAD
  9
$ELEVATION
 40
0.0
  9
$PELEVATION
 40
0.0
  9
$THICKNESS
 40
0.0
  9
$LIMCHECK
 70
     0
  9
$CHAMFERA
 40
0.0
  9
$CHAMFERB
 40
0.0
  9
$SKPOLY
 70
     0
  9
$TDCREATE
 40
2453019.62301037
  9
$TDUPDATE
 40
2459025.513942026
  9
$TDINDWG
 40
1.7140669097
  9
$TDUSRTIMER
 40
1.7140669097
  9
$USRTIMER
 70
     1
  9
$ANGBASE
 50
0.0
  9
$ANGDIR
 70
     0
  9
$PDMODE
 70
     3
  9
$PDSIZE
 40
-2.0
  9
$PLINEWID
 40
0.0
  9
$SPLFRAME
 70
     0
  9
$SPLINETYPE
 70
     6
  9
$SPLINESEGS
 70
     8
  9
$SURFTAB1
 70
     6
  9
$SURFTAB2
 70
     6
  9
$SURFTYPE
 70
     6
  9
$SURFU
 70
     6
  9
$SURFV
 70
     6
  9
$UCSNAME
  2

  9
$UCSORG
 10
0.0
 20
0.0
 30
0.0
  9
$UCSXDIR
 10
1.0
 20
0.0
 30
0.0
  9
$UCSYDIR
 10
0.0
 20
1.0
 30
0.0
  9
$PUCSNAME
  2

  9
$PUCSORG
 10
0.0
 20
0.0
 30
0.0
  9
$PUCSXDIR
 10
1.0
 20
0.0
 30
0.0
  9
$PUCSYDIR
 10
0.0
 20
1.0
 30
0.0
  9
$USERI1
 70
     0
  9
$USERI2
 70
     0
  9
$USERI3
 70
     0
  9
$USERI4
 70
     0
  9
$USERI5
 70
     0
  9
$USERR1
 40
20.0
  9
$USERR2
 40
0.0
  9
$USERR3
 40
0.0
  9
$USERR4
 40
0.0
  9
$USERR5
 40
0.0
  9
$WORLDVIEW
 70
     1
  9
$SHADEDGE
 70
     3
  9
$SHADEDIF
 70
    70
  9
$TILEMODE
 70
     1
  9
$MAXACTVP
 70
    48
  9
$PINSBASE
 10
0.0
 20
0.0
 30
0.0
  9
$PLIMCHECK
 70
     0
  9
$PEXTMIN
 10
-100000000000000000000.0
 20
-100000000000000000000.0
 30
-100000000000000000000.0
  9
$PEXTMAX
 10
100000000000000000000.0
 20
100000000000000000000.0
 30
100000000000000000000.0
  9
$PLIMMIN
 10
0.0
 20
0.0
  9
$PLIMMAX
 10
12.0
 20
9.0
  9
$UNITMODE
 70
     0
  9
$VISRETAIN
 70
     0
  9
$PLINEGEN
 70
     0
  9
$PSLTSCALE
 70
     0
  9
$TREEDEPTH
 70
  3020
  9
$ATTDIA
 70
     0
  9
$ATTREQ
 70
     1
  9
$BLIPMODE
 70
     1
  9
$COORDS
 70
     1
  9
$DRAGMODE
 70
     2
  9
$OSMODE
 70
     0
  9
$HANDLING
 70
     0
  9
$HANDSEED
  5
F148
  0
ENDSEC
  0
SECTION
  2
TABLES
  0
TABLE
  2
LTYPE
 70
     3
  0
LTYPE
  2
CONTINUOUS
 70
     0
  3
実線
 72
    65
 73
     0
 40
0.0
  0
LTYPE
  2
DASHDOT
 70
     0
  3
____ _ ____ _ ____ _ ____ _ ____ _ ____ _ ____
 72
    65
 73
     4
 40
5.5
 49
4.0
 49
-0.6
 49
0.3
 49
-0.6
  0
LTYPE
  2
CENTER
 70
     0
  3
Center ____ _ ____ _ ____ _ ____ _ ____ _ ____
 72
    65
 73
     4
 40
1.0
 49
0.5
 49
-0.25
 49
0.0
 49
-0.25
  0
ENDTAB
  0
TABLE
  2
LAYER
 70
    12
  0
LAYER
  2
0
 70
     0
 62
     7
  6
CONTINUOUS
  0
LAYER
  2
BASIS
 70
     0
 62
     6
  6
DASHDOT
  0
LAYER
  2
OUTLINE
 70
     0
 62
     3
  6
CONTINUOUS
  0
LAYER
  2
DETAIL
 70
     0
 62
     5
  6
CONTINUOUS
  0
LAYER
  2
SIZE
 70
     0
 62
    30
  6
CONTINUOUS
  0
LAYER
  2
ARRANGE
 70
     0
 62
     1
  6
CONTINUOUS
  0
LAYER
  2
DEFPOINTS
 70
     0
 62
     7
  6
CONTINUOUS
  0
LAYER
  2
ETC
 70
     0
 62
    61
  6
CONTINUOUS
  0
LAYER
  2
FIX
 70
     0
 62
    11
  6
CONTINUOUS
  0
LAYER
  2
NOTE
 70
     0
 62
     4
  6
CONTINUOUS
  0
LAYER
  2
SERVICESPACE
 70
    64
 62
     2
  6
DASHDOT
  0
LAYER
  2
SYMBOLLINE
 70
    64
 62
    15
  6
CONTINUOUS
  0
ENDTAB
  0
TABLE
  2
STYLE
 70
     1
  0
STYLE
  2
STANDARD
 70
     0
 40
64.0
 41
0.9
 50
0.0
 71
     0
 42
64.0
  3
SIMPLEX.shx
  4
BIGFONT.shx
  0
ENDTAB
  0
TABLE
  2
APPID
 70
    19
  0
APPID
  2
ACAD
 70
     0
  0
APPID
  2
AUTOCAD_POSTSCRIPT_FIGURE
 70
     0
  0
APPID
  2
ACAD_EXEMPT_FROM_CAD_STANDARDS
 70
     0
  0
APPID
  2
ACAD_PSEXT
 70
     0
  0
APPID
  2
ACAUTHENVIRON
 70
     0
  0
APPID
  2
GENIUS_GENOENT_13
 70
     0
  0
APPID
  2
GENIUS_GENCFG_13
 70
     0
  0
APPID
  2
GENIUS_GENCFG0_13
 70
     0
  0
APPID
  2
GENIUS_GENCFG1_13
 70
     0
  0
APPID
  2
GENIUS_GENCFG2_13
 70
     0
  0
APPID
  2
GENIUS_GENCFG3_13
 70
     0
  0
APPID
  2
GENIUS_GENCFG4_13
 70
     0
  0
APPID
  2
GENIUS_GEVCFG0_13
 70
     0
  0
APPID
  2
CONTENTBLOCKICON
 70
     0
  0
APPID
  2
CONTENTBLOCKDESCRIPTION
 70
     0
  0
APPID
  2
ACAD_NAV_VCDISPLAY
 70
     0
  0
APPID
  2
ACAD_MLEADERVER
 70
     0
  0
APPID
  2
ACDBDYNAMICBLOCKTRUENAME
 70
     0
  0
APPID
  2
ACDBDYNAMICBLOCKGUID
 70
     0
  0
ENDTAB
  0
TABLE
  2
DIMSTYLE
 70
     1
  0
DIMSTYLE
  2
STANDARD
 70
     0
  3

  4

  5
_ORIGIN
  6

  7

 40
1.0
 41
12.0
 42
20.0
 43
200.0
 44
20.0
 45
0.0
 46
0.0
 47
0.0
 48
0.0
140
64.0
141
0.09
142
0.0
143
25.399999999999999
144
1.0
145
0.0
146
1.0
147
25.0
 71
     0
 72
     0
 73
     0
 74
     0
 75
     0
 76
     0
 77
     1
 78
     8
170
     0
171
     2
172
     1
173
     0
174
     1
175
     0
176
     7
177
     7
178
     7
  0
ENDTAB
  0
TABLE
  2
VIEW
 70
     1
  0
VIEW
  2
ALL
 70
     0
 40
4282.6198079999986
 10
0.0
 20
41.309904000000003
 41
5940.0
 11
0.0
 21
0.0
 31
1.0
 12
0.0
 22
0.0
 32
0.0
 42
50.0
 43
0.0
 44
0.0
 50
0.0
 71
     0
  0
ENDTAB
  0
TABLE
  2
UCS
 70
     0
  0
ENDTAB
  0
TABLE
  2
VPORT
 70
     1
  0
VPORT
  2
*ACTIVE
 70
     0
 10
0.0
 20
0.0
 11
1.0
 21
1.0
 12
159.97468442653101
 22
80.909738876984136
 13
0.0
 23
0.0
 14
1.0
 24
1.0
 15
0.0
 25
0.0
 16
0.0
 26
0.0
 36
1.0
 17
0.0
 27
0.0
 37
0.0
 40
1051.864890094756
 41
1.747787610619469
 42
50.0
 43
0.0
 44
0.0
 50
0.0
 51
0.0
 71
     0
 72
  1000
 73
     1
 74
     3
 75
     0
 76
     0
 77
     0
 78
     0
  0
ENDTAB
  0
ENDSEC
  0
SECTION
  2
BLOCKS
  0
BLOCK
  8
0
  2
_ORIGIN
 70
     0
 10
0.0
 20
0.0
 30
0.0
  3
_ORIGIN
  1
_ORIGIN
  0
CIRCLE
  8
0
  6
CONTINUOUS
 62
     7
 10
0.0
 20
0.0
 30
0.0
 40
0.5
  0
LINE
  8
0
  6
CONTINUOUS
 62
     7
 10
0.0
 20
0.0
 30
0.0
 11
-1.0
 21
0.0
 31
0.0
  0
ENDBLK
  8
0
  0
ENDSEC
  0
SECTION
  2
ENTITIES
  0
LINE
  8
NOTE
  6
CONTINUOUS
 62
     4
 10
-165.9127739999999
 20
0.0
 30
0.0
 11
-401.19634198458652
 21
264.8116364789787
 31
0.0
  0
LINE
  8
NOTE
  6
CONTINUOUS
 62
     4
 10
-165.9127739999999
 20
0.0
 30
0.0
 11
-197.22551934757891
 21
22.683422418883421
 31
0.0
  0
LINE
  8
NOTE
  6
CONTINUOUS
 62
     4
 10
-184.90804869402339
 20
35.19929633376114
 30
0.0
 11
-165.9127739999999
 21
0.0
 31
0.0
  0
TEXT
  8
NOTE
  6
CONTINUOUS
 62
     4
 10
-369.30645775816492
 20
459.84162902696238
 30
0.0
 40
64.0
  1
EL
 41
0.9
  0
LINE
  8
NOTE
  6
CONTINUOUS
 62
     4
 10
-407.42094409062071
 20
423.59841560060141
 30
0.0
 11
-238.89645256420141
 21
423.59841560055918
 31
0.0
  0
LINE
  8
NOTE
  6
CONTINUOUS
 62
     4
 10
-121.59999999999989
 20
207.00000000000011
 30
0.0
 11
-238.89645256420141
 21
423.59841560055918
 31
0.0
  0
LINE
  8
NOTE
  6
CONTINUOUS
 62
     4
 10
-121.59999999999989
 20
207.00000000000011
 30
0.0
 11
-149.67337404411231
 21
233.6439491874502
 31
0.0
  0
LINE
  8
NOTE
  6
CONTINUOUS
 62
     4
 10
-128.9025623945781
 20
246.25804970384559
 30
0.0
 11
-121.59999999999989
 21
207.00000000000011
 31
0.0
  0
CIRCLE
  8
FIX
  6
CONTINUOUS
 62
    11
 10
-166.0
 20
0.0
 30
0.0
 40
10.0
  0
LINE
  8
NOTE
  6
CENTER
 62
     4
 10
100.0
 20
9.1301770000000033
 30
0.0
 11
100.0
 21
-7.2608109999999897
 31
0.0
  0
LINE
  8
NOTE
  6
CENTER
 62
     4
 10
166.0
 20
9.1301770000000033
 30
0.0
 11
166.0
 21
-7.2608109999999897
 31
0.0
  0
LINE
  8
NOTE
  6
CENTER
 62
     4
 10
-121.59999999999989
 20
220.70765800000021
 30
0.0
 11
-121.59999999999989
 21
183.17131499999999
 31
0.0
  0
LINE
  8
NOTE
  6
CENTER
 62
     4
 10
-166.0
 20
9.1301770000000033
 30
0.0
 11
-166.0
 21
-7.2608109999999897
 31
0.0
  0
LINE
  8
NOTE
  6
CENTER
 62
     4
 10
-100.0
 20
9.1301770000000033
 30
0.0
 11
-100.0
 21
-7.2608109999999897
 31
0.0
  0
CIRCLE
  8
FIX
  6
CONTINUOUS
 62
    11
 10
-100.0
 20
0.0
 30
0.0
 40
10.0
  0
CIRCLE
  8
FIX
  6
CONTINUOUS
 62
    11
 10
100.0
 20
0.0
 30
0.0
 40
10.0
  0
CIRCLE
  8
FIX
  6
CONTINUOUS
 62
    11
 10
166.0
 20
0.0
 30
0.0
 40
10.0
  0
LINE
  8
SIZE
  6
CONTINUOUS
 62
    30
 10
-215.0
 20
0.0000000000001137
 30
0.0
 11
-472.66734055527922
 21
0.0000000000001705
 31
0.0
  0
LINE
  8
SIZE
  6
CONTINUOUS
 62
    30
 10
-207.08524477183079
 20
-20.0
 30
0.0
 11
-472.66734055527922
 21
-19.99999999999994
 31
0.0
  0
LINE
  8
SIZE
  6
CONTINUOUS
 62
    30
 10
-452.66734055527922
 20
12.000000000000171
 30
0.0
 11
-452.66734055527922
 21
24.000000000000171
 31
0.0
  0
LINE
  8
SIZE
  6
CONTINUOUS
 62
    30
 10
-452.66734055527922
 20
-31.99999999999994
 30
0.0
 11
-452.66734055527922
 21
-187.2571428571429
 31
0.0
  0
LINE
  8
SIZE
  6
CONTINUOUS
 62
    30
 10
-452.66734055527922
 20
0.0000000000001705
 30
0.0
 11
-452.66734055527922
 21
-19.99999999999994
 31
0.0
  0
CIRCLE
  8
SIZE
  6
CONTINUOUS
 62
    30
 10
-452.66734055527922
 20
0.0000000000001705
 30
0.0
 40
6.0
  0
LINE
  8
SIZE
  6
CONTINUOUS
 62
    30
 10
-452.66734055527922
 20
0.0000000000001705
 30
0.0
 11
-452.66734055527922
 21
12.000000000000171
 31
0.0
  0
CIRCLE
  8
SIZE
  6
CONTINUOUS
 62
    30
 10
-452.66734055527922
 20
-19.99999999999994
 30
0.0
 40
6.0
  0
LINE
  8
SIZE
  6
CONTINUOUS
 62
    30
 10
-452.66734055527922
 20
-19.99999999999994
 30
0.0
 11
-452.66734055527922
 21
-31.99999999999994
 31
0.0
  0
TEXT
  8
SIZE
  6
CONTINUOUS
 62
    30
 10
-477.66734055527922
 20
-162.2571428571429
 30
0.0
 40
64.0
  1
20
 50
90.0
 41
0.9
 72
     1
 11
-477.66734055527922
 21
-115.62857142857141
 31
0.0
  0
POINT
  8
DEFPOINTS
  6
CONTINUOUS
 62
    30
 10
-195.0
 20
0.0000000000001137
 30
0.0
  0
POINT
  8
DEFPOINTS
  6
CONTINUOUS
 62
    30
 10
-187.08524477183079
 20
-20.0
 30
0.0
  0
POINT
  8
DEFPOINTS
  6
CONTINUOUS
 62
    30
 10
-452.66734055527922
 20
-19.99999999999994
 30
0.0
  0
LINE
  8
SIZE
  6
CONTINUOUS
 62
    30
 10
-215.0
 20
0.0000000000001137
 30
0.0
 11
-472.66734055527922
 21
0.0000000000001705
 31
0.0
  0
LINE
  8
SIZE
  6
CONTINUOUS
 62
    30
 10
-78.5
 20
239.95003000000011
 30
0.0
 11
-472.66734055527922
 21
239.9500300000002
 31
0.0
  0
LINE
  8
SIZE
  6
CONTINUOUS
 62
    30
 10
-452.66734055527922
 20
12.000000000000171
 30
0.0
 11
-452.66734055527922
 21
227.9500300000002
 31
0.0
  0
CIRCLE
  8
SIZE
  6
CONTINUOUS
 62
    30
 10
-452.66734055527922
 20
0.0000000000001705
 30
0.0
 40
6.0
  0
LINE
  8
SIZE
  6
CONTINUOUS
 62
    30
 10
-452.66734055527922
 20
0.0000000000001705
 30
0.0
 11
-452.66734055527922
 21
12.000000000000171
 31
0.0
  0
CIRCLE
  8
SIZE
  6
CONTINUOUS
 62
    30
 10
-452.66734055527922
 20
239.9500300000002
 30
0.0
 40
6.0
  0
LINE
  8
SIZE
  6
CONTINUOUS
 62
    30
 10
-452.66734055527922
 20
239.9500300000002
 30
0.0
 11
-452.66734055527922
 21
227.9500300000002
 31
0.0
  0
TEXT
  8
SIZE
  6
CONTINUOUS
 62
    30
 10
-477.66734055527922
 20
45.917872142857362
 30
0.0
 40
64.0
  1
240
 50
90.0
 41
0.9
 72
     1
 11
-477.66734055527922
 21
119.9750150000002
 31
0.0
  0
POINT
  8
DEFPOINTS
  6
CONTINUOUS
 62
    30
 10
-195.0
 20
0.0000000000001137
 30
0.0
  0
POINT
  8
DEFPOINTS
  6
CONTINUOUS
 62
    30
 10
-58.5
 20
239.95003000000011
 30
0.0
  0
POINT
  8
DEFPOINTS
  6
CONTINUOUS
 62
    30
 10
-452.66734055527922
 20
239.9500300000002
 30
0.0
  0
LINE
  8
SIZE
  6
CONTINUOUS
 62
    30
 10
155.0
 20
20.00000000000011
 30
0.0
 11
155.0
 21
506.36825677301391
 31
0.0
  0
LINE
  8
SIZE
  6
CONTINUOUS
 62
    30
 10
-155.0
 20
20.00000000000011
 30
0.0
 11
-155.0
 21
506.36825677301391
 31
0.0
  0
LINE
  8
SIZE
  6
CONTINUOUS
 62
    30
 10
143.0
 20
486.36825677301391
 30
0.0
 11
-143.0
 21
486.36825677301391
 31
0.0
  0
CIRCLE
  8
SIZE
  6
CONTINUOUS
 62
    30
 10
155.0
 20
486.36825677301391
 30
0.0
 40
6.0
  0
LINE
  8
SIZE
  6
CONTINUOUS
 62
    30
 10
155.0
 20
486.36825677301391
 30
0.0
 11
143.0
 21
486.36825677301391
 31
0.0
  0
CIRCLE
  8
SIZE
  6
CONTINUOUS
 62
    30
 10
-155.0
 20
486.36825677301391
 30
0.0
 40
6.0
  0
LINE
  8
SIZE
  6
CONTINUOUS
 62
    30
 10
-155.0
 20
486.36825677301391
 30
0.0
 11
-143.0
 21
486.36825677301391
 31
0.0
  0
TEXT
  8
SIZE
  6
CONTINUOUS
 62
    30
 10
-105.0514285714286
 20
511.36825677301391
 30
0.0
 40
64.0
  1
□310
 41
0.9
 72
     1
 11
0.0
 21
511.36825677301391
 31
0.0
  0
POINT
  8
DEFPOINTS
  6
CONTINUOUS
 62
    30
 10
155.0
 20
0.0000000000001137
 30
0.0
  0
POINT
  8
DEFPOINTS
  6
CONTINUOUS
 62
    30
 10
-155.0
 20
0.0000000000001137
 30
0.0
  0
POINT
  8
DEFPOINTS
  6
CONTINUOUS
 62
    30
 10
-155.0
 20
486.36825677301391
 30
0.0
  0
LINE
  8
SIZE
  6
CONTINUOUS
 62
    30
 10
100.0
 20
-27.26081099999999
 30
0.0
 11
100.0
 21
-185.27032678310351
 31
0.0
  0
LINE
  8
SIZE
  6
CONTINUOUS
 62
    30
 10
-100.0
 20
-27.26081099999999
 30
0.0
 11
-100.0
 21
-185.27032678310351
 31
0.0
  0
LINE
  8
SIZE
  6
CONTINUOUS
 62
    30
 10
88.0
 20
-165.27032678310351
 30
0.0
 11
-88.0
 21
-165.27032678310351
 31
0.0
  0
CIRCLE
  8
SIZE
  6
CONTINUOUS
 62
    30
 10
100.0
 20
-165.27032678310351
 30
0.0
 40
6.0
  0
LINE
  8
SIZE
  6
CONTINUOUS
 62
    30
 10
100.0
 20
-165.27032678310351
 30
0.0
 11
88.0
 21
-165.27032678310351
 31
0.0
  0
CIRCLE
  8
SIZE
  6
CONTINUOUS
 62
    30
 10
-100.0
 20
-165.27032678310351
 30
0.0
 40
6.0
  0
LINE
  8
SIZE
  6
CONTINUOUS
 62
    30
 10
-100.0
 20
-165.27032678310351
 30
0.0
 11
-88.0
 21
-165.27032678310351
 31
0.0
  0
TEXT
  8
SIZE
  6
CONTINUOUS
 62
    30
 10
-74.05714285714285
 20
-140.27032678310351
 30
0.0
 40
64.0
  1
200
 41
0.9
 72
     1
 11
0.0
 21
-140.27032678310351
 31
0.0
  0
POINT
  8
DEFPOINTS
  6
CONTINUOUS
 62
    30
 10
100.0
 20
-7.2608109999999897
 30
0.0
  0
POINT
  8
DEFPOINTS
  6
CONTINUOUS
 62
    30
 10
-100.0
 20
-7.2608109999999897
 30
0.0
  0
POINT
  8
DEFPOINTS
  6
CONTINUOUS
 62
    30
 10
-100.0
 20
-165.27032678310351
 30
0.0
  0
LINE
  8
SIZE
  6
CONTINUOUS
 62
    30
 10
166.0
 20
-27.26081099999999
 30
0.0
 11
166.0
 21
-304.02235530715137
 31
0.0
  0
LINE
  8
SIZE
  6
CONTINUOUS
 62
    30
 10
-166.0
 20
-27.26081099999999
 30
0.0
 11
-166.0
 21
-304.02235530715137
 31
0.0
  0
LINE
  8
SIZE
  6
CONTINUOUS
 62
    30
 10
154.0
 20
-284.02235530715137
 30
0.0
 11
-154.0
 21
-284.02235530715137
 31
0.0
  0
CIRCLE
  8
SIZE
  6
CONTINUOUS
 62
    30
 10
166.0
 20
-284.02235530715137
 30
0.0
 40
6.0
  0
LINE
  8
SIZE
  6
CONTINUOUS
 62
    30
 10
166.0
 20
-284.02235530715137
 30
0.0
 11
154.0
 21
-284.02235530715137
 31
0.0
  0
CIRCLE
  8
SIZE
  6
CONTINUOUS
 62
    30
 10
-166.0
 20
-284.02235530715137
 30
0.0
 40
6.0
  0
LINE
  8
SIZE
  6
CONTINUOUS
 62
    30
 10
-166.0
 20
-284.02235530715137
 30
0.0
 11
-154.0
 21
-284.02235530715137
 31
0.0
  0
TEXT
  8
SIZE
  6
CONTINUOUS
 62
    30
 10
-74.05714285714285
 20
-259.02235530715137
 30
0.0
 40
64.0
  1
332
 41
0.9
 72
     1
 11
0.0
 21
-259.02235530715137
 31
0.0
  0
POINT
  8
DEFPOINTS
  6
CONTINUOUS
 62
    30
 10
166.0
 20
-7.2608109999999897
 30
0.0
  0
POINT
  8
DEFPOINTS
  6
CONTINUOUS
 62
    30
 10
-166.0
 20
-7.2608109999999897
 30
0.0
  0
POINT
  8
DEFPOINTS
  6
CONTINUOUS
 62
    30
 10
-166.0
 20
-284.02235530715137
 30
0.0
  0
LINE
  8
SIZE
  6
CONTINUOUS
 62
    30
 10
195.0
 20
-19.99999999999989
 30
0.0
 11
195.0
 21
-441.43426459478422
 31
0.0
  0
LINE
  8
SIZE
  6
CONTINUOUS
 62
    30
 10
-195.0
 20
-20.0
 30
0.0
 11
-195.0
 21
-441.43426459478422
 31
0.0
  0
LINE
  8
SIZE
  6
CONTINUOUS
 62
    30
 10
183.0
 20
-421.43426459478422
 30
0.0
 11
-183.0
 21
-421.43426459478422
 31
0.0
  0
CIRCLE
  8
SIZE
  6
CONTINUOUS
 62
    30
 10
195.0
 20
-421.43426459478422
 30
0.0
 40
6.0
  0
LINE
  8
SIZE
  6
CONTINUOUS
 62
    30
 10
195.0
 20
-421.43426459478422
 30
0.0
 11
183.0
 21
-421.43426459478422
 31
0.0
  0
CIRCLE
  8
SIZE
  6
CONTINUOUS
 62
    30
 10
-195.0
 20
-421.43426459478422
 30
0.0
 40
6.0
  0
LINE
  8
SIZE
  6
CONTINUOUS
 62
    30
 10
-195.0
 20
-421.43426459478422
 30
0.0
 11
-183.0
 21
-421.43426459478422
 31
0.0
  0
TEXT
  8
SIZE
  6
CONTINUOUS
 62
    30
 10
-110.5371428571428
 20
-396.43426459478422
 30
0.0
 40
64.0
  1
□390
 41
0.9
 72
     1
 11
0.0
 21
-396.43426459478422
 31
0.0
  0
POINT
  8
DEFPOINTS
  6
CONTINUOUS
 62
    30
 10
195.0
 20
0.0000000000001137
 30
0.0
  0
POINT
  8
DEFPOINTS
  6
CONTINUOUS
 62
    30
 10
-195.0
 20
0.0
 30
0.0
  0
POINT
  8
DEFPOINTS
  6
CONTINUOUS
 62
    30
 10
-195.0
 20
-421.43426459478422
 30
0.0
  0
LINE
  8
DETAIL
  6
CONTINUOUS
 62
     5
 10
195.00000000000011
 20
0.0
 30
0.0
 11
0.0
 21
0.0
 31
0.0
  0
LINE
  8
OUTLINE
  6
CONTINUOUS
 62
     3
 10
-195.0
 20
0.0000000000002274
 30
0.0
 11
-155.0
 21
0.0000000000002274
 31
0.0
  0
LINE
  8
OUTLINE
  6
CONTINUOUS
 62
     3
 10
195.00000000000011
 20
0.0000000000002274
 30
0.0
 11
155.0
 21
0.0000000000002274
 31
0.0
  0
LINE
  8
DETAIL
  6
CONTINUOUS
 62
     5
 10
-195.0
 20
0.0
 30
0.0
 11
0.0
 21
0.0
 31
0.0
  0
LINE
  8
DETAIL
  6
CONTINUOUS
 62
     5
 10
-195.00000000000011
 20
0.0
 30
0.0
 11
-194.37110664860339
 21
-12.0
 31
0.0
  0
LINE
  8
DETAIL
  6
CONTINUOUS
 62
     5
 10
-187.08524477183079
 20
-20.0
 30
0.0
 11
0.0
 21
-20.0
 31
0.0
  0
LINE
  8
DETAIL
  6
CONTINUOUS
 62
     5
 10
-194.37110664860339
 20
-12.0
 30
0.0
 11
0.0
 21
-12.0
 31
0.0
  0
LINE
  8
DETAIL
  6
CONTINUOUS
 62
     5
 10
-194.37110664860339
 20
-12.0
 30
0.0
 11
-187.08524477183079
 21
-20.0
 31
0.0
  0
LINE
  8
DETAIL
  6
CONTINUOUS
 62
     5
 10
195.00000000000011
 20
0.0
 30
0.0
 11
194.37110664860339
 21
-12.0
 31
0.0
  0
LINE
  8
DETAIL
  6
CONTINUOUS
 62
     5
 10
187.08524477183079
 20
-20.0
 30
0.0
 11
0.0
 21
-20.0
 31
0.0
  0
LINE
  8
DETAIL
  6
CONTINUOUS
 62
     5
 10
194.37110664860339
 20
-12.0
 30
0.0
 11
0.0
 21
-12.0
 31
0.0
  0
LINE
  8
DETAIL
  6
CONTINUOUS
 62
     5
 10
194.37110664860339
 20
-12.0
 30
0.0
 11
187.08524477183079
 21
-20.0
 31
0.0
  0
LINE
  8
OUTLINE
  6
CONTINUOUS
 62
     3
 10
-195.00000000000031
 20
0.0000000000002274
 30
0.0
 11
-194.37110664860359
 21
-12.0
 31
0.0
  0
LINE
  8
OUTLINE
  6
CONTINUOUS
 62
     3
 10
-187.0852447718311
 20
-19.999999999999769
 30
0.0
 11
-0.0000000000002274
 21
-20.0
 31
0.0
  0
LINE
  8
OUTLINE
  6
CONTINUOUS
 62
     3
 10
-194.37110664860359
 20
-12.0
 30
0.0
 11
-187.0852447718311
 21
-19.999999999999769
 31
0.0
  0
LINE
  8
OUTLINE
  6
CONTINUOUS
 62
     3
 10
194.99999999999989
 20
0.0000000000002274
 30
0.0
 11
194.3711066486031
 21
-12.0
 31
0.0
  0
LINE
  8
OUTLINE
  6
CONTINUOUS
 62
     3
 10
187.0852447718305
 20
-19.999999999999769
 30
0.0
 11
-0.0000000000002274
 21
-20.0
 31
0.0
  0
LINE
  8
OUTLINE
  6
CONTINUOUS
 62
     3
 10
194.3711066486031
 20
-12.0
 30
0.0
 11
187.0852447718305
 21
-19.999999999999769
 31
0.0
  0
CIRCLE
  8
ARRANGE
  6
CONTINUOUS
 62
     1
 10
0.0
 20
0.0
 30
0.0
 40
40.0
  0
POINT
  8
ARRANGE
  6
CONTINUOUS
 62
     1
 10
0.0
 20
0.0
 30
0.0
 50
90.000000000000014
  0
LINE
  8
BASIS
  6
DASHDOT
 62
     6
 10
0.0
 20
266.822855
 30
0.0
 11
0.0
 21
-33.989709999999953
 31
0.0
  0
LINE
  8
OUTLINE
  6
CONTINUOUS
 62
     3
 10
146.098793
 20
228.49999800000001
 30
0.0
 11
17.99999999999989
 21
228.49999800000001
 31
0.0
  0
ARC
  8
OUTLINE
  6
CONTINUOUS
 62
     3
 10
85.499999999999886
 20
134.99999800000001
 30
0.0
 40
76.701509999999999
 50
332.07510700001018
 51
29.924893000006811
  0
LINE
  8
OUTLINE
  6
CONTINUOUS
 62
     3
 10
17.99999999999989
 20
234.45002800000009
 30
0.0
 11
17.99999999999989
 21
228.49999800000001
 31
0.0
  0
LINE
  8
OUTLINE
  6
CONTINUOUS
 62
     3
 10
-64.0
 20
234.45002800000009
 30
0.0
 11
-64.0
 21
212.00000000000011
 31
0.0
  0
LINE
  8
OUTLINE
  6
CONTINUOUS
 62
     3
 10
-151.4725535657694
 20
202.08726203513771
 30
0.0
 11
-155.0
 21
-0.0000019999998813
 31
0.0
  0
LINE
  8
OUTLINE
  6
CONTINUOUS
 62
     3
 10
151.098793
 20
223.49999800000001
 30
0.0
 11
151.9756719999998
 21
173.263644
 31
0.0
  0
ARC
  8
OUTLINE
  6
CONTINUOUS
 62
     3
 10
146.098793
 20
223.49999800000001
 30
0.0
 40
5.0
 50
0.0
 51
90.0
  0
LINE
  8
OUTLINE
  6
CONTINUOUS
 62
     3
 10
153.27055899999991
 20
99.079626999999959
 30
0.0
 11
154.99999999999989
 21
-0.0000019999998813
 31
0.0
  0
LINE
  8
OUTLINE
  6
CONTINUOUS
 62
     3
 10
-58.5
 20
239.95002800000009
 30
0.0
 11
12.49999999999989
 21
239.95002800000009
 31
0.0
  0
ARC
  8
OUTLINE
  6
CONTINUOUS
 62
     3
 10
12.49999999999989
 20
234.45002800000009
 30
0.0
 40
5.5
 50
0.0
 51
90.0
  0
ARC
  8
OUTLINE
  6
CONTINUOUS
 62
     3
 10
-58.5
 20
234.45002800000009
 30
0.0
 40
5.5
 50
90.0
 51
180.0
  0
LINE
  8
DETAIL
  6
CONTINUOUS
 62
     5
 10
-63.999999999999893
 20
234.45002800000009
 30
0.0
 11
-63.999999999999893
 21
212.00000000000011
 31
0.0
  0
LINE
  8
DETAIL
  6
CONTINUOUS
 62
     5
 10
-151.47255356576929
 20
202.08726203513771
 30
0.0
 11
-154.99999999999989
 21
-0.000001999999995
 31
0.0
  0
ARC
  8
DETAIL
  6
CONTINUOUS
 62
     5
 10
-146.4733150900388
 20
202.00000000000011
 30
0.0
 40
5.0
 50
90.0
 51
178.99999996617359
  0
LINE
  8
DETAIL
  6
CONTINUOUS
 62
     5
 10
39.791688000000022
 20
228.49999800000001
 30
0.0
 11
36.089742999999999
 21
238.671008
 31
0.0
  0
LINE
  8
DETAIL
  6
CONTINUOUS
 62
     5
 10
35.619897000000037
 20
238.99999800000001
 30
0.0
 11
34.524916000000083
 21
238.99999800000001
 31
0.0
  0
LINE
  8
DETAIL
  6
CONTINUOUS
 62
     5
 10
22.475085000000039
 20
238.99999800000001
 30
0.0
 11
21.38010400000007
 21
238.99999800000001
 31
0.0
  0
ARC
  8
DETAIL
  6
CONTINUOUS
 62
     5
 10
21.38010400000007
 20
238.49999800000001
 30
0.0
 40
0.5
 50
90.0
 51
160.0000000000102
  0
ARC
  8
DETAIL
  6
CONTINUOUS
 62
     5
 10
22.475085000000039
 20
238.49999800000001
 30
0.0
 40
0.5
 50
0.4999999999980602
 51
90.0
  0
ARC
  8
DETAIL
  6
CONTINUOUS
 62
     5
 10
35.619897000000037
 20
238.49999800000001
 30
0.0
 40
0.5
 50
19.9999999999898
 51
90.0
  0
ARC
  8
DETAIL
  6
CONTINUOUS
 62
     5
 10
34.524916000000083
 20
238.49999800000001
 30
0.0
 40
0.5
 50
90.0
 51
179.5000000000019
  0
LINE
  8
DETAIL
  6
CONTINUOUS
 62
     5
 10
23.062373000000211
 20
228.49999800000001
 30
0.0
 11
22.975066000000201
 21
238.50436099999999
 31
0.0
  0
LINE
  8
DETAIL
  6
CONTINUOUS
 62
     5
 10
20.910258000000109
 20
238.671008
 30
0.0
 11
17.99999999999989
 21
230.67514009256681
 31
0.0
  0
LINE
  8
DETAIL
  6
CONTINUOUS
 62
     5
 10
33.937628000000132
 20
228.49999800000001
 30
0.0
 11
34.024935000000141
 21
238.50436099999999
 31
0.0
  0
LINE
  8
DETAIL
  6
CONTINUOUS
 62
     5
 10
125.61989699999999
 20
238.99999800000001
 30
0.0
 11
124.5249160000001
 21
238.99999800000001
 31
0.0
  0
LINE
  8
DETAIL
  6
CONTINUOUS
 62
     5
 10
112.47508500000001
 20
238.99999800000001
 30
0.0
 11
111.3801040000001
 21
238.99999800000001
 31
0.0
  0
LINE
  8
DETAIL
  6
CONTINUOUS
 62
     5
 10
123.9376280000001
 20
228.49999800000001
 30
0.0
 11
124.0249350000001
 21
238.50436099999999
 31
0.0
  0
LINE
  8
DETAIL
  6
CONTINUOUS
 62
     5
 10
113.06237300000021
 20
228.49999800000001
 30
0.0
 11
112.9750660000002
 21
238.50436099999999
 31
0.0
  0
LINE
  8
DETAIL
  6
CONTINUOUS
 62
     5
 10
129.79168799999999
 20
228.49999800000001
 30
0.0
 11
126.089743
 21
238.671008
 31
0.0
  0
ARC
  8
DETAIL
  6
CONTINUOUS
 62
     5
 10
111.3801040000001
 20
238.49999800000001
 30
0.0
 40
0.5
 50
90.0
 51
160.0000000000102
  0
ARC
  8
DETAIL
  6
CONTINUOUS
 62
     5
 10
125.61989699999999
 20
238.49999800000001
 30
0.0
 40
0.5
 50
19.9999999999898
 51
90.0
  0
ARC
  8
DETAIL
  6
CONTINUOUS
 62
     5
 10
112.47508500000001
 20
238.49999800000001
 30
0.0
 40
0.5
 50
0.4999999999980602
 51
90.0
  0
ARC
  8
DETAIL
  6
CONTINUOUS
 62
     5
 10
124.5249160000001
 20
238.49999800000001
 30
0.0
 40
0.5
 50
90.0
 51
179.5000000000019
  0
LINE
  8
DETAIL
  6
CONTINUOUS
 62
     5
 10
110.9102580000001
 20
238.671008
 30
0.0
 11
107.2083130000001
 21
228.49999800000001
 31
0.0
  0
ARC
  8
DETAIL
  6
CONTINUOUS
 62
     5
 10
85.5
 20
134.99999800000001
 30
0.0
 40
76.701509999999999
 50
332.07510691154442
 51
29.9248920514103
  0
ARC
  8
DETAIL
  6
CONTINUOUS
 62
     5
 10
146.09879300000009
 20
223.49999800000001
 30
0.0
 40
5.0
 50
0.0
 51
90.0
  0
LINE
  8
DETAIL
  6
CONTINUOUS
 62
     5
 10
146.09879300000009
 20
228.49999800000001
 30
0.0
 11
18.0
 21
228.49999800000001
 31
0.0
  0
LINE
  8
DETAIL
  6
CONTINUOUS
 62
     5
 10
18.0
 20
220.74999800000001
 30
0.0
 11
151.14679500000011
 21
220.74999800000001
 31
0.0
  0
LINE
  8
DETAIL
  6
CONTINUOUS
 62
     5
 10
18.0
 20
223.49999800000001
 30
0.0
 11
151.09879300000009
 21
223.49999800000001
 31
0.0
  0
LINE
  8
DETAIL
  6
CONTINUOUS
 62
     5
 10
151.09879300000009
 20
223.49999800000001
 30
0.0
 11
155.0
 21
-0.000001999999995
 31
0.0
  0
LINE
  8
DETAIL
  6
CONTINUOUS
 62
     5
 10
18.0
 20
234.45002800000009
 30
0.0
 11
18.0
 21
207.00000000000011
 31
0.0
  0
LINE
  8
DETAIL
  6
CONTINUOUS
 62
     5
 10
-58.499999999999893
 20
239.95002800000009
 30
0.0
 11
12.5
 21
239.95002800000009
 31
0.0
  0
ARC
  8
DETAIL
  6
CONTINUOUS
 62
     5
 10
12.5
 20
234.45002800000009
 30
0.0
 40
5.5
 50
0.0
 51
90.0
  0
ARC
  8
DETAIL
  6
CONTINUOUS
 62
     5
 10
-58.499999999999893
 20
234.45002800000009
 30
0.0
 40
5.5
 50
90.0
 51
180.0
  0
LINE
  8
DETAIL
  6
CONTINUOUS
 62
     5
 10
-146.4733150900388
 20
207.00000000000011
 30
0.0
 11
151.3868015952545
 21
207.00000000000011
 31
0.0
  0
LINE
  8
DETAIL
  6
CONTINUOUS
 62
     5
 10
-97.747138999999834
 20
207.284299
 30
0.0
 11
-97.52483200000006
 21
211.52616800000001
 31
0.0
  0
LINE
  8
DETAIL
  6
CONTINUOUS
 62
     5
 10
-97.025517000000036
 20
212.00000000000011
 30
0.0
 11
18.0
 21
212.00000000000011
 31
0.0
  0
ARC
  8
DETAIL
  6
CONTINUOUS
 62
     5
 10
-97.025517000000036
 20
211.50000000000011
 30
0.0
 40
0.5
 50
90.0
 51
177.00000000000091
  0
ARC
  8
OUTLINE
  6
CONTINUOUS
 62
     3
 10
-146.4733150900388
 20
202.00000000000011
 30
0.0
 40
5.0
 50
90.0
 51
178.99999996617359
  0
LINE
  8
OUTLINE
  6
CONTINUOUS
 62
     3
 10
-146.4733150900388
 20
207.00000000000011
 30
0.0
 11
-97.762038483645597
 21
207.00000000000011
 31
0.0
  0
LINE
  8
OUTLINE
  6
CONTINUOUS
 62
     3
 10
-97.747138999999834
 20
207.284299
 30
0.0
 11
-97.52483200000006
 21
211.52616800000001
 31
0.0
  0
LINE
  8
OUTLINE
  6
CONTINUOUS
 62
     3
 10
-97.025517000000036
 20
212.00000000000011
 30
0.0
 11
-64.0
 21
212.00000000000011
 31
0.0
  0
ARC
  8
OUTLINE
  6
CONTINUOUS
 62
     3
 10
-97.025517000000036
 20
211.50000000000011
 30
0.0
 40
0.5
 50
90.0
 51
177.00000000000091
  0
LINE
  8
DETAIL
  6
CONTINUOUS
 62
     5
 10
33.937628000000132
 20
220.74999800000001
 30
0.0
 11
33.937628000000132
 21
207.00000000000011
 31
0.0
  0
LINE
  8
DETAIL
  6
CONTINUOUS
 62
     5
 10
39.791688000000022
 20
220.74999800000001
 30
0.0
 11
39.791688000000022
 21
207.00000000000011
 31
0.0
  0
LINE
  8
DETAIL
  6
CONTINUOUS
 62
     5
 10
23.062373000000211
 20
220.74999800000001
 30
0.0
 11
23.062373000000211
 21
207.00000000000011
 31
0.0
  0
LINE
  8
DETAIL
  6
CONTINUOUS
 62
     5
 10
107.2083130000001
 20
220.74999800000001
 30
0.0
 11
107.2083130000001
 21
207.00000000000011
 31
0.0
  0
LINE
  8
DETAIL
  6
CONTINUOUS
 62
     5
 10
113.06237300000021
 20
220.74999800000001
 30
0.0
 11
113.06237300000021
 21
207.00000000000011
 31
0.0
  0
LINE
  8
DETAIL
  6
CONTINUOUS
 62
     5
 10
123.9376280000001
 20
220.74999800000001
 30
0.0
 11
123.9376280000001
 21
207.00000000000011
 31
0.0
  0
LINE
  8
DETAIL
  6
CONTINUOUS
 62
     5
 10
129.79168799999999
 20
220.74999800000001
 30
0.0
 11
129.79168799999999
 21
207.00000000000011
 31
0.0
  0
LINE
  8
DETAIL
  6
CONTINUOUS
 62
     5
 10
153.67138009063859
 20
76.116597352932558
 30
0.0
 11
-153.67137977123289
 21
76.116597352932558
 31
0.0
  0
TEXT
  8
ETC
  6
CONTINUOUS
 62
    61
 10
287.71533584129378
 20
539.24544628388628
 30
0.0
 40
64.0
  1
VD-20ZAVC6_3
 41
0.9
  0
TEXT
  8
ETC
  6
CONTINUOUS
 62
    61
 10
283.52934184129339
 20
421.29013626905538
 30
0.0
 40
64.0
  1
換気扇
 41
0.9
  0
TEXT
  8
ETC
  6
CONTINUOUS
 62
    61
 10
334.23074008984941
 20
313.14136338282992
 30
0.0
 40
40.0
  1
VD-20ZAVC6
 41
0.9
  0
TEXT
  8
ETC
  6
CONTINUOUS
 62
    61
 10
334.23074008984941
 20
247.14136338282989
 30
0.0
 40
40.0
  1
VD-20ZAC13
 41
0.9
  0
TEXT
  8
ETC
  6
CONTINUOUS
 62
    61
 10
334.23074008984941
 20
181.14136338283001
 30
0.0
 40
40.0
  1
VD-20ZALC13
 41
0.9
  0
TEXT
  8
NOTE
  6
CONTINUOUS
 62
     4
 10
-630.24608890522904
 20
299.08435005247998
 30
0.0
 40
63.999999999999993
  1
8-φ5
 41
0.9
  0
LINE
  8
NOTE
  6
CONTINUOUS
 62
     4
 10
-401.19634198458652
 20
264.8116364789787
 30
0.0
 11
-647.66692112129203
 21
264.81167295795728
 31
0.0
  0
ENDSEC
  0
EOF
