  0
SECTION
  2
HEADER
  9
$ACADVER
  1
AC1009
  9
$DWGCODEPAGE
  3
dos932
  9
$INSBASE
 10
0.0
 20
0.0
 30
0.0
  9
$EXTMIN
 10
-648.05601374019898
 20
-434.82970019666209
 30
-0.0015258207003583
  9
$EXTMAX
 10
1218.617260326417
 20
786.02600922578131
 30
0.0000000349246037
  9
$LIMMIN
 10
-2970.0
 20
-2100.0
  9
$LIMMAX
 10
2970.0
 20
2100.0
  9
$ORTHOMODE
 70
     1
  9
$REGENMODE
 70
     1
  9
$FILLMODE
 70
     1
  9
$QTEXTMODE
 70
     0
  9
$MIRRTEXT
 70
     0
  9
$LTSCALE
 40
20.0
  9
$ATTMODE
 70
     1
  9
$TEXTSIZE
 40
64.0
  9
$TRACEWID
 40
0.05
  9
$TEXTSTYLE
  7
STANDARD
  9
$CLAYER
  8
SIZE
  9
$CELTYPE
  6
CONTINUOUS
  9
$CECOLOR
 62
     7
  9
$DIMSCALE
 40
1.0
  9
$DIMASZ
 40
12.0
  9
$DIMEXO
 40
20.0
  9
$DIMDLI
 40
200.0
  9
$DIMRND
 40
0.0
  9
$DIMDLE
 40
0.0
  9
$DIMEXE
 40
20.0
  9
$DIMTP
 40
0.0
  9
$DIMTM
 40
0.0
  9
$DIMTXT
 40
64.0
  9
$DIMCEN
 40
0.09
  9
$DIMTSZ
 40
0.0
  9
$DIMTOL
 70
     0
  9
$DIMLIM
 70
     0
  9
$DIMTIH
 70
     0
  9
$DIMTOH
 70
     0
  9
$DIMSE1
 70
     0
  9
$DIMSE2
 70
     0
  9
$DIMTAD
 70
     1
  9
$DIMZIN
 70
     8
  9
$DIMBLK
  1

  9
$DIMASO
 70
     1
  9
$DIMSHO
 70
     0
  9
$DIMPOST
  1

  9
$DIMAPOST
  1

  9
$DIMALT
 70
     0
  9
$DIMALTD
 70
     2
  9
$DIMALTF
 40
25.399999999999999
  9
$DIMLFAC
 40
1.0
  9
$DIMTOFL
 70
     1
  9
$DIMTVP
 40
0.0
  9
$DIMTIX
 70
     1
  9
$DIMSOXD
 70
     0
  9
$DIMSAH
 70
     0
  9
$DIMBLK1
  1

  9
$DIMBLK2
  1

  9
$DIMSTYLE
  2
STANDARD
  9
$DIMCLRD
 70
     7
  9
$DIMCLRE
 70
     7
  9
$DIMCLRT
 70
     7
  9
$DIMTFAC
 40
1.0
  9
$DIMGAP
 40
25.0
  9
$LUNITS
 70
     2
  9
$LUPREC
 70
     4
  9
$SKETCHINC
 40
0.1
  9
$FILLETRAD
 40
3.0
  9
$AUNITS
 70
     1
  9
$AUPREC
 70
     3
  9
$MENU
  1
ACAD
  9
$ELEVATION
 40
0.0
  9
$PELEVATION
 40
0.0
  9
$THICKNESS
 40
0.0
  9
$LIMCHECK
 70
     0
  9
$CHAMFERA
 40
0.0
  9
$CHAMFERB
 40
0.0
  9
$SKPOLY
 70
     0
  9
$TDCREATE
 40
2453019.62301037
  9
$TDUPDATE
 40
2459025.514066794
  9
$TDINDWG
 40
1.7143794097
  9
$TDUSRTIMER
 40
1.7143794097
  9
$USRTIMER
 70
     1
  9
$ANGBASE
 50
0.0
  9
$ANGDIR
 70
     0
  9
$PDMODE
 70
     3
  9
$PDSIZE
 40
-2.0
  9
$PLINEWID
 40
0.0
  9
$SPLFRAME
 70
     0
  9
$SPLINETYPE
 70
     6
  9
$SPLINESEGS
 70
     8
  9
$SURFTAB1
 70
     6
  9
$SURFTAB2
 70
     6
  9
$SURFTYPE
 70
     6
  9
$SURFU
 70
     6
  9
$SURFV
 70
     6
  9
$UCSNAME
  2

  9
$UCSORG
 10
0.0
 20
0.0
 30
0.0
  9
$UCSXDIR
 10
1.0
 20
0.0
 30
0.0
  9
$UCSYDIR
 10
0.0
 20
1.0
 30
0.0
  9
$PUCSNAME
  2

  9
$PUCSORG
 10
0.0
 20
0.0
 30
0.0
  9
$PUCSXDIR
 10
1.0
 20
0.0
 30
0.0
  9
$PUCSYDIR
 10
0.0
 20
1.0
 30
0.0
  9
$USERI1
 70
     0
  9
$USERI2
 70
     0
  9
$USERI3
 70
     0
  9
$USERI4
 70
     0
  9
$USERI5
 70
     0
  9
$USERR1
 40
20.0
  9
$USERR2
 40
0.0
  9
$USERR3
 40
0.0
  9
$USERR4
 40
0.0
  9
$USERR5
 40
0.0
  9
$WORLDVIEW
 70
     1
  9
$SHADEDGE
 70
     3
  9
$SHADEDIF
 70
    70
  9
$TILEMODE
 70
     1
  9
$MAXACTVP
 70
    48
  9
$PINSBASE
 10
0.0
 20
0.0
 30
0.0
  9
$PLIMCHECK
 70
     0
  9
$PEXTMIN
 10
-100000000000000000000.0
 20
-100000000000000000000.0
 30
-100000000000000000000.0
  9
$PEXTMAX
 10
100000000000000000000.0
 20
100000000000000000000.0
 30
100000000000000000000.0
  9
$PLIMMIN
 10
0.0
 20
0.0
  9
$PLIMMAX
 10
12.0
 20
9.0
  9
$UNITMODE
 70
     0
  9
$VISRETAIN
 70
     0
  9
$PLINEGEN
 70
     0
  9
$PSLTSCALE
 70
     0
  9
$TREEDEPTH
 70
  3020
  9
$ATTDIA
 70
     0
  9
$ATTREQ
 70
     1
  9
$BLIPMODE
 70
     1
  9
$COORDS
 70
     1
  9
$DRAGMODE
 70
     2
  9
$OSMODE
 70
     0
  9
$HANDLING
 70
     0
  9
$HANDSEED
  5
F628
  0
ENDSEC
  0
SECTION
  2
TABLES
  0
TABLE
  2
LTYPE
 70
     3
  0
LTYPE
  2
CONTINUOUS
 70
     0
  3
実線
 72
    65
 73
     0
 40
0.0
  0
LTYPE
  2
DASHDOT
 70
     0
  3
____ _ ____ _ ____ _ ____ _ ____ _ ____ _ ____
 72
    65
 73
     4
 40
5.5
 49
4.0
 49
-0.6
 49
0.3
 49
-0.6
  0
LTYPE
  2
CENTER
 70
     0
  3
Center ____ _ ____ _ ____ _ ____ _ ____ _ ____
 72
    65
 73
     4
 40
1.0
 49
0.5
 49
-0.25
 49
0.0
 49
-0.25
  0
ENDTAB
  0
TABLE
  2
LAYER
 70
    12
  0
LAYER
  2
0
 70
     0
 62
     7
  6
CONTINUOUS
  0
LAYER
  2
BASIS
 70
     0
 62
     6
  6
DASHDOT
  0
LAYER
  2
OUTLINE
 70
     0
 62
     3
  6
CONTINUOUS
  0
LAYER
  2
DETAIL
 70
     0
 62
     5
  6
CONTINUOUS
  0
LAYER
  2
SIZE
 70
     0
 62
    30
  6
CONTINUOUS
  0
LAYER
  2
ARRANGE
 70
     0
 62
     1
  6
CONTINUOUS
  0
LAYER
  2
DEFPOINTS
 70
     0
 62
     7
  6
CONTINUOUS
  0
LAYER
  2
ETC
 70
     0
 62
    61
  6
CONTINUOUS
  0
LAYER
  2
FIX
 70
     0
 62
    11
  6
CONTINUOUS
  0
LAYER
  2
NOTE
 70
     0
 62
     4
  6
CONTINUOUS
  0
LAYER
  2
SERVICESPACE
 70
    64
 62
     2
  6
DASHDOT
  0
LAYER
  2
SYMBOLLINE
 70
    64
 62
    15
  6
CONTINUOUS
  0
ENDTAB
  0
TABLE
  2
STYLE
 70
     1
  0
STYLE
  2
STANDARD
 70
     0
 40
64.0
 41
0.9
 50
0.0
 71
     0
 42
64.0
  3
SIMPLEX.shx
  4
BIGFONT.shx
  0
ENDTAB
  0
TABLE
  2
APPID
 70
    19
  0
APPID
  2
ACAD
 70
     0
  0
APPID
  2
AUTOCAD_POSTSCRIPT_FIGURE
 70
     0
  0
APPID
  2
ACAD_EXEMPT_FROM_CAD_STANDARDS
 70
     0
  0
APPID
  2
ACAD_PSEXT
 70
     0
  0
APPID
  2
ACAUTHENVIRON
 70
     0
  0
APPID
  2
GENIUS_GENOENT_13
 70
     0
  0
APPID
  2
GENIUS_GENCFG_13
 70
     0
  0
APPID
  2
GENIUS_GENCFG0_13
 70
     0
  0
APPID
  2
GENIUS_GENCFG1_13
 70
     0
  0
APPID
  2
GENIUS_GENCFG2_13
 70
     0
  0
APPID
  2
GENIUS_GENCFG3_13
 70
     0
  0
APPID
  2
GENIUS_GENCFG4_13
 70
     0
  0
APPID
  2
GENIUS_GEVCFG0_13
 70
     0
  0
APPID
  2
CONTENTBLOCKICON
 70
     0
  0
APPID
  2
CONTENTBLOCKDESCRIPTION
 70
     0
  0
APPID
  2
ACAD_NAV_VCDISPLAY
 70
     0
  0
APPID
  2
ACAD_MLEADERVER
 70
     0
  0
APPID
  2
ACDBDYNAMICBLOCKTRUENAME
 70
     0
  0
APPID
  2
ACDBDYNAMICBLOCKGUID
 70
     0
  0
ENDTAB
  0
TABLE
  2
DIMSTYLE
 70
     1
  0
DIMSTYLE
  2
STANDARD
 70
     0
  3

  4

  5
_ORIGIN
  6

  7

 40
1.0
 41
12.0
 42
20.0
 43
200.0
 44
20.0
 45
0.0
 46
0.0
 47
0.0
 48
0.0
140
64.0
141
0.09
142
0.0
143
25.399999999999999
144
1.0
145
0.0
146
1.0
147
25.0
 71
     0
 72
     0
 73
     0
 74
     0
 75
     0
 76
     0
 77
     1
 78
     8
170
     0
171
     2
172
     1
173
     0
174
     1
175
     0
176
     7
177
     7
178
     7
  0
ENDTAB
  0
TABLE
  2
VIEW
 70
     1
  0
VIEW
  2
ALL
 70
     0
 40
4282.6198079999986
 10
0.0
 20
41.309904000000003
 41
5940.0
 11
0.0
 21
0.0
 31
1.0
 12
0.0
 22
0.0
 32
0.0
 42
50.0
 43
0.0
 44
0.0
 50
0.0
 71
     0
  0
ENDTAB
  0
TABLE
  2
UCS
 70
     0
  0
ENDTAB
  0
TABLE
  2
VPORT
 70
     1
  0
VPORT
  2
*ACTIVE
 70
     0
 10
0.0
 20
0.0
 11
1.0
 21
1.0
 12
285.28062329310899
 22
175.59815451455961
 13
0.0
 23
0.0
 14
1.0
 24
1.0
 15
0.0
 25
0.0
 16
0.0
 26
0.0
 36
1.0
 17
0.0
 27
0.0
 37
0.0
 40
1228.9497804241389
 41
1.747787610619469
 42
50.0
 43
0.0
 44
0.0
 50
0.0
 51
0.0
 71
     0
 72
  1000
 73
     1
 74
     3
 75
     0
 76
     0
 77
     0
 78
     0
  0
ENDTAB
  0
ENDSEC
  0
SECTION
  2
BLOCKS
  0
BLOCK
  8
0
  2
_ORIGIN
 70
     0
 10
0.0
 20
0.0
 30
0.0
  3
_ORIGIN
  1
_ORIGIN
  0
CIRCLE
  8
0
  6
CONTINUOUS
 62
     7
 10
0.0
 20
0.0
 30
0.0
 40
0.5
  0
LINE
  8
0
  6
CONTINUOUS
 62
     7
 10
0.0
 20
0.0
 30
0.0
 11
-1.0
 21
0.0
 31
0.0
  0
ENDBLK
  8
0
  0
ENDSEC
  0
SECTION
  2
ENTITIES
  0
LINE
  8
NOTE
  6
CONTINUOUS
 62
     4
 10
-165.9127739999999
 20
0.0
 30
0.0
 11
-401.19634198458652
 21
264.8116364789787
 31
0.0
  0
LINE
  8
NOTE
  6
CONTINUOUS
 62
     4
 10
-165.9127739999999
 20
0.0
 30
0.0
 11
-197.22551934757891
 21
22.683422418883421
 31
0.0
  0
LINE
  8
NOTE
  6
CONTINUOUS
 62
     4
 10
-184.90804869402339
 20
35.19929633376114
 30
0.0
 11
-165.9127739999999
 21
0.0
 31
0.0
  0
TEXT
  8
NOTE
  6
CONTINUOUS
 62
     4
 10
310.84241163965947
 20
94.482857014034721
 30
0.0
 40
64.0
  1
EA
 41
0.9
 72
     2
 11
406.84241163965947
 21
94.482857014034721
 31
0.0
  0
TEXT
  8
NOTE
  6
CONTINUOUS
 62
     4
 10
-142.70645775816499
 20
445.65316246539851
 30
0.0
 40
64.0
  1
EL
 41
0.9
  0
LINE
  8
NOTE
  6
CONTINUOUS
 62
     4
 10
-180.82094409062029
 20
428.59841760060158
 30
0.0
 11
-12.29645256420145
 21
428.59841760055917
 31
0.0
  0
LINE
  8
NOTE
  6
CONTINUOUS
 62
     4
 10
105.0
 20
212.00000200000011
 30
0.0
 11
-12.29645256420145
 21
428.59841760055917
 31
0.0
  0
LINE
  8
NOTE
  6
CONTINUOUS
 62
     4
 10
105.0
 20
212.00000200000011
 30
0.0
 11
76.926625955887403
 21
238.6439511874502
 31
0.0
  0
LINE
  8
NOTE
  6
CONTINUOUS
 62
     4
 10
97.697437605421555
 20
251.25805170384561
 30
0.0
 11
105.0
 21
212.00000200000011
 31
0.0
  0
CIRCLE
  8
FIX
  6
CONTINUOUS
 62
    11
 10
-166.0
 20
0.0
 30
0.0
 40
10.0
  0
LINE
  8
BASIS
  6
DASHDOT
 62
     6
 10
0.0
 20
-33.989709999999953
 30
0.0
 11
0.0
 21
266.822855
 31
0.0
  0
LINE
  8
NOTE
  6
CENTER
 62
     4
 10
105.0
 20
191.8467380000001
 30
0.0
 11
105.0
 21
227.21869100000001
 31
0.0
  0
LINE
  8
BASIS
  6
DASHDOT
 62
     6
 10
115.48201899999999
 20
135.0
 30
0.0
 11
285.90253100000018
 21
135.0
 31
0.0
  0
LINE
  8
NOTE
  6
CENTER
 62
     4
 10
-166.0
 20
9.1301770000000033
 30
0.0
 11
-166.0
 21
-7.2608109999999897
 31
0.0
  0
LINE
  8
NOTE
  6
CENTER
 62
     4
 10
-100.0
 20
9.1301770000000033
 30
0.0
 11
-100.0
 21
-7.2608109999999897
 31
0.0
  0
LINE
  8
NOTE
  6
CENTER
 62
     4
 10
100.0
 20
9.1301770000000033
 30
0.0
 11
100.0
 21
-7.2608109999999897
 31
0.0
  0
LINE
  8
NOTE
  6
CENTER
 62
     4
 10
166.0
 20
9.1301770000000033
 30
0.0
 11
166.0
 21
-7.2608109999999897
 31
0.0
  0
CIRCLE
  8
FIX
  6
CONTINUOUS
 62
    11
 10
-100.0
 20
0.0
 30
0.0
 40
10.0
  0
CIRCLE
  8
FIX
  6
CONTINUOUS
 62
    11
 10
100.0
 20
0.0
 30
0.0
 40
10.0
  0
CIRCLE
  8
FIX
  6
CONTINUOUS
 62
    11
 10
166.0
 20
0.0
 30
0.0
 40
10.0
  0
CIRCLE
  8
ARRANGE
  6
CONTINUOUS
 62
     1
 10
0.0
 20
0.0
 30
0.0
 40
40.0
  0
POINT
  8
ARRANGE
  6
CONTINUOUS
 62
     1
 10
0.0
 20
0.0
 30
0.0
 50
90.000000000000014
  0
LINE
  8
SIZE
  6
CONTINUOUS
 62
    30
 10
100.0
 20
-27.26081099999999
 30
0.0
 11
100.0
 21
-184.1636074172884
 31
0.0
  0
LINE
  8
SIZE
  6
CONTINUOUS
 62
    30
 10
-100.0
 20
-27.26081099999999
 30
0.0
 11
-100.0
 21
-184.1636074172884
 31
0.0
  0
LINE
  8
SIZE
  6
CONTINUOUS
 62
    30
 10
88.0
 20
-164.1636074172884
 30
0.0
 11
-88.0
 21
-164.1636074172884
 31
0.0
  0
CIRCLE
  8
SIZE
  6
CONTINUOUS
 62
    30
 10
100.0
 20
-164.1636074172884
 30
0.0
 40
6.0
  0
LINE
  8
SIZE
  6
CONTINUOUS
 62
    30
 10
100.0
 20
-164.1636074172884
 30
0.0
 11
88.0
 21
-164.1636074172884
 31
0.0
  0
CIRCLE
  8
SIZE
  6
CONTINUOUS
 62
    30
 10
-100.0
 20
-164.1636074172884
 30
0.0
 40
6.0
  0
LINE
  8
SIZE
  6
CONTINUOUS
 62
    30
 10
-100.0
 20
-164.1636074172884
 30
0.0
 11
-88.0
 21
-164.1636074172884
 31
0.0
  0
TEXT
  8
SIZE
  6
CONTINUOUS
 62
    30
 10
-74.05714285714285
 20
-139.1636074172884
 30
0.0
 40
64.0
  1
200
 41
0.9
 72
     1
 11
0.0
 21
-139.1636074172884
 31
0.0
  0
POINT
  8
DEFPOINTS
  6
CONTINUOUS
 62
    30
 10
100.0
 20
-7.2608109999999897
 30
0.0
  0
POINT
  8
DEFPOINTS
  6
CONTINUOUS
 62
    30
 10
-100.0
 20
-7.2608109999999897
 30
0.0
  0
POINT
  8
DEFPOINTS
  6
CONTINUOUS
 62
    30
 10
-100.0
 20
-164.1636074172884
 30
0.0
  0
LINE
  8
SIZE
  6
CONTINUOUS
 62
    30
 10
166.0
 20
-27.26081099999999
 30
0.0
 11
166.0
 21
-302.20459319010092
 31
0.0
  0
LINE
  8
SIZE
  6
CONTINUOUS
 62
    30
 10
-166.0
 20
-27.26081099999999
 30
0.0
 11
-166.0
 21
-302.20459319010092
 31
0.0
  0
LINE
  8
SIZE
  6
CONTINUOUS
 62
    30
 10
154.0
 20
-282.20459319010092
 30
0.0
 11
-154.0
 21
-282.20459319010092
 31
0.0
  0
CIRCLE
  8
SIZE
  6
CONTINUOUS
 62
    30
 10
166.0
 20
-282.20459319010092
 30
0.0
 40
6.0
  0
LINE
  8
SIZE
  6
CONTINUOUS
 62
    30
 10
166.0
 20
-282.20459319010092
 30
0.0
 11
154.0
 21
-282.20459319010092
 31
0.0
  0
CIRCLE
  8
SIZE
  6
CONTINUOUS
 62
    30
 10
-166.0
 20
-282.20459319010092
 30
0.0
 40
6.0
  0
LINE
  8
SIZE
  6
CONTINUOUS
 62
    30
 10
-166.0
 20
-282.20459319010092
 30
0.0
 11
-154.0
 21
-282.20459319010092
 31
0.0
  0
TEXT
  8
SIZE
  6
CONTINUOUS
 62
    30
 10
-74.05714285714285
 20
-257.20459319010109
 30
0.0
 40
64.0
  1
332
 41
0.9
 72
     1
 11
0.0
 21
-257.20459319010109
 31
0.0
  0
POINT
  8
DEFPOINTS
  6
CONTINUOUS
 62
    30
 10
166.0
 20
-7.2608109999999897
 30
0.0
  0
POINT
  8
DEFPOINTS
  6
CONTINUOUS
 62
    30
 10
-166.0
 20
-7.2608109999999897
 30
0.0
  0
POINT
  8
DEFPOINTS
  6
CONTINUOUS
 62
    30
 10
-166.0
 20
-282.20459319010092
 30
0.0
  0
LINE
  8
SIZE
  6
CONTINUOUS
 62
    30
 10
195.0
 20
-20.0
 30
0.0
 11
195.0
 21
-434.68918532599952
 31
0.0
  0
LINE
  8
SIZE
  6
CONTINUOUS
 62
    30
 10
-195.0
 20
-20.0
 30
0.0
 11
-195.0
 21
-434.68918532599952
 31
0.0
  0
LINE
  8
SIZE
  6
CONTINUOUS
 62
    30
 10
183.0
 20
-414.68918532599952
 30
0.0
 11
-183.0
 21
-414.68918532599952
 31
0.0
  0
CIRCLE
  8
SIZE
  6
CONTINUOUS
 62
    30
 10
195.0
 20
-414.68918532599952
 30
0.0
 40
6.0
  0
LINE
  8
SIZE
  6
CONTINUOUS
 62
    30
 10
195.0
 20
-414.68918532599952
 30
0.0
 11
183.0
 21
-414.68918532599952
 31
0.0
  0
CIRCLE
  8
SIZE
  6
CONTINUOUS
 62
    30
 10
-195.0
 20
-414.68918532599952
 30
0.0
 40
6.0
  0
LINE
  8
SIZE
  6
CONTINUOUS
 62
    30
 10
-195.0
 20
-414.68918532599952
 30
0.0
 11
-183.0
 21
-414.68918532599952
 31
0.0
  0
TEXT
  8
SIZE
  6
CONTINUOUS
 62
    30
 10
-110.5371428571428
 20
-389.68918532599952
 30
0.0
 40
64.0
  1
□390
 41
0.9
 72
     1
 11
0.0
 21
-389.68918532599952
 31
0.0
  0
POINT
  8
DEFPOINTS
  6
CONTINUOUS
 62
    30
 10
195.0
 20
0.0
 30
0.0
  0
POINT
  8
DEFPOINTS
  6
CONTINUOUS
 62
    30
 10
-195.0
 20
0.0
 30
0.0
  0
POINT
  8
DEFPOINTS
  6
CONTINUOUS
 62
    30
 10
-195.0
 20
-414.68918532599952
 30
0.0
  0
LINE
  8
SIZE
  6
CONTINUOUS
 62
    30
 10
155.00045703491011
 20
20.0
 30
0.0
 11
155.00045703491011
 21
710.94502880349319
 31
0.0
  0
LINE
  8
SIZE
  6
CONTINUOUS
 62
    30
 10
-154.67145199999999
 20
20.00000000000011
 30
0.0
 11
-154.67145199999999
 21
710.94502880349319
 31
0.0
  0
LINE
  8
SIZE
  6
CONTINUOUS
 62
    30
 10
143.00045703491011
 20
690.94502880349319
 30
0.0
 11
-142.67145199999999
 21
690.94502880349319
 31
0.0
  0
CIRCLE
  8
SIZE
  6
CONTINUOUS
 62
    30
 10
155.00045703491011
 20
690.94502880349319
 30
0.0
 40
6.0
  0
LINE
  8
SIZE
  6
CONTINUOUS
 62
    30
 10
155.00045703491011
 20
690.94502880349319
 30
0.0
 11
143.00045703491011
 21
690.94502880349319
 31
0.0
  0
CIRCLE
  8
SIZE
  6
CONTINUOUS
 62
    30
 10
-154.67145199999999
 20
690.94502880349319
 30
0.0
 40
6.0
  0
LINE
  8
SIZE
  6
CONTINUOUS
 62
    30
 10
-154.67145199999999
 20
690.94502880349319
 30
0.0
 11
-142.67145199999999
 21
690.94502880349319
 31
0.0
  0
TEXT
  8
SIZE
  6
CONTINUOUS
 62
    30
 10
-104.8869260539735
 20
715.94502880349319
 30
0.0
 40
64.0
  1
□310
 41
0.9
 72
     1
 11
0.1645025174550483
 21
715.94502880349319
 31
0.0
  0
POINT
  8
DEFPOINTS
  6
CONTINUOUS
 62
    30
 10
155.00045703491011
 20
0.0
 30
0.0
  0
POINT
  8
DEFPOINTS
  6
CONTINUOUS
 62
    30
 10
-154.67145199999999
 20
0.0000000000001137
 30
0.0
  0
POINT
  8
DEFPOINTS
  6
CONTINUOUS
 62
    30
 10
-154.67145199999999
 20
690.94502880349319
 30
0.0
  0
LINE
  8
SIZE
  6
CONTINUOUS
 62
    30
 10
155.00045703491011
 20
20.0
 30
0.0
 11
155.00045703491011
 21
710.94502880349319
 31
0.0
  0
LINE
  8
SIZE
  6
CONTINUOUS
 62
    30
 10
270.00030500000003
 20
226.50434400000009
 30
0.0
 11
270.00030500000003
 21
710.94502880349319
 31
0.0
  0
LINE
  8
SIZE
  6
CONTINUOUS
 62
    30
 10
167.00045703491011
 20
690.94502880349319
 30
0.0
 11
258.00030500000003
 21
690.94502880349319
 31
0.0
  0
LINE
  8
SIZE
  6
CONTINUOUS
 62
    30
 10
270.00030500000003
 20
690.94502880349319
 30
0.0
 11
458.17173357142877
 21
690.94502880349319
 31
0.0
  0
CIRCLE
  8
SIZE
  6
CONTINUOUS
 62
    30
 10
155.00045703491011
 20
690.94502880349319
 30
0.0
 40
6.0
  0
LINE
  8
SIZE
  6
CONTINUOUS
 62
    30
 10
155.00045703491011
 20
690.94502880349319
 30
0.0
 11
167.00045703491011
 21
690.94502880349319
 31
0.0
  0
CIRCLE
  8
SIZE
  6
CONTINUOUS
 62
    30
 10
270.00030500000003
 20
690.94502880349319
 30
0.0
 40
6.0
  0
LINE
  8
SIZE
  6
CONTINUOUS
 62
    30
 10
270.00030500000003
 20
690.94502880349319
 30
0.0
 11
258.00030500000003
 21
690.94502880349319
 31
0.0
  0
TEXT
  8
SIZE
  6
CONTINUOUS
 62
    30
 10
307.00030500000003
 20
715.94502880349319
 30
0.0
 40
64.0
  1
115
 41
0.9
 72
     1
 11
370.08601928571431
 21
715.94502880349319
 31
0.0
  0
POINT
  8
DEFPOINTS
  6
CONTINUOUS
 62
    30
 10
155.00045703491011
 20
0.0
 30
0.0
  0
POINT
  8
DEFPOINTS
  6
CONTINUOUS
 62
    30
 10
270.00030500000003
 20
206.50434400000009
 30
0.0
  0
POINT
  8
DEFPOINTS
  6
CONTINUOUS
 62
    30
 10
270.00030500000003
 20
690.94502880349319
 30
0.0
  0
LINE
  8
SIZE
  6
CONTINUOUS
 62
    30
 10
239.000305
 20
227.270532
 30
0.0
 11
239.000305
 21
341.85680087624951
 31
0.0
  0
LINE
  8
SIZE
  6
CONTINUOUS
 62
    30
 10
270.00030500000003
 20
226.50434400000009
 30
0.0
 11
270.00030500000003
 21
341.85680087624951
 31
0.0
  0
LINE
  8
SIZE
  6
CONTINUOUS
 62
    30
 10
227.000305
 20
321.85680087624951
 30
0.0
 11
215.000305
 21
321.85680087624951
 31
0.0
  0
LINE
  8
SIZE
  6
CONTINUOUS
 62
    30
 10
282.00030500000003
 20
321.85680087624951
 30
0.0
 11
471.01482953586492
 21
321.85680087624951
 31
0.0
  0
LINE
  8
SIZE
  6
CONTINUOUS
 62
    30
 10
239.000305
 20
321.85680087624951
 30
0.0
 11
270.00030500000003
 21
321.85680087624951
 31
0.0
  0
CIRCLE
  8
SIZE
  6
CONTINUOUS
 62
    30
 10
239.000305
 20
321.85680087624951
 30
0.0
 40
6.0
  0
LINE
  8
SIZE
  6
CONTINUOUS
 62
    30
 10
239.000305
 20
321.85680087624951
 30
0.0
 11
227.000305
 21
321.85680087624951
 31
0.0
  0
CIRCLE
  8
SIZE
  6
CONTINUOUS
 62
    30
 10
270.00030500000003
 20
321.85680087624951
 30
0.0
 40
6.0
  0
LINE
  8
SIZE
  6
CONTINUOUS
 62
    30
 10
270.00030500000003
 20
321.85680087624951
 30
0.0
 11
282.00030500000003
 21
321.85680087624951
 31
0.0
  0
TEXT
  8
SIZE
  6
CONTINUOUS
 62
    30
 10
352.75768667872211
 20
346.85680087624951
 30
0.0
 40
64.0
  1
30
 41
0.9
 72
     1
 11
399.38625810729349
 21
346.85680087624951
 31
0.0
  0
POINT
  8
DEFPOINTS
  6
CONTINUOUS
 62
    30
 10
239.000305
 20
207.270532
 30
0.0
  0
POINT
  8
DEFPOINTS
  6
CONTINUOUS
 62
    30
 10
270.00030500000003
 20
206.50434400000009
 30
0.0
  0
POINT
  8
DEFPOINTS
  6
CONTINUOUS
 62
    30
 10
270.00030500000003
 20
321.85680087624951
 30
0.0
  0
LINE
  8
SIZE
  6
CONTINUOUS
 62
    30
 10
270.00030500000003
 20
226.50434400000009
 30
0.0
 11
270.00030500000003
 21
445.33696620043878
 31
0.0
  0
LINE
  8
SIZE
  6
CONTINUOUS
 62
    30
 10
199.000305
 20
218.00595200000009
 30
0.0
 11
199.000305
 21
445.33696620043878
 31
0.0
  0
LINE
  8
SIZE
  6
CONTINUOUS
 62
    30
 10
187.000305
 20
425.33696620043878
 30
0.0
 11
175.000305
 21
425.33696620043878
 31
0.0
  0
LINE
  8
SIZE
  6
CONTINUOUS
 62
    30
 10
282.00030500000003
 20
425.33696620043878
 30
0.0
 11
435.79328155364692
 21
425.33696620043878
 31
0.0
  0
LINE
  8
SIZE
  6
CONTINUOUS
 62
    30
 10
199.000305
 20
425.33696620043878
 30
0.0
 11
270.00030500000003
 21
425.33696620043878
 31
0.0
  0
CIRCLE
  8
SIZE
  6
CONTINUOUS
 62
    30
 10
199.000305
 20
425.33696620043878
 30
0.0
 40
6.0
  0
LINE
  8
SIZE
  6
CONTINUOUS
 62
    30
 10
199.000305
 20
425.33696620043878
 30
0.0
 11
187.000305
 21
425.33696620043878
 31
0.0
  0
CIRCLE
  8
SIZE
  6
CONTINUOUS
 62
    30
 10
270.00030500000003
 20
425.33696620043878
 30
0.0
 40
6.0
  0
LINE
  8
SIZE
  6
CONTINUOUS
 62
    30
 10
270.00030500000003
 20
425.33696620043878
 30
0.0
 11
282.00030500000003
 21
425.33696620043878
 31
0.0
  0
TEXT
  8
SIZE
  6
CONTINUOUS
 62
    30
 10
342.22185298221819
 20
450.33696620043878
 30
0.0
 40
64.0
  1
71
 41
0.9
 72
     1
 11
376.50756726793247
 21
450.33696620043878
 31
0.0
  0
POINT
  8
DEFPOINTS
  6
CONTINUOUS
 62
    30
 10
270.00030500000003
 20
206.50434400000009
 30
0.0
  0
POINT
  8
DEFPOINTS
  6
CONTINUOUS
 62
    30
 10
199.000305
 20
198.00595200000009
 30
0.0
  0
POINT
  8
DEFPOINTS
  6
CONTINUOUS
 62
    30
 10
199.000305
 20
425.33696620043878
 30
0.0
  0
LINE
  8
SIZE
  6
CONTINUOUS
 62
    30
 10
-61.5
 20
239.95003000000011
 30
0.0
 11
-463.38346657946738
 21
239.9500300000002
 31
0.0
  0
LINE
  8
SIZE
  6
CONTINUOUS
 62
    30
 10
-215.0
 20
0.0000000000001137
 30
0.0
 11
-463.38346657946749
 21
0.0000000000001705
 31
0.0
  0
LINE
  8
SIZE
  6
CONTINUOUS
 62
    30
 10
-443.38346657946738
 20
227.9500300000002
 30
0.0
 11
-443.38346657946749
 21
12.000000000000171
 31
0.0
  0
CIRCLE
  8
SIZE
  6
CONTINUOUS
 62
    30
 10
-443.38346657946738
 20
239.9500300000002
 30
0.0
 40
6.0
  0
LINE
  8
SIZE
  6
CONTINUOUS
 62
    30
 10
-443.38346657946738
 20
239.9500300000002
 30
0.0
 11
-443.38346657946738
 21
227.9500300000002
 31
0.0
  0
CIRCLE
  8
SIZE
  6
CONTINUOUS
 62
    30
 10
-443.38346657946749
 20
0.0000000000001705
 30
0.0
 40
6.0
  0
LINE
  8
SIZE
  6
CONTINUOUS
 62
    30
 10
-443.38346657946749
 20
0.0000000000001705
 30
0.0
 11
-443.38346657946749
 21
12.000000000000171
 31
0.0
  0
TEXT
  8
SIZE
  6
CONTINUOUS
 62
    30
 10
-468.38346657946749
 20
45.917872142857249
 30
0.0
 40
64.0
  1
240
 50
90.0
 41
0.9
 72
     1
 11
-468.38346657946749
 21
119.9750150000001
 31
0.0
  0
POINT
  8
DEFPOINTS
  6
CONTINUOUS
 62
    30
 10
-41.5
 20
239.95003000000011
 30
0.0
  0
POINT
  8
DEFPOINTS
  6
CONTINUOUS
 62
    30
 10
-195.0
 20
0.0000000000001137
 30
0.0
  0
POINT
  8
DEFPOINTS
  6
CONTINUOUS
 62
    30
 10
-443.38346657946749
 20
0.0000000000001705
 30
0.0
  0
LINE
  8
SIZE
  6
CONTINUOUS
 62
    30
 10
-207.0852447718307
 20
-20.0
 30
0.0
 11
-463.38346657946749
 21
-19.99999999999994
 31
0.0
  0
LINE
  8
SIZE
  6
CONTINUOUS
 62
    30
 10
-215.0
 20
0.0
 30
0.0
 11
-463.38346657946749
 21
0.0000000000000568
 31
0.0
  0
LINE
  8
SIZE
  6
CONTINUOUS
 62
    30
 10
-443.38346657946749
 20
12.00000000000006
 30
0.0
 11
-443.38346657946749
 21
24.00000000000006
 31
0.0
  0
LINE
  8
SIZE
  6
CONTINUOUS
 62
    30
 10
-443.38346657946749
 20
-31.99999999999994
 30
0.0
 11
-443.38346657946761
 21
-187.2571428571429
 31
0.0
  0
LINE
  8
SIZE
  6
CONTINUOUS
 62
    30
 10
-443.38346657946749
 20
0.0000000000000568
 30
0.0
 11
-443.38346657946749
 21
-19.99999999999994
 31
0.0
  0
CIRCLE
  8
SIZE
  6
CONTINUOUS
 62
    30
 10
-443.38346657946749
 20
0.0000000000000568
 30
0.0
 40
6.0
  0
LINE
  8
SIZE
  6
CONTINUOUS
 62
    30
 10
-443.38346657946749
 20
0.0000000000000568
 30
0.0
 11
-443.38346657946749
 21
12.00000000000006
 31
0.0
  0
CIRCLE
  8
SIZE
  6
CONTINUOUS
 62
    30
 10
-443.38346657946749
 20
-19.99999999999994
 30
0.0
 40
6.0
  0
LINE
  8
SIZE
  6
CONTINUOUS
 62
    30
 10
-443.38346657946749
 20
-19.99999999999994
 30
0.0
 11
-443.38346657946749
 21
-31.99999999999994
 31
0.0
  0
TEXT
  8
SIZE
  6
CONTINUOUS
 62
    30
 10
-468.38346657946749
 20
-162.2571428571429
 30
0.0
 40
64.0
  1
20
 50
90.0
 41
0.9
 72
     1
 11
-468.38346657946749
 21
-115.62857142857141
 31
0.0
  0
POINT
  8
DEFPOINTS
  6
CONTINUOUS
 62
    30
 10
-187.0852447718307
 20
-20.0
 30
0.0
  0
POINT
  8
DEFPOINTS
  6
CONTINUOUS
 62
    30
 10
-195.0
 20
0.0
 30
0.0
  0
POINT
  8
DEFPOINTS
  6
CONTINUOUS
 62
    30
 10
-443.38346657946749
 20
0.0000000000000568
 30
0.0
  0
LINE
  8
SIZE
  6
CONTINUOUS
 62
    30
 10
174.0004603048437
 20
57.289809593562609
 30
0.0
 11
377.22799011709321
 21
57.289809593562552
 31
0.0
  0
LINE
  8
SIZE
  6
CONTINUOUS
 62
    30
 10
215.0
 20
0.0000000000001137
 30
0.0
 11
377.22799011709321
 21
0.0000000000000568
 31
0.0
  0
LINE
  8
SIZE
  6
CONTINUOUS
 62
    30
 10
357.22799011709321
 20
69.289809593562552
 30
0.0
 11
357.22799011709321
 21
81.289809593562495
 31
0.0
  0
LINE
  8
SIZE
  6
CONTINUOUS
 62
    30
 10
357.22799011709321
 20
-11.99999999999994
 30
0.0
 11
357.22799011709321
 21
-167.25714285714281
 31
0.0
  0
LINE
  8
SIZE
  6
CONTINUOUS
 62
    30
 10
357.22799011709321
 20
57.289809593562552
 30
0.0
 11
357.22799011709321
 21
0.0000000000000568
 31
0.0
  0
CIRCLE
  8
SIZE
  6
CONTINUOUS
 62
    30
 10
357.22799011709321
 20
57.289809593562552
 30
0.0
 40
6.0
  0
LINE
  8
SIZE
  6
CONTINUOUS
 62
    30
 10
357.22799011709321
 20
57.289809593562552
 30
0.0
 11
357.22799011709321
 21
69.289809593562552
 31
0.0
  0
CIRCLE
  8
SIZE
  6
CONTINUOUS
 62
    30
 10
357.22799011709321
 20
0.0000000000000568
 30
0.0
 40
6.0
  0
LINE
  8
SIZE
  6
CONTINUOUS
 62
    30
 10
357.22799011709321
 20
0.0000000000000568
 30
0.0
 11
357.22799011709321
 21
-11.99999999999994
 31
0.0
  0
TEXT
  8
SIZE
  6
CONTINUOUS
 62
    30
 10
332.22799011709321
 20
-142.2571428571427
 30
0.0
 40
64.0
  1
57
 50
90.0
 41
0.9
 72
     1
 11
332.22799011709321
 21
-95.628571428571263
 31
0.0
  0
POINT
  8
DEFPOINTS
  6
CONTINUOUS
 62
    30
 10
154.0004603048437
 20
57.289809593562609
 30
0.0
  0
POINT
  8
DEFPOINTS
  6
CONTINUOUS
 62
    30
 10
195.0
 20
0.0000000000001137
 30
0.0
  0
POINT
  8
DEFPOINTS
  6
CONTINUOUS
 62
    30
 10
357.22799011709321
 20
0.0000000000000568
 30
0.0
  0
LINE
  8
SIZE
  6
CONTINUOUS
 62
    30
 10
305.90253100000018
 20
135.0
 30
0.0
 11
497.67975761883832
 21
134.99999999999989
 31
0.0
  0
LINE
  8
SIZE
  6
CONTINUOUS
 62
    30
 10
215.0
 20
0.0
 30
0.0
 11
497.67975761883832
 21
-0.0000000000001137
 31
0.0
  0
LINE
  8
SIZE
  6
CONTINUOUS
 62
    30
 10
477.67975761883832
 20
123.0
 30
0.0
 11
477.67975761883832
 21
11.99999999999994
 31
0.0
  0
LINE
  8
SIZE
  6
CONTINUOUS
 62
    30
 10
477.67975761883832
 20
-0.0000000000000568
 30
0.0
 11
477.67975761883832
 21
-199.1428571428572
 31
0.0
  0
CIRCLE
  8
SIZE
  6
CONTINUOUS
 62
    30
 10
477.67975761883832
 20
134.99999999999989
 30
0.0
 40
6.0
  0
LINE
  8
SIZE
  6
CONTINUOUS
 62
    30
 10
477.67975761883832
 20
134.99999999999989
 30
0.0
 11
477.67975761883832
 21
122.9999999999999
 31
0.0
  0
CIRCLE
  8
SIZE
  6
CONTINUOUS
 62
    30
 10
477.67975761883832
 20
-0.0000000000000568
 30
0.0
 40
6.0
  0
LINE
  8
SIZE
  6
CONTINUOUS
 62
    30
 10
477.67975761883832
 20
-0.0000000000000568
 30
0.0
 11
477.67975761883832
 21
11.99999999999994
 31
0.0
  0
TEXT
  8
SIZE
  6
CONTINUOUS
 62
    30
 10
452.67975761883832
 20
-174.1428571428572
 30
0.0
 40
64.0
  1
135
 50
90.0
 41
0.9
 72
     1
 11
452.67975761883832
 21
-105.5714285714287
 31
0.0
  0
POINT
  8
DEFPOINTS
  6
CONTINUOUS
 62
    30
 10
285.90253100000018
 20
135.0
 30
0.0
  0
POINT
  8
DEFPOINTS
  6
CONTINUOUS
 62
    30
 10
195.0
 20
0.0
 30
0.0
  0
POINT
  8
DEFPOINTS
  6
CONTINUOUS
 62
    30
 10
477.67975761883832
 20
-0.0000000000000568
 30
0.0
  0
LINE
  8
SIZE
  6
CONTINUOUS
 62
    30
 10
289.50466799999981
 20
62.995674000000122
 30
0.0
 11
644.34652774656251
 21
62.995674000000008
 31
0.0
  0
LINE
  8
SIZE
  6
CONTINUOUS
 62
    30
 10
289.50466799999998
 20
207.00432499999999
 30
0.0
 11
644.34652774656251
 21
207.00432499999991
 31
0.0
  0
LINE
  8
SIZE
  6
CONTINUOUS
 62
    30
 10
624.34652774656251
 20
195.00432499999991
 30
0.0
 11
624.34652774656251
 21
74.995674000000008
 31
0.0
  0
LINE
  8
SIZE
  6
CONTINUOUS
 62
    30
 10
624.34652774656251
 20
62.995674000000008
 30
0.0
 11
624.34652774656251
 21
-219.0663119461814
 31
0.0
  0
CIRCLE
  8
SIZE
  6
CONTINUOUS
 62
    30
 10
624.34652774656251
 20
207.00432499999991
 30
0.0
 40
6.0
  0
LINE
  8
SIZE
  6
CONTINUOUS
 62
    30
 10
624.34652774656251
 20
207.00432499999991
 30
0.0
 11
624.34652774656251
 21
195.00432499999991
 31
0.0
  0
CIRCLE
  8
SIZE
  6
CONTINUOUS
 62
    30
 10
624.34652774656251
 20
62.995674000000008
 30
0.0
 40
6.0
  0
LINE
  8
SIZE
  6
CONTINUOUS
 62
    30
 10
624.34652774656251
 20
62.995674000000008
 30
0.0
 11
624.34652774656251
 21
74.995674000000008
 31
0.0
  0
TEXT
  8
SIZE
  6
CONTINUOUS
 62
    30
 10
588.679861079896
 20
-204.2148833747527
 30
0.0
 40
64.0
  1
φ144
 50
90.0
 41
0.9
 72
     1
 11
588.679861079896
 21
-93.952026231895616
 31
0.0
  0
POINT
  8
DEFPOINTS
  6
CONTINUOUS
 62
    30
 10
269.50466799999981
 20
62.995674000000122
 30
0.0
  0
POINT
  8
DEFPOINTS
  6
CONTINUOUS
 62
    30
 10
269.50466799999998
 20
207.00432499999999
 30
0.0
  0
POINT
  8
DEFPOINTS
  6
CONTINUOUS
 62
    30
 10
624.34652774656251
 20
207.00432499999991
 30
0.0
  0
LINE
  8
SIZE
  6
CONTINUOUS
 62
    30
 10
251.68845270614469
 20
58.992914000000042
 30
0.0
 11
765.32359581814899
 21
58.992913999999871
 31
0.0
  0
LINE
  8
SIZE
  6
CONTINUOUS
 62
    30
 10
254.18203500000001
 20
211.0070850000001
 30
0.0
 11
765.32359581814899
 21
211.00708499999999
 31
0.0
  0
LINE
  8
SIZE
  6
CONTINUOUS
 62
    30
 10
745.32359581814899
 20
199.00708499999999
 30
0.0
 11
745.32359581814899
 21
70.992913999999928
 31
0.0
  0
LINE
  8
SIZE
  6
CONTINUOUS
 62
    30
 10
745.32359581814899
 20
58.992913999999871
 30
0.0
 11
745.32359581814899
 21
-200.49280028571431
 31
0.0
  0
CIRCLE
  8
SIZE
  6
CONTINUOUS
 62
    30
 10
745.32359581814899
 20
211.00708499999999
 30
0.0
 40
6.0
  0
LINE
  8
SIZE
  6
CONTINUOUS
 62
    30
 10
745.32359581814899
 20
211.00708499999999
 30
0.0
 11
745.32359581814899
 21
199.00708499999999
 31
0.0
  0
CIRCLE
  8
SIZE
  6
CONTINUOUS
 62
    30
 10
745.32359581814899
 20
58.992913999999871
 30
0.0
 40
6.0
  0
LINE
  8
SIZE
  6
CONTINUOUS
 62
    30
 10
745.32359581814899
 20
58.992913999999871
 30
0.0
 11
745.32359581814899
 21
70.992913999999928
 31
0.0
  0
TEXT
  8
SIZE
  6
CONTINUOUS
 62
    30
 10
709.65692915148247
 20
-185.64137171428561
 30
0.0
 40
64.0
  1
φ152
 50
90.0
 41
0.9
 72
     1
 11
709.65692915148247
 21
-76.749943142857092
 31
0.0
  0
POINT
  8
DEFPOINTS
  6
CONTINUOUS
 62
    30
 10
231.68845270614469
 20
58.992914000000042
 30
0.0
  0
POINT
  8
DEFPOINTS
  6
CONTINUOUS
 62
    30
 10
234.18203500000001
 20
211.0070850000001
 30
0.0
  0
POINT
  8
DEFPOINTS
  6
CONTINUOUS
 62
    30
 10
745.32359581814899
 20
211.00708499999999
 30
0.0
  0
ARC
  8
OUTLINE
  6
CONTINUOUS
 62
     3
 10
-88.236520999999811
 20
207.50000200000019
 30
0.0
 40
0.5
 50
270.0
 51
357.00000000000739
  0
LINE
  8
OUTLINE
  6
CONTINUOUS
 62
     3
 10
-87.737206000000242
 20
207.4738340000001
 30
0.0
 11
-87.52483200000006
 21
211.52617000000009
 31
0.0
  0
LINE
  8
OUTLINE
  6
CONTINUOUS
 62
     3
 10
-146.6939940000002
 20
207.00000200000019
 30
0.0
 11
-88.236520999999811
 21
207.00000200000019
 31
0.0
  0
LINE
  8
OUTLINE
  6
CONTINUOUS
 62
     3
 10
122.8784909999999
 20
220.70172900000011
 30
0.0
 11
120.3009229999998
 21
212.00000200000019
 31
0.0
  0
LINE
  8
OUTLINE
  6
CONTINUOUS
 62
     3
 10
35.0
 20
212.00000200000019
 30
0.0
 11
120.3009229999998
 21
212.00000200000019
 31
0.0
  0
LINE
  8
OUTLINE
  6
CONTINUOUS
 62
     3
 10
122.95840699999989
 20
221.50000000000011
 30
0.0
 11
122.8971789999998
 21
220.80015800000001
 31
0.0
  0
LINE
  8
OUTLINE
  6
CONTINUOUS
 62
     3
 10
122.95840699999989
 20
221.50000000000011
 30
0.0
 11
115.1337039999999
 21
221.50000000000011
 31
0.0
  0
LINE
  8
OUTLINE
  6
CONTINUOUS
 62
     3
 10
-154.67145199999999
 20
0.0000000000002274
 30
0.0
 11
-195.0
 21
0.0000000000002274
 31
0.0
  0
LINE
  8
OUTLINE
  6
CONTINUOUS
 62
     3
 10
195.0
 20
0.0000000000002274
 30
0.0
 11
155.00045800000001
 21
0.0000000000002274
 31
0.0
  0
LINE
  8
OUTLINE
  6
CONTINUOUS
 62
     3
 10
-87.025517000000036
 20
212.00000200000019
 30
0.0
 11
-47.0
 21
212.00000200000019
 31
0.0
  0
LINE
  8
OUTLINE
  6
CONTINUOUS
 62
     3
 10
123.6359639999998
 20
228.50000000000011
 30
0.0
 11
116.1337039999999
 21
228.50000000000011
 31
0.0
  0
LINE
  8
OUTLINE
  6
CONTINUOUS
 62
     3
 10
144.13370399999991
 20
228.50000000000011
 30
0.0
 11
142.2615179999998
 21
228.50000000000011
 31
0.0
  0
LINE
  8
OUTLINE
  6
CONTINUOUS
 62
     3
 10
154.00045999999969
 20
57.289810000000223
 30
0.0
 11
155.00045699999961
 21
0.0000020000002223
 31
0.0
  0
LINE
  8
OUTLINE
  6
CONTINUOUS
 62
     3
 10
151.1335509999999
 20
221.5349040000001
 30
0.0
 11
151.23196999999979
 21
215.8964790000002
 31
0.0
  0
LINE
  8
OUTLINE
  6
CONTINUOUS
 62
     3
 10
199.0003049999998
 20
211.31171499999999
 30
0.0
 11
199.0003049999998
 21
213.5001070000001
 31
0.0
  0
ARC
  8
OUTLINE
  6
CONTINUOUS
 62
     3
 10
-150.2222240000001
 20
83.000002000000222
 30
0.0
 40
3.0
 50
100.5662180000066
 51
178.99999999999821
  0
ARC
  8
OUTLINE
  6
CONTINUOUS
 62
     3
 10
122.3990809999998
 20
220.84373600000001
 30
0.0
 40
0.5
 50
343.5000740000001
 51
355.00147699999678
  0
ARC
  8
OUTLINE
  6
CONTINUOUS
 62
     3
 10
130.657917
 20
238.50000200000019
 30
0.0
 40
0.5
 50
90.0
 51
145.86972300000841
  0
ARC
  8
OUTLINE
  6
CONTINUOUS
 62
     3
 10
141.7547949999998
 20
228.8808130000001
 30
0.0
 40
0.5
 50
1.000000000001775
 51
25.919752000000251
  0
ARC
  8
OUTLINE
  6
CONTINUOUS
 62
     3
 10
137.07986899999969
 20
238.50000200000019
 30
0.0
 40
0.5
 50
25.919752000000251
 51
90.0
  0
LINE
  8
OUTLINE
  6
CONTINUOUS
 62
     3
 10
130.657917
 20
239.00000200000019
 30
0.0
 11
137.07986899999969
 21
239.00000200000019
 31
0.0
  0
LINE
  8
OUTLINE
  6
CONTINUOUS
 62
     3
 10
137.52957199999989
 20
238.718558
 30
0.0
 11
142.2044979999998
 21
229.09936800000011
 31
0.0
  0
ARC
  8
OUTLINE
  6
CONTINUOUS
 62
     3
 10
-146.6939940000002
 20
205.00000200000019
 30
0.0
 40
2.0
 50
90.0
 51
178.99999999999821
  0
ARC
  8
OUTLINE
  6
CONTINUOUS
 62
     3
 10
-87.025517000000036
 20
211.50000200000019
 30
0.0
 40
0.5
 50
90.0
 51
177.0000000000075
  0
LINE
  8
OUTLINE
  6
CONTINUOUS
 62
     3
 10
130.24403499999971
 20
238.7805400000002
 30
0.0
 11
124.3434969999998
 21
230.07539500000021
 31
0.0
  0
LINE
  8
OUTLINE
  6
CONTINUOUS
 62
     3
 10
-153.221767
 20
83.052359000000251
 30
0.0
 11
-154.67145199999999
 21
0.0000020000002223
 31
0.0
  0
LINE
  8
OUTLINE
  6
CONTINUOUS
 62
     3
 10
-150.77234000000001
 20
85.949133000000074
 30
0.0
 11
-148.69369000000009
 21
205.0349070000002
 31
0.0
  0
ARC
  8
OUTLINE
  6
CONTINUOUS
 62
     3
 10
128.48231699999999
 20
227.27001300000009
 30
0.0
 40
5.0
 50
145.86972300000841
 51
165.75921500000709
  0
LINE
  8
OUTLINE
  6
CONTINUOUS
 62
     3
 10
142.2547189999998
 20
228.88953900000001
 30
0.0
 11
142.2615179999998
 21
228.50000000000011
 31
0.0
  0
LINE
  8
OUTLINE
  6
CONTINUOUS
 62
     3
 10
154.9916489999998
 20
58.307225000000237
 30
0.0
 11
234.1820349999997
 21
58.992914000000162
 31
0.0
  0
ARC
  8
OUTLINE
  6
CONTINUOUS
 62
     3
 10
234.20527299999981
 20
60.993191000000017
 30
0.0
 40
2.0
 50
270.49609699999382
 51
312.99545399999818
  0
LINE
  8
OUTLINE
  6
CONTINUOUS
 62
     3
 10
270.0003049999998
 20
206.5043440000002
 30
0.0
 11
270.0003049999998
 21
63.49565500000017
 31
0.0
  0
LINE
  8
OUTLINE
  6
CONTINUOUS
 62
     3
 10
235.5691539999998
 20
59.530375000000163
 30
0.0
 11
239.0003049999998
 21
62.729467000000113
 31
0.0
  0
ARC
  8
OUTLINE
  6
CONTINUOUS
 62
     3
 10
269.5003049999998
 20
63.49565500000017
 30
0.0
 40
0.5
 50
270.49999999999147
 51
0.0
  0
LINE
  8
OUTLINE
  6
CONTINUOUS
 62
     3
 10
239.0003049999998
 20
62.729467000000113
 30
0.0
 11
269.50466799999981
 21
62.995674000000122
 31
0.0
  0
ARC
  8
OUTLINE
  6
CONTINUOUS
 62
     3
 10
269.5003049999998
 20
206.5043440000002
 30
0.0
 40
0.5
 50
0.0
 51
89.500000000008455
  0
LINE
  8
OUTLINE
  6
CONTINUOUS
 62
     3
 10
239.0003049999998
 20
207.27053200000009
 30
0.0
 11
269.50466799999981
 21
207.00432500000011
 31
0.0
  0
ARC
  8
OUTLINE
  6
CONTINUOUS
 62
     3
 10
234.20527299999981
 20
209.0068090000002
 30
0.0
 40
2.0
 50
47.004546000001831
 51
89.503903000006204
  0
LINE
  8
OUTLINE
  6
CONTINUOUS
 62
     3
 10
235.5691539999998
 20
210.46962400000021
 30
0.0
 11
239.0003049999998
 21
207.27053200000009
 31
0.0
  0
LINE
  8
OUTLINE
  6
CONTINUOUS
 62
     3
 10
199.0003049999998
 20
211.31171499999999
 30
0.0
 11
234.1820349999997
 21
211.00708500000019
 31
0.0
  0
LINE
  8
OUTLINE
  6
CONTINUOUS
 62
     3
 10
199.0003049999998
 20
211.31171499999999
 30
0.0
 11
234.22258999999991
 21
211.00673400000011
 31
0.0
  0
ARC
  8
OUTLINE
  6
CONTINUOUS
 62
     3
 10
197.0003049999998
 20
213.5001070000001
 30
0.0
 40
2.0
 50
0.0
 51
89.503903000006204
  0
LINE
  8
OUTLINE
  6
CONTINUOUS
 62
     3
 10
151.23196999999979
 20
215.8964790000002
 30
0.0
 11
197.0176219999997
 21
215.50003200000009
 31
0.0
  0
ARC
  8
OUTLINE
  6
CONTINUOUS
 62
     3
 10
149.13385599999989
 20
221.50000000000011
 30
0.0
 40
2.0
 50
1.000000000001775
 51
90.0
  0
LINE
  8
OUTLINE
  6
CONTINUOUS
 62
     3
 10
149.13385599999989
 20
223.50000000000011
 30
0.0
 11
145.13370399999991
 21
223.50000000000011
 31
0.0
  0
LINE
  8
OUTLINE
  6
CONTINUOUS
 62
     3
 10
145.13370399999991
 20
227.50000000000011
 30
0.0
 11
145.13370399999991
 21
223.50000000000011
 31
0.0
  0
ARC
  8
OUTLINE
  6
CONTINUOUS
 62
     3
 10
144.13370399999991
 20
227.50000000000011
 30
0.0
 40
1.0
 50
0.0
 51
90.0
  0
ARC
  8
OUTLINE
  6
CONTINUOUS
 62
     3
 10
116.1337039999999
 20
227.50000000000011
 30
0.0
 40
1.0
 50
90.0
 51
180.0
  0
LINE
  8
OUTLINE
  6
CONTINUOUS
 62
     3
 10
115.1337039999999
 20
221.50000000000011
 30
0.0
 11
115.1337039999999
 21
227.50000000000011
 31
0.0
  0
ARC
  8
OUTLINE
  6
CONTINUOUS
 62
     3
 10
155.0003079999999
 20
57.307262000000037
 30
0.0
 40
1.0
 50
90.49609699999381
 51
181.00000000000179
  0
ARC
  8
OUTLINE
  6
CONTINUOUS
 62
     3
 10
-41.5
 20
234.4500300000002
 30
0.0
 40
5.5
 50
90.0
 51
180.0
  0
LINE
  8
OUTLINE
  6
CONTINUOUS
 62
     3
 10
29.5
 20
239.9500300000002
 30
0.0
 11
-41.5
 21
239.9500300000002
 31
0.0
  0
LINE
  8
OUTLINE
  6
CONTINUOUS
 62
     3
 10
-47.0
 20
234.4500300000002
 30
0.0
 11
-47.0
 21
212.00000200000019
 31
0.0
  0
ARC
  8
OUTLINE
  6
CONTINUOUS
 62
     3
 10
29.5
 20
234.4500300000002
 30
0.0
 40
5.5
 50
0.0
 51
90.0
  0
LINE
  8
OUTLINE
  6
CONTINUOUS
 62
     3
 10
35.0
 20
234.4500300000002
 30
0.0
 11
35.0
 21
212.00000200000019
 31
0.0
  0
LINE
  8
DETAIL
  6
CONTINUOUS
 62
     5
 10
133.65115900000001
 20
220.51745199999999
 30
0.0
 11
137.500305
 21
0.000001999999995
 31
0.0
  0
LINE
  8
DETAIL
  6
CONTINUOUS
 62
     5
 10
-146.6939940000002
 20
207.00000200000011
 30
0.0
 11
118.819855
 21
207.00000200000011
 31
0.0
  0
ARC
  8
DETAIL
  6
CONTINUOUS
 62
     5
 10
-150.2222240000001
 20
83.000001999999995
 30
0.0
 40
3.0
 50
100.5662180000066
 51
178.99999999999821
  0
LINE
  8
DETAIL
  6
CONTINUOUS
 62
     5
 10
151.5442509999998
 20
198.00595200000009
 30
0.0
 11
199.000305
 21
198.00595200000009
 31
0.0
  0
LINE
  8
DETAIL
  6
CONTINUOUS
 62
     5
 10
195.0
 20
0.0
 30
0.0
 11
-195.0
 21
0.0
 31
0.0
  0
ARC
  8
DETAIL
  6
CONTINUOUS
 62
     5
 10
122.399081
 20
220.84373600000001
 30
0.0
 40
0.5
 50
343.5000740000001
 51
355.00147699999678
  0
ARC
  8
DETAIL
  6
CONTINUOUS
 62
     5
 10
130.657917
 20
238.50000200000011
 30
0.0
 40
0.5
 50
90.0
 51
145.86972300000841
  0
ARC
  8
DETAIL
  6
CONTINUOUS
 62
     5
 10
141.7547949999998
 20
228.88081299999999
 30
0.0
 40
0.5
 50
1.000000000001775
 51
25.919752000000251
  0
ARC
  8
DETAIL
  6
CONTINUOUS
 62
     5
 10
137.07986899999989
 20
238.50000200000011
 30
0.0
 40
0.5
 50
25.919752000000251
 51
90.0
  0
LINE
  8
DETAIL
  6
CONTINUOUS
 62
     5
 10
122.8784909999999
 20
220.701729
 30
0.0
 11
118.819855
 21
207.00000200000011
 31
0.0
  0
LINE
  8
DETAIL
  6
CONTINUOUS
 62
     5
 10
130.657917
 20
239.00000200000011
 30
0.0
 11
137.07986899999989
 21
239.00000200000011
 31
0.0
  0
LINE
  8
DETAIL
  6
CONTINUOUS
 62
     5
 10
-87.747139000000061
 20
207.284301
 30
0.0
 11
-87.52483200000006
 21
211.52617000000001
 31
0.0
  0
LINE
  8
DETAIL
  6
CONTINUOUS
 62
     5
 10
-87.025517000000036
 20
212.00000200000011
 30
0.0
 11
120.3009229999998
 21
212.00000200000011
 31
0.0
  0
LINE
  8
DETAIL
  6
CONTINUOUS
 62
     5
 10
137.52957199999989
 20
238.718558
 30
0.0
 11
142.20449800000009
 21
229.099368
 31
0.0
  0
ARC
  8
DETAIL
  6
CONTINUOUS
 62
     5
 10
-146.6939940000002
 20
205.00000200000011
 30
0.0
 40
2.0
 50
90.0
 51
178.99999999999821
  0
ARC
  8
DETAIL
  6
CONTINUOUS
 62
     5
 10
-88.236520999999811
 20
207.50000200000011
 30
0.0
 40
0.5
 50
276.21419799999722
 51
357.00000000000739
  0
ARC
  8
DETAIL
  6
CONTINUOUS
 62
     5
 10
-87.025517000000036
 20
211.50000200000011
 30
0.0
 40
0.5
 50
90.0
 51
177.0000000000075
  0
ARC
  8
DETAIL
  6
CONTINUOUS
 62
     5
 10
-88.046727999999803
 20
207.30000200000009
 30
0.0
 40
0.3
 50
270.0
 51
357.00000000000739
  0
LINE
  8
DETAIL
  6
CONTINUOUS
 62
     5
 10
130.24403499999991
 20
238.78054000000009
 30
0.0
 11
124.3434969999998
 21
230.0753950000001
 31
0.0
  0
LINE
  8
DETAIL
  6
CONTINUOUS
 62
     5
 10
-153.221767
 20
83.052359000000024
 30
0.0
 11
-154.67145199999999
 21
0.000001999999995
 31
0.0
  0
LINE
  8
DETAIL
  6
CONTINUOUS
 62
     5
 10
-150.77234000000001
 20
85.949133000000074
 30
0.0
 11
-148.69369000000009
 21
205.03490700000009
 31
0.0
  0
LINE
  8
DETAIL
  6
CONTINUOUS
 62
     5
 10
122.95840700000009
 20
221.5
 30
0.0
 11
122.89717900000009
 21
220.80015800000001
 31
0.0
  0
ARC
  8
DETAIL
  6
CONTINUOUS
 62
     5
 10
128.48231699999999
 20
227.27001299999981
 30
0.0
 40
5.0
 50
145.86972300000841
 51
165.75921500000709
  0
LINE
  8
DETAIL
  6
CONTINUOUS
 62
     5
 10
142.25471899999999
 20
228.88953900000001
 30
0.0
 11
142.2615179999998
 21
228.5
 31
0.0
  0
ARC
  8
DETAIL
  6
CONTINUOUS
 62
     5
 10
132.65131100000011
 20
220.5
 30
0.0
 40
1.0
 50
1.000000000001775
 51
90.0
  0
LINE
  8
DETAIL
  6
CONTINUOUS
 62
     5
 10
235.000305
 20
210.82424399999999
 30
0.0
 11
235.000305
 21
59.158000000000023
 31
0.0
  0
LINE
  8
DETAIL
  6
CONTINUOUS
 62
     5
 10
154.99164900000019
 20
58.307225000000017
 30
0.0
 11
234.1820349999997
 21
58.992914000000042
 31
0.0
  0
ARC
  8
DETAIL
  6
CONTINUOUS
 62
     5
 10
234.20527300000001
 20
60.993191000000017
 30
0.0
 40
2.0
 50
270.49609699999382
 51
312.99545399999818
  0
LINE
  8
DETAIL
  6
CONTINUOUS
 62
     5
 10
270.00030500000003
 20
206.50434400000009
 30
0.0
 11
270.00030500000003
 21
63.495655000000063
 31
0.0
  0
LINE
  8
DETAIL
  6
CONTINUOUS
 62
     5
 10
235.569154
 20
59.530375000000049
 30
0.0
 11
239.000305
 21
62.729467
 31
0.0
  0
LINE
  8
DETAIL
  6
CONTINUOUS
 62
     5
 10
239.000305
 20
207.270532
 30
0.0
 11
239.000305
 21
62.729467
 31
0.0
  0
ARC
  8
DETAIL
  6
CONTINUOUS
 62
     5
 10
269.50030500000003
 20
63.495655000000063
 30
0.0
 40
0.5
 50
270.49999999999147
 51
0.0
  0
LINE
  8
DETAIL
  6
CONTINUOUS
 62
     5
 10
239.000305
 20
62.729467
 30
0.0
 11
269.50466799999998
 21
62.995674000000008
 31
0.0
  0
ARC
  8
DETAIL
  6
CONTINUOUS
 62
     5
 10
269.50030500000003
 20
206.50434400000009
 30
0.0
 40
0.5
 50
0.0
 51
89.500000000008455
  0
LINE
  8
DETAIL
  6
CONTINUOUS
 62
     5
 10
239.000305
 20
207.270532
 30
0.0
 11
269.50466799999998
 21
207.00432499999999
 31
0.0
  0
ARC
  8
DETAIL
  6
CONTINUOUS
 62
     5
 10
234.20527300000001
 20
209.00680900000009
 30
0.0
 40
2.0
 50
47.004546000001831
 51
89.503903000006204
  0
LINE
  8
DETAIL
  6
CONTINUOUS
 62
     5
 10
235.569154
 20
210.4696240000001
 30
0.0
 11
239.000305
 21
207.270532
 31
0.0
  0
LINE
  8
DETAIL
  6
CONTINUOUS
 62
     5
 10
199.000305
 20
211.31171499999991
 30
0.0
 11
234.1820349999997
 21
211.0070850000001
 31
0.0
  0
LINE
  8
DETAIL
  6
CONTINUOUS
 62
     5
 10
199.000305
 20
211.31171499999991
 30
0.0
 11
234.22258999999991
 21
211.00673399999991
 31
0.0
  0
ARC
  8
DETAIL
  6
CONTINUOUS
 62
     5
 10
197.000305
 20
213.5001070000001
 30
0.0
 40
2.0
 50
0.0
 51
89.503903000006204
  0
LINE
  8
DETAIL
  6
CONTINUOUS
 62
     5
 10
151.23196999999979
 20
215.89647900000011
 30
0.0
 11
197.0176219999997
 21
215.50003199999989
 31
0.0
  0
LINE
  8
DETAIL
  6
CONTINUOUS
 62
     5
 10
199.000305
 20
198.00595200000009
 30
0.0
 11
199.000305
 21
213.5001070000001
 31
0.0
  0
LINE
  8
DETAIL
  6
CONTINUOUS
 62
     5
 10
151.1335509999999
 20
221.53490400000001
 30
0.0
 11
155.0004569999999
 21
0.000001999999995
 31
0.0
  0
ARC
  8
DETAIL
  6
CONTINUOUS
 62
     5
 10
149.13385599999989
 20
221.5
 30
0.0
 40
2.0
 50
1.000000000001775
 51
90.0
  0
LINE
  8
DETAIL
  6
CONTINUOUS
 62
     5
 10
149.13385599999989
 20
223.5
 30
0.0
 11
145.13370399999991
 21
223.5
 31
0.0
  0
LINE
  8
DETAIL
  6
CONTINUOUS
 62
     5
 10
145.13370399999991
 20
227.5
 30
0.0
 11
145.13370399999991
 21
223.5
 31
0.0
  0
ARC
  8
DETAIL
  6
CONTINUOUS
 62
     5
 10
144.13370399999991
 20
227.5
 30
0.0
 40
1.0
 50
0.0
 51
90.0
  0
LINE
  8
DETAIL
  6
CONTINUOUS
 62
     5
 10
144.13370399999991
 20
228.5
 30
0.0
 11
116.1337039999999
 21
228.5
 31
0.0
  0
ARC
  8
DETAIL
  6
CONTINUOUS
 62
     5
 10
116.1337039999999
 20
227.5
 30
0.0
 40
1.0
 50
90.0
 51
180.0
  0
LINE
  8
DETAIL
  6
CONTINUOUS
 62
     5
 10
115.1337039999999
 20
221.5
 30
0.0
 11
115.1337039999999
 21
227.5
 31
0.0
  0
LINE
  8
DETAIL
  6
CONTINUOUS
 62
     5
 10
132.65131100000011
 20
221.5
 30
0.0
 11
115.1337039999999
 21
221.5
 31
0.0
  0
ARC
  8
DETAIL
  6
CONTINUOUS
 62
     5
 10
155.0003080000001
 20
57.307262000000037
 30
0.0
 40
1.0
 50
90.49609699999381
 51
181.00000000000179
  0
ARC
  8
DETAIL
  6
CONTINUOUS
 62
     5
 10
-41.5
 20
234.45003000000011
 30
0.0
 40
5.5
 50
90.0
 51
180.0
  0
LINE
  8
DETAIL
  6
CONTINUOUS
 62
     5
 10
29.5
 20
239.95003000000011
 30
0.0
 11
-41.5
 21
239.95003000000011
 31
0.0
  0
LINE
  8
DETAIL
  6
CONTINUOUS
 62
     5
 10
-47.0
 20
234.45003000000011
 30
0.0
 11
-47.0
 21
212.00000200000011
 31
0.0
  0
ARC
  8
DETAIL
  6
CONTINUOUS
 62
     5
 10
29.5
 20
234.45003000000011
 30
0.0
 40
5.5
 50
0.0
 51
90.0
  0
LINE
  8
DETAIL
  6
CONTINUOUS
 62
     5
 10
35.0
 20
234.45003000000011
 30
0.0
 11
35.0
 21
212.00000200000011
 31
0.0
  0
LINE
  8
DETAIL
  6
CONTINUOUS
 62
     5
 10
195.0
 20
0.0
 30
0.0
 11
194.3711066486031
 21
-12.0
 31
0.0
  0
LINE
  8
DETAIL
  6
CONTINUOUS
 62
     5
 10
187.0852447718307
 20
-20.0
 30
0.0
 11
0.0
 21
-20.0
 31
0.0
  0
LINE
  8
DETAIL
  6
CONTINUOUS
 62
     5
 10
194.3711066486031
 20
-12.0
 30
0.0
 11
0.0
 21
-12.0
 31
0.0
  0
LINE
  8
DETAIL
  6
CONTINUOUS
 62
     5
 10
194.3711066486031
 20
-12.0
 30
0.0
 11
187.0852447718307
 21
-20.0
 31
0.0
  0
LINE
  8
DETAIL
  6
CONTINUOUS
 62
     5
 10
-195.0
 20
0.0
 30
0.0
 11
-194.3711066486035
 21
-12.0
 31
0.0
  0
LINE
  8
DETAIL
  6
CONTINUOUS
 62
     5
 10
-187.0852447718307
 20
-20.0
 30
0.0
 11
0.0
 21
-20.0
 31
0.0
  0
LINE
  8
DETAIL
  6
CONTINUOUS
 62
     5
 10
-194.3711066486035
 20
-12.0
 30
0.0
 11
0.0
 21
-12.0
 31
0.0
  0
LINE
  8
DETAIL
  6
CONTINUOUS
 62
     5
 10
-194.3711066486035
 20
-12.0
 30
0.0
 11
-187.0852447718307
 21
-20.0
 31
0.0
  0
LINE
  8
OUTLINE
  6
CONTINUOUS
 62
     3
 10
195.0
 20
0.0000000000002274
 30
0.0
 11
194.3711066486031
 21
-12.0
 31
0.0
  0
LINE
  8
OUTLINE
  6
CONTINUOUS
 62
     3
 10
187.0852447718307
 20
-19.999999999999769
 30
0.0
 11
0.0
 21
-20.0
 31
0.0
  0
LINE
  8
OUTLINE
  6
CONTINUOUS
 62
     3
 10
194.3711066486031
 20
-12.0
 30
0.0
 11
187.0852447718307
 21
-19.999999999999769
 31
0.0
  0
LINE
  8
OUTLINE
  6
CONTINUOUS
 62
     3
 10
-195.0
 20
0.0000000000002274
 30
0.0
 11
-194.3711066486035
 21
-12.0
 31
0.0
  0
LINE
  8
OUTLINE
  6
CONTINUOUS
 62
     3
 10
-187.0852447718307
 20
-19.999999999999769
 30
0.0
 11
0.0
 21
-20.0
 31
0.0
  0
LINE
  8
OUTLINE
  6
CONTINUOUS
 62
     3
 10
-194.3711066486035
 20
-12.0
 30
0.0
 11
-187.0852447718307
 21
-19.999999999999769
 31
0.0
  0
TEXT
  8
ETC
  6
CONTINUOUS
 62
    61
 10
538.16793419807209
 20
721.71912596034372
 30
0.0
 40
64.0
  1
VD-20ZAVC6_5
 41
0.9
  0
TEXT
  8
ETC
  6
CONTINUOUS
 62
    61
 10
533.9819401980717
 20
603.76381594551276
 30
0.0
 40
64.0
  1
換気扇
 41
0.9
  0
TEXT
  8
ETC
  6
CONTINUOUS
 62
    61
 10
584.68333844662766
 20
495.61504305928719
 30
0.0
 40
40.0
  1
VD-20ZAVC6
 41
0.9
  0
TEXT
  8
ETC
  6
CONTINUOUS
 62
    61
 10
584.68333844662766
 20
429.61504305928719
 30
0.0
 40
40.0
  1
VD-20ZAC13
 41
0.9
  0
TEXT
  8
ETC
  6
CONTINUOUS
 62
    61
 10
584.68333844662766
 20
363.61504305928742
 30
0.0
 40
40.0
  1
VD-20ZALC13
 41
0.9
  0
TEXT
  8
NOTE
  6
CONTINUOUS
 62
     4
 10
-630.24608890522904
 20
299.08435005247998
 30
0.0
 40
63.999999999999993
  1
8-φ5
 41
0.9
  0
LINE
  8
NOTE
  6
CONTINUOUS
 62
     4
 10
-401.19634198458652
 20
264.8116364789787
 30
0.0
 11
-647.66692112129203
 21
264.81167295795728
 31
0.0
  0
ENDSEC
  0
EOF
