  0
SECTION
  2
HEADER
  9
$ACADVER
  1
AC1009
  9
$DWGCODEPAGE
  3
dos932
  9
$INSBASE
 10
0.0
 20
0.0
 30
0.0
  9
$EXTMIN
 10
-1044.140608927866
 20
-980.529774074128
 30
-0.0000002793804338
  9
$EXTMAX
 10
1253.965771109755
 20
1069.2901697117941
 30
0.0000000116489898
  9
$LIMMIN
 10
-2970.0
 20
-2100.0
  9
$LIMMAX
 10
2970.0
 20
2100.0
  9
$ORTHOMODE
 70
     1
  9
$REGENMODE
 70
     1
  9
$FILLMODE
 70
     1
  9
$QTEXTMODE
 70
     0
  9
$MIRRTEXT
 70
     0
  9
$LTSCALE
 40
20.0
  9
$ATTMODE
 70
     1
  9
$TEXTSIZE
 40
64.0
  9
$TRACEWID
 40
0.05
  9
$TEXTSTYLE
  7
STANDARD
  9
$CLAYER
  8
OUTLINE
  9
$CELTYPE
  6
CONTINUOUS
  9
$CECOLOR
 62
     7
  9
$DIMSCALE
 40
1.0
  9
$DIMASZ
 40
12.0
  9
$DIMEXO
 40
20.0
  9
$DIMDLI
 40
200.0
  9
$DIMRND
 40
0.0
  9
$DIMDLE
 40
0.0
  9
$DIMEXE
 40
20.0
  9
$DIMTP
 40
0.0
  9
$DIMTM
 40
0.0
  9
$DIMTXT
 40
64.0
  9
$DIMCEN
 40
0.09
  9
$DIMTSZ
 40
0.0
  9
$DIMTOL
 70
     0
  9
$DIMLIM
 70
     0
  9
$DIMTIH
 70
     0
  9
$DIMTOH
 70
     0
  9
$DIMSE1
 70
     0
  9
$DIMSE2
 70
     0
  9
$DIMTAD
 70
     1
  9
$DIMZIN
 70
     8
  9
$DIMBLK
  1

  9
$DIMASO
 70
     1
  9
$DIMSHO
 70
     0
  9
$DIMPOST
  1

  9
$DIMAPOST
  1

  9
$DIMALT
 70
     0
  9
$DIMALTD
 70
     2
  9
$DIMALTF
 40
25.399999999999999
  9
$DIMLFAC
 40
1.0
  9
$DIMTOFL
 70
     1
  9
$DIMTVP
 40
0.0
  9
$DIMTIX
 70
     1
  9
$DIMSOXD
 70
     0
  9
$DIMSAH
 70
     0
  9
$DIMBLK1
  1

  9
$DIMBLK2
  1

  9
$DIMSTYLE
  2
STANDARD
  9
$DIMCLRD
 70
     7
  9
$DIMCLRE
 70
     7
  9
$DIMCLRT
 70
     7
  9
$DIMTFAC
 40
1.0
  9
$DIMGAP
 40
25.0
  9
$LUNITS
 70
     2
  9
$LUPREC
 70
     4
  9
$SKETCHINC
 40
0.1
  9
$FILLETRAD
 40
3.0
  9
$AUNITS
 70
     1
  9
$AUPREC
 70
     3
  9
$MENU
  1
ACAD
  9
$ELEVATION
 40
0.0
  9
$PELEVATION
 40
0.0
  9
$THICKNESS
 40
50.0
  9
$LIMCHECK
 70
     0
  9
$CHAMFERA
 40
0.0
  9
$CHAMFERB
 40
0.0
  9
$SKPOLY
 70
     0
  9
$TDCREATE
 40
2453019.62301037
  9
$TDUPDATE
 40
2458899.510882014
  9
$TDINDWG
 40
2.0000123611
  9
$TDUSRTIMER
 40
2.0000123611
  9
$USRTIMER
 70
     1
  9
$ANGBASE
 50
0.0
  9
$ANGDIR
 70
     0
  9
$PDMODE
 70
     3
  9
$PDSIZE
 40
-2.0
  9
$PLINEWID
 40
0.0
  9
$SPLFRAME
 70
     0
  9
$SPLINETYPE
 70
     6
  9
$SPLINESEGS
 70
     8
  9
$SURFTAB1
 70
     6
  9
$SURFTAB2
 70
     6
  9
$SURFTYPE
 70
     6
  9
$SURFU
 70
     6
  9
$SURFV
 70
     6
  9
$UCSNAME
  2

  9
$UCSORG
 10
0.0
 20
0.0
 30
0.0
  9
$UCSXDIR
 10
1.0
 20
0.0
 30
0.0
  9
$UCSYDIR
 10
0.0
 20
1.0
 30
0.0
  9
$PUCSNAME
  2

  9
$PUCSORG
 10
0.0
 20
0.0
 30
0.0
  9
$PUCSXDIR
 10
1.0
 20
0.0
 30
0.0
  9
$PUCSYDIR
 10
0.0
 20
1.0
 30
0.0
  9
$USERI1
 70
     0
  9
$USERI2
 70
     0
  9
$USERI3
 70
     0
  9
$USERI4
 70
     0
  9
$USERI5
 70
     0
  9
$USERR1
 40
20.0
  9
$USERR2
 40
0.0
  9
$USERR3
 40
0.0
  9
$USERR4
 40
0.0
  9
$USERR5
 40
0.0
  9
$WORLDVIEW
 70
     1
  9
$SHADEDGE
 70
     3
  9
$SHADEDIF
 70
    70
  9
$TILEMODE
 70
     1
  9
$MAXACTVP
 70
    48
  9
$PINSBASE
 10
0.0
 20
0.0
 30
0.0
  9
$PLIMCHECK
 70
     0
  9
$PEXTMIN
 10
-100000000000000000000.0
 20
-100000000000000000000.0
 30
-100000000000000000000.0
  9
$PEXTMAX
 10
100000000000000000000.0
 20
100000000000000000000.0
 30
100000000000000000000.0
  9
$PLIMMIN
 10
0.0
 20
0.0
  9
$PLIMMAX
 10
12.0
 20
9.0
  9
$UNITMODE
 70
     0
  9
$VISRETAIN
 70
     0
  9
$PLINEGEN
 70
     0
  9
$PSLTSCALE
 70
     0
  9
$TREEDEPTH
 70
  3020
  9
$ATTDIA
 70
     0
  9
$ATTREQ
 70
     1
  9
$BLIPMODE
 70
     1
  9
$COORDS
 70
     1
  9
$DRAGMODE
 70
     2
  9
$OSMODE
 70
     0
  9
$HANDLING
 70
     0
  9
$HANDSEED
  5
4D18A
  0
ENDSEC
  0
SECTION
  2
TABLES
  0
TABLE
  2
LTYPE
 70
     2
  0
LTYPE
  2
CONTINUOUS
 70
     0
  3
実線
 72
    65
 73
     0
 40
0.0
  0
LTYPE
  2
DASHDOT
 70
     0
  3
____ _ ____ _ ____ _ ____ _ ____ _ ____ _ ____
 72
    65
 73
     4
 40
5.5
 49
4.0
 49
-0.6
 49
0.3
 49
-0.6
  0
ENDTAB
  0
TABLE
  2
LAYER
 70
    12
  0
LAYER
  2
0
 70
     0
 62
     7
  6
CONTINUOUS
  0
LAYER
  2
BASIS
 70
     0
 62
     6
  6
DASHDOT
  0
LAYER
  2
OUTLINE
 70
     0
 62
     3
  6
CONTINUOUS
  0
LAYER
  2
DETAIL
 70
     0
 62
     5
  6
CONTINUOUS
  0
LAYER
  2
SIZE
 70
     0
 62
    30
  6
CONTINUOUS
  0
LAYER
  2
ARRANGE
 70
     0
 62
     1
  6
CONTINUOUS
  0
LAYER
  2
ETC
 70
     0
 62
    61
  6
CONTINUOUS
  0
LAYER
  2
FIX
 70
     0
 62
    11
  6
CONTINUOUS
  0
LAYER
  2
NOTE
 70
     0
 62
     4
  6
CONTINUOUS
  0
LAYER
  2
SERVICESPACE
 70
     0
 62
     2
  6
DASHDOT
  0
LAYER
  2
DEFPOINTS
 70
    64
 62
     7
  6
CONTINUOUS
  0
LAYER
  2
SYMBOLLINE
 70
    64
 62
    15
  6
CONTINUOUS
  0
ENDTAB
  0
TABLE
  2
STYLE
 70
     1
  0
STYLE
  2
STANDARD
 70
     0
 40
64.0
 41
0.9
 50
0.0
 71
     0
 42
64.0
  3
SIMPLEX.shx
  4
BIGFONT.shx
  0
ENDTAB
  0
TABLE
  2
APPID
 70
    17
  0
APPID
  2
ACAD
 70
     0
  0
APPID
  2
AUTOCAD_POSTSCRIPT_FIGURE
 70
     0
  0
APPID
  2
ACAD_EXEMPT_FROM_CAD_STANDARDS
 70
     0
  0
APPID
  2
ACAD_PSEXT
 70
     0
  0
APPID
  2
ACAUTHENVIRON
 70
     0
  0
APPID
  2
GENIUS_GENOENT_13
 70
     0
  0
APPID
  2
GENIUS_GENCFG_13
 70
     0
  0
APPID
  2
GENIUS_GENCFG0_13
 70
     0
  0
APPID
  2
GENIUS_GENCFG1_13
 70
     0
  0
APPID
  2
GENIUS_GENCFG2_13
 70
     0
  0
APPID
  2
GENIUS_GENCFG3_13
 70
     0
  0
APPID
  2
GENIUS_GENCFG4_13
 70
     0
  0
APPID
  2
GENIUS_GEVCFG0_13
 70
     0
  0
APPID
  2
CONTENTBLOCKICON
 70
     0
  0
APPID
  2
CONTENTBLOCKDESCRIPTION
 70
     0
  0
APPID
  2
ACAD_NAV_VCDISPLAY
 70
     0
  0
APPID
  2
ACAD_MLEADERVER
 70
     0
  0
ENDTAB
  0
TABLE
  2
DIMSTYLE
 70
     1
  0
DIMSTYLE
  2
STANDARD
 70
     0
  3

  4

  5
_ORIGIN
  6

  7

 40
1.0
 41
12.0
 42
20.0
 43
200.0
 44
20.0
 45
0.0
 46
0.0
 47
0.0
 48
0.0
140
64.0
141
0.09
142
0.0
143
25.399999999999999
144
1.0
145
0.0
146
1.0
147
25.0
 71
     0
 72
     0
 73
     0
 74
     0
 75
     0
 76
     0
 77
     1
 78
     8
170
     0
171
     2
172
     1
173
     0
174
     1
175
     0
176
     7
177
     7
178
     7
  0
ENDTAB
  0
TABLE
  2
VIEW
 70
     1
  0
VIEW
  2
ALL
 70
     0
 40
4282.6198079999986
 10
0.0
 20
41.309904000000003
 41
5940.0
 11
0.0
 21
0.0
 31
1.0
 12
0.0
 22
0.0
 32
0.0
 42
50.0
 43
0.0
 44
0.0
 50
0.0
 71
     0
  0
ENDTAB
  0
TABLE
  2
UCS
 70
     0
  0
ENDTAB
  0
TABLE
  2
VPORT
 70
     1
  0
VPORT
  2
*ACTIVE
 70
     0
 10
0.0
 20
0.0
 11
1.0
 21
1.0
 12
104.9125810909444
 22
44.380197818833153
 13
0.0
 23
0.0
 14
1.0
 24
1.0
 15
0.0
 25
0.0
 16
0.0
 26
0.0
 36
1.0
 17
0.0
 27
0.0
 37
0.0
 40
2062.525439305256
 41
1.6339193381592549
 42
50.0
 43
0.0
 44
0.0
 50
0.0
 51
0.0
 71
     0
 72
  1000
 73
     1
 74
     3
 75
     0
 76
     0
 77
     0
 78
     0
  0
ENDTAB
  0
ENDSEC
  0
SECTION
  2
BLOCKS
  0
BLOCK
  8
0
  2
_ORIGIN
 70
     0
 10
0.0
 20
0.0
 30
0.0
  3
_ORIGIN
  1
_ORIGIN
  0
CIRCLE
  8
0
  6
CONTINUOUS
 62
     7
 10
0.0
 20
0.0
 30
0.0
 40
0.5
  0
LINE
  8
0
  6
CONTINUOUS
 62
     7
 10
0.0
 20
0.0
 30
0.0
 11
-1.0
 21
0.0
 31
0.0
  0
ENDBLK
  8
0
  0
ENDSEC
  0
SECTION
  2
ENTITIES
  0
CIRCLE
  8
DETAIL
  6
CONTINUOUS
 62
     5
 10
134.0
 20
-130.0
 30
0.0
 40
9.5
  0
LINE
  8
BASIS
  6
DASHDOT
 62
     6
 10
-220.05617200000009
 20
0.0
 30
0.0
 11
237.12189200000009
 21
0.0
 31
0.0
  0
LINE
  8
DETAIL
  6
CONTINUOUS
 62
     5
 10
-172.5
 20
-146.50352899999979
 30
0.0
 11
-169.50352899999979
 21
-149.5
 31
0.0
  0
LINE
  8
DETAIL
  6
CONTINUOUS
 62
     5
 10
-172.5
 20
146.49628699999991
 30
0.0
 11
-169.49628700000011
 21
149.5
 31
0.0
  0
LINE
  8
DETAIL
  6
CONTINUOUS
 62
     5
 10
-172.5
 20
-146.50352899999979
 30
0.0
 11
-172.5
 21
-130.0
 31
0.0
  0
LINE
  8
DETAIL
  6
CONTINUOUS
 62
     5
 10
-169.49628700000011
 20
149.5
 30
0.0
 11
-153.5
 21
149.5
 31
0.0
  0
ARC
  8
DETAIL
  6
CONTINUOUS
 62
     5
 10
-167.5
 20
100.0
 30
0.0
 40
2.5
 50
90.0
 51
270.0
  0
LINE
  8
DETAIL
  6
CONTINUOUS
 62
     5
 10
-167.5
 20
102.5
 30
0.0
 11
-163.4999999999998
 21
102.5
 31
0.0
  0
ARC
  8
DETAIL
  6
CONTINUOUS
 62
     5
 10
-163.4999999999998
 20
100.0
 30
0.0
 40
2.5
 50
270.0
 51
281.70712399999519
  0
LINE
  8
DETAIL
  6
CONTINUOUS
 62
     5
 10
-167.5
 20
97.5
 30
0.0
 11
-163.4999999999998
 21
97.5
 31
0.0
  0
LINE
  8
DETAIL
  6
CONTINUOUS
 62
     5
 10
-169.50352899999979
 20
-149.5
 30
0.0
 11
-153.5
 21
-149.5
 31
0.0
  0
LINE
  8
DETAIL
  6
CONTINUOUS
 62
     5
 10
146.50352899999979
 20
172.5
 30
0.0
 11
-146.50352899999979
 21
172.5
 31
0.0
  0
LINE
  8
DETAIL
  6
CONTINUOUS
 62
     5
 10
-149.5
 20
169.50352899999979
 30
0.0
 11
-146.50352899999979
 21
172.5
 31
0.0
  0
LINE
  8
DETAIL
  6
CONTINUOUS
 62
     5
 10
-149.5
 20
169.50352899999979
 30
0.0
 11
-149.5
 21
153.5
 31
0.0
  0
LINE
  8
DETAIL
  6
CONTINUOUS
 62
     5
 10
-131.0
 20
-167.5
 30
0.0
 11
-131.0
 21
-163.4999999999998
 31
0.0
  0
ARC
  8
DETAIL
  6
CONTINUOUS
 62
     5
 10
-133.4999999999998
 20
-163.4999999999998
 30
0.0
 40
2.5
 50
0.0
 51
180.0
  0
LINE
  8
DETAIL
  6
CONTINUOUS
 62
     5
 10
-136.0
 20
-167.5
 30
0.0
 11
-136.0
 21
-163.4999999999998
 31
0.0
  0
ARC
  8
DETAIL
  6
CONTINUOUS
 62
     5
 10
-133.4999999999998
 20
-167.5
 30
0.0
 40
2.5
 50
180.0
 51
0.0
  0
LINE
  8
DETAIL
  6
CONTINUOUS
 62
     5
 10
-85.500182999999993
 20
-377.5
 30
0.0
 11
-12.5
 21
-377.5
 31
0.0
  0
LINE
  8
DETAIL
  6
CONTINUOUS
 62
     5
 10
-158.4999999999998
 20
-377.5
 30
0.0
 11
-85.500182999999993
 21
-377.5
 31
0.0
  0
LINE
  8
DETAIL
  6
CONTINUOUS
 62
     5
 10
42.5
 20
-197.99999700000001
 30
0.0
 11
42.5
 21
-297.5
 31
0.0
  0
LINE
  8
DETAIL
  6
CONTINUOUS
 62
     5
 10
-6.0001830000001064
 20
-248.4999999999998
 30
0.0
 11
-6.0001830000001064
 21
-309.5
 31
0.0
  0
LINE
  8
DETAIL
  6
CONTINUOUS
 62
     5
 10
-6.0001830000001064
 20
-297.5
 30
0.0
 11
42.5
 21
-297.5
 31
0.0
  0
LINE
  8
DETAIL
  6
CONTINUOUS
 62
     5
 10
-6.0001830000001064
 20
-308.0
 30
0.0
 11
-6.0001830000001064
 21
-185.99999700000001
 31
0.0
  0
LINE
  8
DETAIL
  6
CONTINUOUS
 62
     5
 10
-6.0001830000001064
 20
-309.5
 30
0.0
 11
-24.06879200000003
 21
-309.5
 31
0.0
  0
LINE
  8
DETAIL
  6
CONTINUOUS
 62
     5
 10
-24.06879200000003
 20
-185.99999700000001
 30
0.0
 11
-24.06879200000003
 21
-309.5
 31
0.0
  0
LINE
  8
DETAIL
  6
CONTINUOUS
 62
     5
 10
42.5
 20
-197.99999700000001
 30
0.0
 11
-6.0001830000001064
 21
-197.99999700000001
 31
0.0
  0
LINE
  8
BASIS
  6
DASHDOT
 62
     6
 10
-85.5
 20
-407.69923699999998
 30
0.0
 11
-85.5
 21
-136.029404
 31
0.0
  0
LINE
  8
BASIS
  6
DASHDOT
 62
     6
 10
0.0
 20
-432.34308999999979
 30
0.0
 11
0.0
 21
231.20274300000011
 31
0.0
  0
LINE
  8
DETAIL
  6
CONTINUOUS
 62
     5
 10
-172.0
 20
-190.0
 30
0.0
 11
-158.4999999999998
 21
-190.0
 31
0.0
  0
ARC
  8
DETAIL
  6
CONTINUOUS
 62
     5
 10
-172.0
 20
-172.0
 30
0.0
 40
18.0
 50
180.0
 51
270.0
  0
LINE
  8
DETAIL
  6
CONTINUOUS
 62
     5
 10
-190.0
 20
-172.0
 30
0.0
 11
-190.0
 21
172.0
 31
0.0
  0
ARC
  8
DETAIL
  6
CONTINUOUS
 62
     5
 10
-172.0
 20
172.0
 30
0.0
 40
18.0
 50
90.0
 51
180.0
  0
LINE
  8
DETAIL
  6
CONTINUOUS
 62
     5
 10
-172.0
 20
190.0
 30
0.0
 11
172.0
 21
190.0
 31
0.0
  0
ARC
  8
DETAIL
  6
CONTINUOUS
 62
     5
 10
172.0
 20
172.0
 30
0.0
 40
18.0
 50
0.0
 51
90.0
  0
LINE
  8
DETAIL
  6
CONTINUOUS
 62
     5
 10
190.0
 20
-172.0
 30
0.0
 11
190.0
 21
172.0
 31
0.0
  0
ARC
  8
DETAIL
  6
CONTINUOUS
 62
     5
 10
172.0
 20
-172.0
 30
0.0
 40
18.0
 50
270.0
 51
0.0
  0
LINE
  8
DETAIL
  6
CONTINUOUS
 62
     5
 10
149.5
 20
169.50352899999979
 30
0.0
 11
146.50352899999979
 21
172.5
 31
0.0
  0
LINE
  8
DETAIL
  6
CONTINUOUS
 62
     5
 10
149.5
 20
169.50352899999979
 30
0.0
 11
149.5
 21
153.5
 31
0.0
  0
CIRCLE
  8
FIX
  6
CONTINUOUS
 62
    11
 10
-165.5
 20
100.0
 30
0.0
 40
2.5
  0
CIRCLE
  8
FIX
  6
CONTINUOUS
 62
    11
 10
100.0
 20
-165.5
 30
0.0
 40
2.5
  0
CIRCLE
  8
FIX
  6
CONTINUOUS
 62
    11
 10
-133.4999999999998
 20
-165.5
 30
0.0
 40
2.5
  0
CIRCLE
  8
FIX
  6
CONTINUOUS
 62
    11
 10
-100.0
 20
165.5
 30
0.0
 40
2.5
  0
LINE
  8
DETAIL
  6
CONTINUOUS
 62
     5
 10
-97.5
 20
167.5
 30
0.0
 11
-97.5
 21
163.4999999999998
 31
0.0
  0
ARC
  8
DETAIL
  6
CONTINUOUS
 62
     5
 10
-100.0
 20
163.4999999999998
 30
0.0
 40
2.5
 50
180.0
 51
0.0
  0
LINE
  8
DETAIL
  6
CONTINUOUS
 62
     5
 10
-102.4999999999999
 20
167.5
 30
0.0
 11
-102.4999999999999
 21
163.4999999999998
 31
0.0
  0
ARC
  8
DETAIL
  6
CONTINUOUS
 62
     5
 10
-100.0
 20
167.5
 30
0.0
 40
2.5
 50
0.0
 51
180.0
  0
LINE
  8
DETAIL
  6
CONTINUOUS
 62
     5
 10
-153.5
 20
153.5
 30
0.0
 11
153.5
 21
153.5
 31
0.0
  0
LINE
  8
DETAIL
  6
CONTINUOUS
 62
     5
 10
-153.5
 20
-153.5
 30
0.0
 11
153.5
 21
-153.5
 31
0.0
  0
LINE
  8
DETAIL
  6
CONTINUOUS
 62
     5
 10
-153.5
 20
-153.5
 30
0.0
 11
-153.5
 21
153.5
 31
0.0
  0
LINE
  8
DETAIL
  6
CONTINUOUS
 62
     5
 10
153.5
 20
-153.5
 30
0.0
 11
153.5
 21
153.5
 31
0.0
  0
LINE
  8
DETAIL
  6
CONTINUOUS
 62
     5
 10
149.5
 20
169.50352899999979
 30
0.0
 11
149.5
 21
153.5
 31
0.0
  0
LINE
  8
DETAIL
  6
CONTINUOUS
 62
     5
 10
149.5
 20
169.50352899999979
 30
0.0
 11
146.50352899999979
 21
172.5
 31
0.0
  0
LINE
  8
DETAIL
  6
CONTINUOUS
 62
     5
 10
-146.50352899999979
 20
172.5
 30
0.0
 11
146.50352899999979
 21
172.5
 31
0.0
  0
LINE
  8
DETAIL
  6
CONTINUOUS
 62
     5
 10
-149.5
 20
169.50352899999979
 30
0.0
 11
-149.5
 21
153.5
 31
0.0
  0
LINE
  8
DETAIL
  6
CONTINUOUS
 62
     5
 10
-149.5
 20
169.50352899999979
 30
0.0
 11
-146.50352899999979
 21
172.5
 31
0.0
  0
LINE
  8
DETAIL
  6
CONTINUOUS
 62
     5
 10
-11.0
 20
-172.5
 30
0.0
 11
146.50352899999979
 21
-172.5
 31
0.0
  0
LINE
  8
DETAIL
  6
CONTINUOUS
 62
     5
 10
149.5
 20
-169.50352899999979
 30
0.0
 11
146.50352899999979
 21
-172.5
 31
0.0
  0
LINE
  8
DETAIL
  6
CONTINUOUS
 62
     5
 10
149.5
 20
-169.50352899999979
 30
0.0
 11
149.5
 21
-153.5
 31
0.0
  0
LINE
  8
DETAIL
  6
CONTINUOUS
 62
     5
 10
169.49628699999991
 20
149.5
 30
0.0
 11
153.5
 21
149.5
 31
0.0
  0
LINE
  8
DETAIL
  6
CONTINUOUS
 62
     5
 10
172.5
 20
-146.50352899999979
 30
0.0
 11
172.5
 21
-130.0
 31
0.0
  0
LINE
  8
DETAIL
  6
CONTINUOUS
 62
     5
 10
169.50352899999979
 20
-149.5
 30
0.0
 11
153.5
 21
-149.5
 31
0.0
  0
LINE
  8
DETAIL
  6
CONTINUOUS
 62
     5
 10
172.5
 20
-146.50352899999979
 30
0.0
 11
169.50352899999979
 21
-149.5
 31
0.0
  0
LINE
  8
DETAIL
  6
CONTINUOUS
 62
     5
 10
172.5
 20
146.49628699999991
 30
0.0
 11
169.49628699999991
 21
149.5
 31
0.0
  0
LINE
  8
DETAIL
  6
CONTINUOUS
 62
     5
 10
-158.4999999999998
 20
-377.5
 30
0.0
 11
-158.4999999999998
 21
-184.4999999999998
 31
0.0
  0
LINE
  8
DETAIL
  6
CONTINUOUS
 62
     5
 10
-12.5
 20
-377.5
 30
0.0
 11
-12.5
 21
-309.5
 31
0.0
  0
LINE
  8
DETAIL
  6
CONTINUOUS
 62
     5
 10
4.5
 20
-160.30000000000001
 30
0.0
 11
4.5
 21
-157.0
 31
0.0
  0
LINE
  8
DETAIL
  6
CONTINUOUS
 62
     5
 10
-11.0
 20
-173.5
 30
0.0
 11
-11.0
 21
-164.5
 31
0.0
  0
LINE
  8
DETAIL
  6
CONTINUOUS
 62
     5
 10
4.5
 20
-160.30000000000001
 30
0.0
 11
-85.5
 21
-160.30000000000001
 31
0.0
  0
ARC
  8
DETAIL
  6
CONTINUOUS
 62
     5
 10
-6.7999999999999554
 20
-164.5
 30
0.0
 40
4.2000000000000002
 50
90.0
 51
180.0
  0
LINE
  8
DETAIL
  6
CONTINUOUS
 62
     5
 10
-159.30000000000001
 20
-184.4999999999998
 30
0.0
 11
-11.700000000000051
 21
-184.4999999999998
 31
0.0
  0
ARC
  8
DETAIL
  6
CONTINUOUS
 62
     5
 10
-164.1999999999999
 20
-164.5
 30
0.0
 40
4.2000000000000002
 50
0.0
 51
90.0
  0
LINE
  8
DETAIL
  6
CONTINUOUS
 62
     5
 10
-160.0
 20
-173.5
 30
0.0
 11
-160.0
 21
-164.5
 31
0.0
  0
LINE
  8
DETAIL
  6
CONTINUOUS
 62
     5
 10
-175.5
 20
-160.30000000000001
 30
0.0
 11
-85.5
 21
-160.30000000000001
 31
0.0
  0
LINE
  8
DETAIL
  6
CONTINUOUS
 62
     5
 10
-175.5
 20
-160.30000000000001
 30
0.0
 11
-175.5
 21
-157.0
 31
0.0
  0
ARC
  8
DETAIL
  6
CONTINUOUS
 62
     5
 10
-25.205376999999999
 20
-170.444433
 30
0.0
 40
134.829251
 50
181.29857599999781
 51
185.98379400000269
  0
ARC
  8
DETAIL
  6
CONTINUOUS
 62
     5
 10
-145.794623
 20
-170.444433
 30
0.0
 40
134.829251
 50
354.01620599999723
 51
358.70142400000219
  0
LINE
  8
DETAIL
  6
CONTINUOUS
 62
     5
 10
-153.5
 20
-153.5
 30
0.0
 11
-175.5
 21
-153.5
 31
0.0
  0
LINE
  8
DETAIL
  6
CONTINUOUS
 62
     5
 10
-175.5
 20
-157.0
 30
0.0
 11
4.5
 21
-157.0
 31
0.0
  0
LINE
  8
DETAIL
  6
CONTINUOUS
 62
     5
 10
4.5
 20
-157.0
 30
0.0
 11
4.5
 21
-153.5
 31
0.0
  0
LINE
  8
DETAIL
  6
CONTINUOUS
 62
     5
 10
-175.5
 20
-157.0
 30
0.0
 11
-175.5
 21
-153.5
 31
0.0
  0
LINE
  8
DETAIL
  6
CONTINUOUS
 62
     5
 10
-6.0001830000001064
 20
-185.99999700000001
 30
0.0
 11
-24.06879200000003
 21
-185.99999700000001
 31
0.0
  0
LINE
  8
DETAIL
  6
CONTINUOUS
 62
     5
 10
-12.5
 20
-185.99999700000001
 30
0.0
 11
-12.5
 21
-184.4999999999998
 31
0.0
  0
TEXT
  8
NOTE
  6
CONTINUOUS
 62
     4
 10
-129.0219739999998
 20
-473.73357999999968
 30
0.0
 40
64.0
  1
EA
 41
0.9
  0
TEXT
  8
NOTE
  6
CONTINUOUS
 62
     4
 10
220.15215599999991
 20
-347.73016400000012
 30
0.0
 40
64.0
  1
EL φ19
 41
0.9
  0
LINE
  8
NOTE
  6
CONTINUOUS
 62
     4
 10
501.96303200000011
 20
-369.95977399999992
 30
0.0
 11
208.34655699999979
 21
-369.95977399999992
 31
0.0
  0
TEXT
  8
NOTE
  6
CONTINUOUS
 62
     4
 10
-732.51383199999964
 20
583.53461700000003
 30
0.0
 40
64.0
  1
8-φ5×9
 41
0.9
  0
LINE
  8
NOTE
  6
CONTINUOUS
 62
     4
 10
-345.07277900000008
 20
551.44750699999986
 30
0.0
 11
-744.88762199999985
 21
551.44750699999986
 31
0.0
  0
LINE
  8
NOTE
  6
CONTINUOUS
 62
     4
 10
-403.649136
 20
408.1939269999998
 30
0.0
 11
-1043.811999999999
 21
408.1939269999998
 31
0.0
  0
TEXT
  8
NOTE
  6
CONTINUOUS
 62
     4
 10
-1031.171
 20
445.68353699999989
 30
0.0
 40
64.0
  1
AH 4-φ15×22
 41
0.9
  0
LINE
  8
SERVICESPACE
  6
DASHDOT
 62
     2
 10
157.5
 20
-157.5
 30
0.0
 11
-157.5
 21
157.5
 31
0.0
  0
LINE
  8
SERVICESPACE
  6
DASHDOT
 62
     2
 10
157.5
 20
157.5
 30
0.0
 11
-157.5
 21
-157.5
 31
0.0
  0
LINE
  8
SERVICESPACE
  6
DASHDOT
 62
     2
 10
157.5
 20
-157.5
 30
0.0
 11
157.5
 21
157.5
 31
0.0
  0
LINE
  8
SERVICESPACE
  6
DASHDOT
 62
     2
 10
-157.5
 20
157.5
 30
0.0
 11
157.5
 21
157.5
 31
0.0
  0
LINE
  8
SERVICESPACE
  6
DASHDOT
 62
     2
 10
-157.5
 20
-157.5
 30
0.0
 11
-157.5
 21
157.5
 31
0.0
  0
LINE
  8
SERVICESPACE
  6
DASHDOT
 62
     2
 10
-157.5
 20
-157.5
 30
0.0
 11
157.5
 21
-157.5
 31
0.0
  0
TEXT
  8
NOTE
  6
CONTINUOUS
 62
     4
 10
1170.1980000000001
 20
-201.77045899999999
 30
0.0
 40
64.0
  1
天井開口寸法
 50
90.0
 41
0.9
  0
LINE
  8
DETAIL
  6
CONTINUOUS
 62
     5
 10
-153.5
 20
70.0
 30
0.0
 11
-185.7499999999998
 21
70.0
 31
0.0
  0
LINE
  8
DETAIL
  6
CONTINUOUS
 62
     5
 10
-185.7499999999998
 20
70.0
 30
0.0
 11
-185.7499999999998
 21
130.0
 31
0.0
  0
LINE
  8
DETAIL
  6
CONTINUOUS
 62
     5
 10
-153.5
 20
130.0
 30
0.0
 11
-185.7499999999998
 21
130.0
 31
0.0
  0
ARC
  8
DETAIL
  6
CONTINUOUS
 62
     5
 10
-170.5
 20
96.5
 30
0.0
 40
7.5
 50
180.0
 51
0.0
  0
CIRCLE
  8
FIX
  6
CONTINUOUS
 62
    11
 10
-170.5
 20
100.0
 30
0.0
 40
7.5
  0
ARC
  8
DETAIL
  6
CONTINUOUS
 62
     5
 10
-170.5
 20
103.5
 30
0.0
 40
7.5
 50
0.0
 51
180.0
  0
LINE
  8
DETAIL
  6
CONTINUOUS
 62
     5
 10
-163.0
 20
96.5
 30
0.0
 11
-163.0
 21
103.5
 31
0.0
  0
LINE
  8
DETAIL
  6
CONTINUOUS
 62
     5
 10
-178.0
 20
96.5
 30
0.0
 11
-178.0
 21
103.5
 31
0.0
  0
LINE
  8
DETAIL
  6
CONTINUOUS
 62
     5
 10
153.5
 20
-130.0
 30
0.0
 11
185.7499999999998
 21
-130.0
 31
0.0
  0
LINE
  8
DETAIL
  6
CONTINUOUS
 62
     5
 10
185.7499999999998
 20
-130.0
 30
0.0
 11
185.7499999999998
 21
-70.0
 31
0.0
  0
LINE
  8
DETAIL
  6
CONTINUOUS
 62
     5
 10
153.5
 20
-70.0
 30
0.0
 11
185.7499999999998
 21
-70.0
 31
0.0
  0
LINE
  8
DETAIL
  6
CONTINUOUS
 62
     5
 10
178.0
 20
-103.4999999999999
 30
0.0
 11
178.0
 21
-96.5
 31
0.0
  0
LINE
  8
DETAIL
  6
CONTINUOUS
 62
     5
 10
163.0
 20
-103.4999999999999
 30
0.0
 11
163.0
 21
-96.5
 31
0.0
  0
ARC
  8
DETAIL
  6
CONTINUOUS
 62
     5
 10
170.5
 20
-103.4999999999999
 30
0.0
 40
7.5
 50
180.0
 51
0.0
  0
ARC
  8
DETAIL
  6
CONTINUOUS
 62
     5
 10
170.5
 20
-96.5
 30
0.0
 40
7.5
 50
0.0
 51
180.0
  0
CIRCLE
  8
FIX
  6
CONTINUOUS
 62
    11
 10
170.5
 20
-100.0
 30
0.0
 40
7.5
  0
LINE
  8
DETAIL
  6
CONTINUOUS
 62
     5
 10
153.5
 20
70.0
 30
0.0
 11
185.7499999999998
 21
70.0
 31
0.0
  0
LINE
  8
DETAIL
  6
CONTINUOUS
 62
     5
 10
185.7499999999998
 20
70.0
 30
0.0
 11
185.7499999999998
 21
130.0
 31
0.0
  0
LINE
  8
DETAIL
  6
CONTINUOUS
 62
     5
 10
153.5
 20
130.0
 30
0.0
 11
185.7499999999998
 21
130.0
 31
0.0
  0
ARC
  8
DETAIL
  6
CONTINUOUS
 62
     5
 10
170.5
 20
96.5
 30
0.0
 40
7.5
 50
180.0
 51
0.0
  0
CIRCLE
  8
FIX
  6
CONTINUOUS
 62
    11
 10
170.5
 20
100.0
 30
0.0
 40
7.5
  0
LINE
  8
DETAIL
  6
CONTINUOUS
 62
     5
 10
178.0
 20
96.5
 30
0.0
 11
178.0
 21
103.5
 31
0.0
  0
ARC
  8
DETAIL
  6
CONTINUOUS
 62
     5
 10
170.5
 20
103.5
 30
0.0
 40
7.5
 50
0.0
 51
180.0
  0
LINE
  8
DETAIL
  6
CONTINUOUS
 62
     5
 10
163.0
 20
96.5
 30
0.0
 11
163.0
 21
103.5
 31
0.0
  0
CIRCLE
  8
DETAIL
  6
CONTINUOUS
 62
     5
 10
30.0
 20
33.0
 30
0.0
 40
40.499999999999993
  0
LINE
  8
DETAIL
  6
CONTINUOUS
 62
     5
 10
-172.5
 20
-70.0
 30
0.0
 11
-172.5
 21
70.0
 31
0.0
  0
LINE
  8
DETAIL
  6
CONTINUOUS
 62
     5
 10
-172.5
 20
130.0
 30
0.0
 11
-172.5
 21
146.49628699999991
 31
0.0
  0
LINE
  8
DETAIL
  6
CONTINUOUS
 62
     5
 10
172.5
 20
130.0
 30
0.0
 11
172.5
 21
146.49628699999991
 31
0.0
  0
LINE
  8
DETAIL
  6
CONTINUOUS
 62
     5
 10
172.5
 20
89.271584000000075
 30
0.0
 11
172.5
 21
110.7284159999999
 31
0.0
  0
LINE
  8
DETAIL
  6
CONTINUOUS
 62
     5
 10
172.5
 20
-70.0
 30
0.0
 11
172.5
 21
70.0
 31
0.0
  0
LINE
  8
DETAIL
  6
CONTINUOUS
 62
     5
 10
172.5
 20
-110.728416
 30
0.0
 11
172.5
 21
-89.271583999999962
 31
0.0
  0
LINE
  8
DETAIL
  6
CONTINUOUS
 62
     5
 10
-172.5
 20
89.271584000000075
 30
0.0
 11
-172.5
 21
110.7284159999999
 31
0.0
  0
LINE
  8
DETAIL
  6
CONTINUOUS
 62
     5
 10
-6.0001830000001064
 20
-190.0
 30
0.0
 11
172.0
 21
-190.0
 31
0.0
  0
ARC
  8
DETAIL
  6
CONTINUOUS
 62
     5
 10
-163.4999999999998
 20
100.0
 30
0.0
 40
2.5
 50
78.292876000004696
 51
90.0
  0
ARC
  8
DETAIL
  6
CONTINUOUS
 62
     5
 10
-163.4999999999998
 20
-100.0
 30
0.0
 40
2.5
 50
270.0
 51
281.70712399999519
  0
LINE
  8
DETAIL
  6
CONTINUOUS
 62
     5
 10
-172.5
 20
-89.271583999999962
 30
0.0
 11
-172.5
 21
-110.728416
 31
0.0
  0
LINE
  8
DETAIL
  6
CONTINUOUS
 62
     5
 10
-178.0
 20
-96.5
 30
0.0
 11
-178.0
 21
-103.4999999999999
 31
0.0
  0
LINE
  8
DETAIL
  6
CONTINUOUS
 62
     5
 10
-163.0
 20
-96.5
 30
0.0
 11
-163.0
 21
-103.4999999999999
 31
0.0
  0
ARC
  8
DETAIL
  6
CONTINUOUS
 62
     5
 10
-170.5
 20
-103.4999999999999
 30
0.0
 40
7.5
 50
180.0
 51
0.0
  0
CIRCLE
  8
FIX
  6
CONTINUOUS
 62
    11
 10
-170.5
 20
-100.0
 30
0.0
 40
7.5
  0
ARC
  8
DETAIL
  6
CONTINUOUS
 62
     5
 10
-170.5
 20
-96.5
 30
0.0
 40
7.5
 50
0.0
 51
180.0
  0
LINE
  8
DETAIL
  6
CONTINUOUS
 62
     5
 10
-153.5
 20
-130.0
 30
0.0
 11
-185.7499999999998
 21
-130.0
 31
0.0
  0
LINE
  8
DETAIL
  6
CONTINUOUS
 62
     5
 10
-185.7499999999998
 20
-70.0
 30
0.0
 11
-185.7499999999998
 21
-130.0
 31
0.0
  0
LINE
  8
DETAIL
  6
CONTINUOUS
 62
     5
 10
-153.5
 20
-70.0
 30
0.0
 11
-185.7499999999998
 21
-70.0
 31
0.0
  0
CIRCLE
  8
FIX
  6
CONTINUOUS
 62
    11
 10
-165.5
 20
-100.0
 30
0.0
 40
2.5
  0
LINE
  8
DETAIL
  6
CONTINUOUS
 62
     5
 10
-167.5
 20
-97.5
 30
0.0
 11
-163.4999999999998
 21
-97.5
 31
0.0
  0
ARC
  8
DETAIL
  6
CONTINUOUS
 62
     5
 10
-163.4999999999998
 20
-100.0
 30
0.0
 40
2.5
 50
78.292876000004696
 51
90.0
  0
LINE
  8
DETAIL
  6
CONTINUOUS
 62
     5
 10
-167.5
 20
-102.4999999999999
 30
0.0
 11
-163.4999999999998
 21
-102.4999999999999
 31
0.0
  0
ARC
  8
DETAIL
  6
CONTINUOUS
 62
     5
 10
-167.5
 20
-100.0
 30
0.0
 40
2.5
 50
90.0
 51
270.0
  0
ARC
  8
DETAIL
  6
CONTINUOUS
 62
     5
 10
163.4999999999998
 20
100.0
 30
0.0
 40
2.5
 50
90.0
 51
101.7071239999953
  0
LINE
  8
DETAIL
  6
CONTINUOUS
 62
     5
 10
163.0
 20
96.5
 30
0.0
 11
163.0
 21
103.5
 31
0.0
  0
CIRCLE
  8
FIX
  6
CONTINUOUS
 62
    11
 10
165.5
 20
100.0
 30
0.0
 40
2.5
  0
LINE
  8
DETAIL
  6
CONTINUOUS
 62
     5
 10
167.5
 20
97.5
 30
0.0
 11
163.4999999999998
 21
97.5
 31
0.0
  0
ARC
  8
DETAIL
  6
CONTINUOUS
 62
     5
 10
163.4999999999998
 20
100.0
 30
0.0
 40
2.5
 50
258.29287600000481
 51
270.0
  0
LINE
  8
DETAIL
  6
CONTINUOUS
 62
     5
 10
167.5
 20
102.5
 30
0.0
 11
163.4999999999998
 21
102.5
 31
0.0
  0
ARC
  8
DETAIL
  6
CONTINUOUS
 62
     5
 10
167.5
 20
100.0
 30
0.0
 40
2.5
 50
270.0
 51
90.0
  0
ARC
  8
DETAIL
  6
CONTINUOUS
 62
     5
 10
167.5
 20
-100.0
 30
0.0
 40
2.5
 50
270.0
 51
90.0
  0
LINE
  8
DETAIL
  6
CONTINUOUS
 62
     5
 10
167.5
 20
-102.4999999999999
 30
0.0
 11
163.4999999999998
 21
-102.4999999999999
 31
0.0
  0
ARC
  8
DETAIL
  6
CONTINUOUS
 62
     5
 10
163.4999999999998
 20
-100.0
 30
0.0
 40
2.5
 50
90.0
 51
101.7071239999953
  0
LINE
  8
DETAIL
  6
CONTINUOUS
 62
     5
 10
167.5
 20
-97.5
 30
0.0
 11
163.4999999999998
 21
-97.5
 31
0.0
  0
CIRCLE
  8
FIX
  6
CONTINUOUS
 62
    11
 10
165.5
 20
-100.0
 30
0.0
 40
2.5
  0
ARC
  8
DETAIL
  6
CONTINUOUS
 62
     5
 10
163.4999999999998
 20
-100.0
 30
0.0
 40
2.5
 50
258.29287600000481
 51
270.0
  0
ARC
  8
DETAIL
  6
CONTINUOUS
 62
     5
 10
100.0
 20
167.5
 30
0.0
 40
2.5
 50
0.0
 51
180.0
  0
LINE
  8
DETAIL
  6
CONTINUOUS
 62
     5
 10
102.5
 20
167.5
 30
0.0
 11
102.5
 21
163.4999999999998
 31
0.0
  0
ARC
  8
DETAIL
  6
CONTINUOUS
 62
     5
 10
100.0
 20
163.4999999999998
 30
0.0
 40
2.5
 50
180.0
 51
0.0
  0
LINE
  8
DETAIL
  6
CONTINUOUS
 62
     5
 10
97.5
 20
167.5
 30
0.0
 11
97.5
 21
163.4999999999998
 31
0.0
  0
CIRCLE
  8
FIX
  6
CONTINUOUS
 62
    11
 10
100.0
 20
165.5
 30
0.0
 40
2.5
  0
LINE
  8
SIZE
  6
CONTINUOUS
 62
    30
 10
628.47815100000003
 20
33.0
 30
0.0
 11
628.47815100000003
 21
301.68692799999991
 31
0.0
  0
LINE
  8
SIZE
  6
CONTINUOUS
 62
    30
 10
498.81398799999988
 20
111.0
 30
0.0
 11
498.81398799999988
 21
298.13856900000002
 31
0.0
  0
LINE
  8
SIZE
  6
CONTINUOUS
 62
    30
 10
178.0
 20
242.59125300000011
 30
0.0
 11
320.63705499999992
 21
242.59125300000011
 31
0.0
  0
LINE
  8
SIZE
  6
CONTINUOUS
 62
    30
 10
30.0
 20
361.6091379999998
 30
0.0
 11
323.77441599999997
 21
361.6091379999998
 31
0.0
  0
LINE
  8
SIZE
  6
CONTINUOUS
 62
    30
 10
-89.5
 20
-615.36910499999988
 30
0.0
 11
-374.30447400000003
 21
-615.36910499999988
 31
0.0
  0
LINE
  8
SIZE
  6
CONTINUOUS
 62
    30
 10
44.5
 20
-690.46762899999999
 30
0.0
 11
313.86255799999981
 21
-690.46762899999999
 31
0.0
  0
LINE
  8
SIZE
  6
CONTINUOUS
 62
    30
 10
-133.4999999999998
 20
-816.93784200000005
 30
0.0
 11
-392.86132500000008
 21
-816.93784200000005
 31
0.0
  0
LINE
  8
SIZE
  6
CONTINUOUS
 62
    30
 10
102.0
 20
-816.93784200000005
 30
0.0
 11
339.19391100000013
 21
-816.93784200000005
 31
0.0
  0
LINE
  8
SIZE
  6
CONTINUOUS
 62
    30
 10
134.0
 20
-559.74410199999966
 30
0.0
 11
339.19391100000013
 21
-559.74410199999966
 31
0.0
  0
LINE
  8
SIZE
  6
CONTINUOUS
 62
    30
 10
-160.4999999999998
 20
-950.39183100000002
 30
0.0
 11
-405.90397999999982
 21
-950.39183100000002
 31
0.0
  0
LINE
  8
SIZE
  6
CONTINUOUS
 62
    30
 10
-520.14502000000005
 20
-309.5
 30
0.0
 11
-520.14502000000005
 21
-551.70929899999999
 31
0.0
  0
LINE
  8
SIZE
  6
CONTINUOUS
 62
    30
 10
-394.88807700000012
 20
98.0
 30
0.0
 11
-394.88807700000012
 21
344.49921999999992
 31
0.0
  0
LINE
  8
SIZE
  6
CONTINUOUS
 62
    30
 10
-520.14502000000005
 20
-153.5
 30
0.0
 11
-520.14502000000005
 21
-42.815701999999987
 31
0.0
  0
LINE
  8
NOTE
  6
CONTINUOUS
 62
     4
 10
-100.0
 20
165.5
 30
0.0
 11
-345.07277900000008
 21
551.44750699999986
 31
0.0
  0
LINE
  8
NOTE
  6
CONTINUOUS
 62
     4
 10
134.0
 20
-130.0
 30
0.0
 11
208.34655699999979
 21
-369.95977399999992
 31
0.0
  0
LINE
  8
NOTE
  6
CONTINUOUS
 62
     4
 10
-169.8735079999999
 20
100.0821940000001
 30
0.0
 11
-403.649136
 21
408.1939269999998
 31
0.0
  0
LINE
  8
SIZE
  6
CONTINUOUS
 62
    30
 10
630.04689499999995
 20
-132.0
 30
0.0
 11
630.04689499999995
 21
-350.77207800000002
 31
0.0
  0
LINE
  8
SIZE
  6
CONTINUOUS
 62
    30
 10
174.0
 20
-130.0
 30
0.0
 11
660.04689499999995
 21
-130.0
 31
0.0
  0
LINE
  8
SIZE
  6
CONTINUOUS
 62
    30
 10
257.12189200000012
 20
0.0
 30
0.0
 11
660.04689499999995
 21
0.0
 31
0.0
  0
LINE
  8
SIZE
  6
CONTINUOUS
 62
    30
 10
630.04689499999995
 20
2.0
 30
0.0
 11
630.04689499999995
 21
4.0
 31
0.0
  0
LINE
  8
SIZE
  6
CONTINUOUS
 62
    30
 10
630.04689499999995
 20
-132.0
 30
0.0
 11
630.04689499999995
 21
-134.0
 31
0.0
  0
LINE
  8
SIZE
  6
CONTINUOUS
 62
    30
 10
630.04689499999995
 20
0.0
 30
0.0
 11
630.04689499999995
 21
-130.0
 31
0.0
  0
TEXT
  8
SIZE
  6
CONTINUOUS
 62
    30
 10
598.04689499999995
 20
-341.75425200000001
 30
0.0
 40
64.0
  1
130
 50
90.0
 41
0.9
  0
LINE
  8
SIZE
  6
CONTINUOUS
 62
    30
 10
178.0
 20
123.5
 30
0.0
 11
178.0
 21
272.59125300000011
 31
0.0
  0
LINE
  8
SIZE
  6
CONTINUOUS
 62
    30
 10
163.0
 20
123.5
 30
0.0
 11
163.0
 21
272.59125300000011
 31
0.0
  0
LINE
  8
SIZE
  6
CONTINUOUS
 62
    30
 10
161.0
 20
242.59125300000011
 30
0.0
 11
159.0
 21
242.59125300000011
 31
0.0
  0
LINE
  8
SIZE
  6
CONTINUOUS
 62
    30
 10
180.0
 20
242.59125300000011
 30
0.0
 11
182.0
 21
242.59125300000011
 31
0.0
  0
LINE
  8
SIZE
  6
CONTINUOUS
 62
    30
 10
163.0
 20
242.59125300000011
 30
0.0
 11
178.0
 21
242.59125300000011
 31
0.0
  0
TEXT
  8
SIZE
  6
CONTINUOUS
 62
    30
 10
222.175749
 20
274.59125300000011
 30
0.0
 40
64.0
  1
15
 41
0.9
  0
LINE
  8
SIZE
  6
CONTINUOUS
 62
    30
 10
190.5
 20
111.0
 30
0.0
 11
528.81398799999988
 21
111.0
 31
0.0
  0
LINE
  8
SIZE
  6
CONTINUOUS
 62
    30
 10
190.5
 20
89.0
 30
0.0
 11
528.81398799999988
 21
89.0
 31
0.0
  0
LINE
  8
SIZE
  6
CONTINUOUS
 62
    30
 10
498.81398799999988
 20
87.0
 30
0.0
 11
498.81398799999988
 21
85.0
 31
0.0
  0
LINE
  8
SIZE
  6
CONTINUOUS
 62
    30
 10
498.81398799999988
 20
113.0
 30
0.0
 11
498.81398799999988
 21
115.0
 31
0.0
  0
LINE
  8
SIZE
  6
CONTINUOUS
 62
    30
 10
498.81398799999988
 20
89.0
 30
0.0
 11
498.81398799999988
 21
111.0
 31
0.0
  0
TEXT
  8
SIZE
  6
CONTINUOUS
 62
    30
 10
466.81398799999988
 20
202.40250999999989
 30
0.0
 40
64.0
  1
22
 50
90.0
 41
0.9
  0
LINE
  8
SIZE
  6
CONTINUOUS
 62
    30
 10
70.5
 20
53.0
 30
0.0
 11
70.5
 21
510.52991999999989
 31
0.0
  0
LINE
  8
SIZE
  6
CONTINUOUS
 62
    30
 10
-10.5
 20
53.0
 30
0.0
 11
-10.5
 21
510.52991999999989
 31
0.0
  0
LINE
  8
SIZE
  6
CONTINUOUS
 62
    30
 10
-12.5
 20
480.52991999999989
 30
0.0
 11
-14.5
 21
480.52991999999989
 31
0.0
  0
LINE
  8
SIZE
  6
CONTINUOUS
 62
    30
 10
72.5
 20
480.52991999999989
 30
0.0
 11
74.5
 21
480.52991999999989
 31
0.0
  0
LINE
  8
SIZE
  6
CONTINUOUS
 62
    30
 10
-10.5
 20
480.52991999999989
 30
0.0
 11
70.5
 21
480.52991999999989
 31
0.0
  0
TEXT
  8
SIZE
  6
CONTINUOUS
 62
    30
 10
-48.49308700000006
 20
512.52991999999995
 30
0.0
 40
64.0
  1
φ81
 41
0.9
  0
LINE
  8
SIZE
  6
CONTINUOUS
 62
    30
 10
140.0
 20
165.5
 30
0.0
 11
950.95142599999986
 21
165.5
 31
0.0
  0
LINE
  8
SIZE
  6
CONTINUOUS
 62
    30
 10
173.5
 20
-165.5
 30
0.0
 11
950.95142599999986
 21
-165.5
 31
0.0
  0
LINE
  8
SIZE
  6
CONTINUOUS
 62
    30
 10
920.95142600000008
 20
163.4999999999998
 30
0.0
 11
920.95142600000008
 21
0.0
 31
0.0
  0
LINE
  8
SIZE
  6
CONTINUOUS
 62
    30
 10
920.95142600000008
 20
-163.4999999999998
 30
0.0
 11
920.95142600000008
 21
0.0
 31
0.0
  0
TEXT
  8
SIZE
  6
CONTINUOUS
 62
    30
 10
888.95142599999986
 20
-94.354286000000002
 30
0.0
 40
64.0
  1
□331
 50
90.0
 41
0.9
  0
LINE
  8
SIZE
  6
CONTINUOUS
 62
    30
 10
-178.5
 20
-377.5
 30
0.0
 11
-680.86883
 21
-377.5
 31
0.0
  0
LINE
  8
SIZE
  6
CONTINUOUS
 62
    30
 10
-240.05617200000009
 20
0.0
 30
0.0
 11
-680.86883
 21
0.0
 31
0.0
  0
LINE
  8
SIZE
  6
CONTINUOUS
 62
    30
 10
-650.86883
 20
-375.5
 30
0.0
 11
-650.86883
 21
-188.75
 31
0.0
  0
LINE
  8
SIZE
  6
CONTINUOUS
 62
    30
 10
-650.86883
 20
-2.0
 30
0.0
 11
-650.86883
 21
-188.75
 31
0.0
  0
TEXT
  8
SIZE
  6
CONTINUOUS
 62
    30
 10
-682.86883
 20
-257.05536799999982
 30
0.0
 40
64.0
  1
377.5
 50
90.0
 41
0.9
  0
LINE
  8
SIZE
  6
CONTINUOUS
 62
    30
 10
-179.30000000000001
 20
-184.4999999999998
 30
0.0
 11
-550.14502000000005
 21
-184.4999999999998
 31
0.0
  0
LINE
  8
SIZE
  6
CONTINUOUS
 62
    30
 10
-44.06879200000003
 20
-309.5
 30
0.0
 11
-550.14502000000005
 21
-309.5
 31
0.0
  0
LINE
  8
SIZE
  6
CONTINUOUS
 62
    30
 10
-520.14502000000005
 20
-311.5
 30
0.0
 11
-520.14502000000005
 21
-313.5
 31
0.0
  0
LINE
  8
SIZE
  6
CONTINUOUS
 62
    30
 10
-520.14502000000005
 20
-182.5
 30
0.0
 11
-520.14502000000005
 21
-180.4999999999998
 31
0.0
  0
LINE
  8
SIZE
  6
CONTINUOUS
 62
    30
 10
-520.14502000000005
 20
-309.5
 30
0.0
 11
-520.14502000000005
 21
-184.4999999999998
 31
0.0
  0
TEXT
  8
SIZE
  6
CONTINUOUS
 62
    30
 10
-552.14502000000005
 20
-548.30774899999994
 30
0.0
 40
64.0
  1
125
 50
90.0
 41
0.9
  0
LINE
  8
SIZE
  6
CONTINUOUS
 62
    30
 10
-173.5
 20
-153.5
 30
0.0
 11
-550.14502000000005
 21
-153.5
 31
0.0
  0
LINE
  8
SIZE
  6
CONTINUOUS
 62
    30
 10
-179.30000000000001
 20
-184.4999999999998
 30
0.0
 11
-550.14502000000005
 21
-184.4999999999998
 31
0.0
  0
LINE
  8
SIZE
  6
CONTINUOUS
 62
    30
 10
-520.14502000000005
 20
-186.5
 30
0.0
 11
-520.14502000000005
 21
-188.4999999999998
 31
0.0
  0
LINE
  8
SIZE
  6
CONTINUOUS
 62
    30
 10
-520.14502000000005
 20
-151.5
 30
0.0
 11
-520.14502000000005
 21
-149.5
 31
0.0
  0
LINE
  8
SIZE
  6
CONTINUOUS
 62
    30
 10
-520.14502000000005
 20
-184.4999999999998
 30
0.0
 11
-520.14502000000005
 21
-153.5
 31
0.0
  0
TEXT
  8
SIZE
  6
CONTINUOUS
 62
    30
 10
-552.14502000000005
 20
-121.391156
 30
0.0
 40
64.0
  1
31
 50
90.0
 41
0.9
  0
LINE
  8
SIZE
  6
CONTINUOUS
 62
    30
 10
-173.5
 20
-153.5
 30
0.0
 11
-809.05935199999999
 21
-153.5
 31
0.0
  0
LINE
  8
SIZE
  6
CONTINUOUS
 62
    30
 10
-178.5
 20
-377.5
 30
0.0
 11
-809.05935199999999
 21
-377.5
 31
0.0
  0
LINE
  8
SIZE
  6
CONTINUOUS
 62
    30
 10
-779.05935199999999
 20
-155.4999999999998
 30
0.0
 11
-779.05935199999999
 21
-265.5
 31
0.0
  0
LINE
  8
SIZE
  6
CONTINUOUS
 62
    30
 10
-779.05935199999999
 20
-375.5
 30
0.0
 11
-779.05935199999999
 21
-265.5
 31
0.0
  0
TEXT
  8
SIZE
  6
CONTINUOUS
 62
    30
 10
-811.05935199999999
 20
-340.92857099999992
 30
0.0
 40
64.0
  1
224
 50
90.0
 41
0.9
  0
LINE
  8
SIZE
  6
CONTINUOUS
 62
    30
 10
-173.5
 20
153.5
 30
0.0
 11
-809.05935199999999
 21
153.5
 31
0.0
  0
LINE
  8
SIZE
  6
CONTINUOUS
 62
    30
 10
-173.5
 20
-153.5
 30
0.0
 11
-809.05935199999999
 21
-153.5
 31
0.0
  0
LINE
  8
SIZE
  6
CONTINUOUS
 62
    30
 10
-779.05935199999999
 20
151.5
 30
0.0
 11
-779.05935199999999
 21
0.0
 31
0.0
  0
LINE
  8
SIZE
  6
CONTINUOUS
 62
    30
 10
-779.05935199999999
 20
-151.5
 30
0.0
 11
-779.05935199999999
 21
0.0
 31
0.0
  0
TEXT
  8
SIZE
  6
CONTINUOUS
 62
    30
 10
-811.05935199999999
 20
-106.6971429999999
 30
0.0
 40
64.0
  1
□307
 50
90.0
 41
0.9
  0
LINE
  8
SIZE
  6
CONTINUOUS
 62
    30
 10
-210.49999999999989
 20
100.0
 30
0.0
 11
-424.88807699999961
 21
100.0
 31
0.0
  0
LINE
  8
SIZE
  6
CONTINUOUS
 62
    30
 10
-210.49999999999989
 20
-100.0
 30
0.0
 11
-424.88807699999961
 21
-100.0
 31
0.0
  0
LINE
  8
SIZE
  6
CONTINUOUS
 62
    30
 10
-394.88807700000012
 20
98.0
 30
0.0
 11
-394.88807700000012
 21
0.0
 31
0.0
  0
LINE
  8
SIZE
  6
CONTINUOUS
 62
    30
 10
-394.88807700000012
 20
-98.0
 30
0.0
 11
-394.88807700000012
 21
0.0
 31
0.0
  0
TEXT
  8
SIZE
  6
CONTINUOUS
 62
    30
 10
-426.88807699999978
 20
193.41594200000009
 30
0.0
 40
64.0
  1
200
 50
90.0
 41
0.9
  0
LINE
  8
SIZE
  6
CONTINUOUS
 62
    30
 10
257.12189200000012
 20
0.0
 30
0.0
 11
658.47815100000003
 21
0.0
 31
0.0
  0
LINE
  8
SIZE
  6
CONTINUOUS
 62
    30
 10
121.8668009999999
 20
33.0
 30
0.0
 11
658.47815100000003
 21
33.0
 31
0.0
  0
LINE
  8
SIZE
  6
CONTINUOUS
 62
    30
 10
628.47815100000003
 20
35.0
 30
0.0
 11
628.47815100000003
 21
37.0
 31
0.0
  0
LINE
  8
SIZE
  6
CONTINUOUS
 62
    30
 10
628.47815100000003
 20
-2.0
 30
0.0
 11
628.47815100000003
 21
-4.0
 31
0.0
  0
LINE
  8
SIZE
  6
CONTINUOUS
 62
    30
 10
628.47815100000003
 20
33.0
 30
0.0
 11
628.47815100000003
 21
0.0
 31
0.0
  0
TEXT
  8
SIZE
  6
CONTINUOUS
 62
    30
 10
596.47815100000003
 20
202.28894799999989
 30
0.0
 40
64.0
  1
33
 50
90.0
 41
0.9
  0
LINE
  8
SIZE
  6
CONTINUOUS
 62
    30
 10
205.50727299999991
 20
100.0
 30
0.0
 11
802.08579399999985
 21
100.0
 31
0.0
  0
LINE
  8
SIZE
  6
CONTINUOUS
 62
    30
 10
205.50727299999991
 20
-100.0
 30
0.0
 11
802.08579399999985
 21
-100.0
 31
0.0
  0
LINE
  8
SIZE
  6
CONTINUOUS
 62
    30
 10
772.08579399999985
 20
98.0
 30
0.0
 11
772.08579399999985
 21
0.0
 31
0.0
  0
LINE
  8
SIZE
  6
CONTINUOUS
 62
    30
 10
772.08579399999985
 20
-98.0
 30
0.0
 11
772.08579399999985
 21
0.0
 31
0.0
  0
TEXT
  8
SIZE
  6
CONTINUOUS
 62
    30
 10
740.08579399999985
 20
-74.057142999999996
 30
0.0
 40
64.0
  1
200
 50
90.0
 41
0.9
  0
LINE
  8
SIZE
  6
CONTINUOUS
 62
    30
 10
100.0
 20
205.5036519999999
 30
0.0
 11
100.0
 21
635.38871599999993
 31
0.0
  0
LINE
  8
SIZE
  6
CONTINUOUS
 62
    30
 10
-100.0
 20
205.5036519999999
 30
0.0
 11
-100.0
 21
635.38871599999993
 31
0.0
  0
LINE
  8
SIZE
  6
CONTINUOUS
 62
    30
 10
98.0
 20
605.38871599999993
 30
0.0
 11
0.0
 21
605.38871599999993
 31
0.0
  0
LINE
  8
SIZE
  6
CONTINUOUS
 62
    30
 10
-98.0
 20
605.38871599999993
 30
0.0
 11
0.0
 21
605.38871599999993
 31
0.0
  0
TEXT
  8
SIZE
  6
CONTINUOUS
 62
    30
 10
-74.057142999999996
 20
637.38871599999993
 30
0.0
 40
64.0
  1
200
 41
0.9
  0
LINE
  8
SIZE
  6
CONTINUOUS
 62
    30
 10
149.5
 20
189.50352899999979
 30
0.0
 11
149.5
 21
750.10722799999985
 31
0.0
  0
LINE
  8
SIZE
  6
CONTINUOUS
 62
    30
 10
-149.5
 20
189.50352899999979
 30
0.0
 11
-149.5
 21
750.10722799999985
 31
0.0
  0
LINE
  8
SIZE
  6
CONTINUOUS
 62
    30
 10
147.5
 20
720.10722799999985
 30
0.0
 11
0.0
 21
720.10722799999985
 31
0.0
  0
LINE
  8
SIZE
  6
CONTINUOUS
 62
    30
 10
-147.5
 20
720.10722799999985
 30
0.0
 11
0.0
 21
720.10722799999985
 31
0.0
  0
TEXT
  8
SIZE
  6
CONTINUOUS
 62
    30
 10
-105.32571399999991
 20
752.10722799999985
 30
0.0
 40
64.0
  1
□299
 41
0.9
  0
LINE
  8
SIZE
  6
CONTINUOUS
 62
    30
 10
172.5
 20
166.49628699999991
 30
0.0
 11
172.5
 21
877.20900200000005
 31
0.0
  0
LINE
  8
SIZE
  6
CONTINUOUS
 62
    30
 10
-172.5
 20
166.49628699999991
 30
0.0
 11
-172.5
 21
877.20900200000005
 31
0.0
  0
LINE
  8
SIZE
  6
CONTINUOUS
 62
    30
 10
170.5
 20
847.2090019999996
 30
0.0
 11
0.0
 21
847.2090019999996
 31
0.0
  0
LINE
  8
SIZE
  6
CONTINUOUS
 62
    30
 10
-170.5
 20
847.2090019999996
 30
0.0
 11
0.0
 21
847.2090019999996
 31
0.0
  0
TEXT
  8
SIZE
  6
CONTINUOUS
 62
    30
 10
-106.6971429999999
 20
879.20900199999983
 30
0.0
 40
64.0
  1
□345
 41
0.9
  0
LINE
  8
SIZE
  6
CONTINUOUS
 62
    30
 10
0.0
 20
251.20274300000011
 30
0.0
 11
0.0
 21
391.6091379999998
 31
0.0
  0
LINE
  8
SIZE
  6
CONTINUOUS
 62
    30
 10
30.0
 20
110.6847219999997
 30
0.0
 11
30.0
 21
391.6091379999998
 31
0.0
  0
LINE
  8
SIZE
  6
CONTINUOUS
 62
    30
 10
32.0
 20
361.6091379999998
 30
0.0
 11
34.0
 21
361.6091379999998
 31
0.0
  0
LINE
  8
SIZE
  6
CONTINUOUS
 62
    30
 10
-2.0
 20
361.6091379999998
 30
0.0
 11
-4.0
 21
361.6091379999998
 31
0.0
  0
LINE
  8
SIZE
  6
CONTINUOUS
 62
    30
 10
30.0
 20
361.6091379999998
 30
0.0
 11
0.0
 21
361.6091379999998
 31
0.0
  0
TEXT
  8
SIZE
  6
CONTINUOUS
 62
    30
 10
218.31325399999989
 20
393.6091379999998
 30
0.0
 40
64.0
  1
30
 41
0.9
  0
LINE
  8
SIZE
  6
CONTINUOUS
 62
    30
 10
0.0
 20
-452.34309000000007
 30
0.0
 11
0.0
 21
-846.93784199999982
 31
0.0
  0
LINE
  8
SIZE
  6
CONTINUOUS
 62
    30
 10
100.0
 20
-205.5036519999999
 30
0.0
 11
100.0
 21
-846.93784199999982
 31
0.0
  0
LINE
  8
SIZE
  6
CONTINUOUS
 62
    30
 10
102.0
 20
-816.93784200000005
 30
0.0
 11
104.0
 21
-816.93784200000005
 31
0.0
  0
LINE
  8
SIZE
  6
CONTINUOUS
 62
    30
 10
-2.0
 20
-816.93784200000005
 30
0.0
 11
-4.0
 21
-816.93784200000005
 31
0.0
  0
LINE
  8
SIZE
  6
CONTINUOUS
 62
    30
 10
100.0
 20
-816.93784200000005
 30
0.0
 11
0.0
 21
-816.93784200000005
 31
0.0
  0
TEXT
  8
SIZE
  6
CONTINUOUS
 62
    30
 10
198.07444600000011
 20
-784.93784200000005
 30
0.0
 40
64.0
  1
100
 41
0.9
  0
LINE
  8
SIZE
  6
CONTINUOUS
 62
    30
 10
-133.4999999999998
 20
-205.5036519999999
 30
0.0
 11
-133.4999999999998
 21
-846.93784199999982
 31
0.0
  0
LINE
  8
SIZE
  6
CONTINUOUS
 62
    30
 10
0.0
 20
-452.34309000000007
 30
0.0
 11
0.0
 21
-846.93784199999982
 31
0.0
  0
LINE
  8
SIZE
  6
CONTINUOUS
 62
    30
 10
2.0
 20
-816.93784200000005
 30
0.0
 11
4.0
 21
-816.93784200000005
 31
0.0
  0
LINE
  8
SIZE
  6
CONTINUOUS
 62
    30
 10
-135.4999999999998
 20
-816.93784200000005
 30
0.0
 11
-137.5
 21
-816.93784200000005
 31
0.0
  0
LINE
  8
SIZE
  6
CONTINUOUS
 62
    30
 10
0.0
 20
-816.93784200000005
 30
0.0
 11
-133.4999999999998
 21
-816.93784200000005
 31
0.0
  0
TEXT
  8
SIZE
  6
CONTINUOUS
 62
    30
 10
-381.90433999999988
 20
-784.93784200000005
 30
0.0
 40
64.0
  1
133.5
 41
0.9
  0
LINE
  8
SIZE
  6
CONTINUOUS
 62
    30
 10
-85.5
 20
-427.69923699999998
 30
0.0
 11
-85.5
 21
-720.46762899999999
 31
0.0
  0
LINE
  8
SIZE
  6
CONTINUOUS
 62
    30
 10
42.5
 20
-317.5
 30
0.0
 11
42.5
 21
-720.46762899999999
 31
0.0
  0
LINE
  8
SIZE
  6
CONTINUOUS
 62
    30
 10
44.5
 20
-690.46762899999999
 30
0.0
 11
46.5
 21
-690.46762899999999
 31
0.0
  0
LINE
  8
SIZE
  6
CONTINUOUS
 62
    30
 10
-87.5
 20
-690.46762899999999
 30
0.0
 11
-89.5
 21
-690.46762899999999
 31
0.0
  0
LINE
  8
SIZE
  6
CONTINUOUS
 62
    30
 10
42.5
 20
-690.46762899999999
 30
0.0
 11
-85.5
 21
-690.46762899999999
 31
0.0
  0
TEXT
  8
SIZE
  6
CONTINUOUS
 62
    30
 10
165.79481999999979
 20
-658.46762899999987
 30
0.0
 40
64.0
  1
128
 41
0.9
  0
LINE
  8
SIZE
  6
CONTINUOUS
 62
    30
 10
0.0
 20
-452.34309000000007
 30
0.0
 11
0.0
 21
-645.36910499999965
 31
0.0
  0
LINE
  8
SIZE
  6
CONTINUOUS
 62
    30
 10
-85.5
 20
-427.69923699999998
 30
0.0
 11
-85.5
 21
-645.36910499999965
 31
0.0
  0
LINE
  8
SIZE
  6
CONTINUOUS
 62
    30
 10
-87.5
 20
-615.36910499999988
 30
0.0
 11
-89.5
 21
-615.36910499999988
 31
0.0
  0
LINE
  8
SIZE
  6
CONTINUOUS
 62
    30
 10
2.0
 20
-615.36910499999988
 30
0.0
 11
4.0
 21
-615.36910499999988
 31
0.0
  0
LINE
  8
SIZE
  6
CONTINUOUS
 62
    30
 10
-85.5
 20
-615.36910499999988
 30
0.0
 11
0.0
 21
-615.36910499999988
 31
0.0
  0
TEXT
  8
SIZE
  6
CONTINUOUS
 62
    30
 10
-369.57894599999992
 20
-583.36910499999965
 30
0.0
 40
64.0
  1
85.5
 41
0.9
  0
LINE
  8
SIZE
  6
CONTINUOUS
 62
    30
 10
-12.5
 20
-397.5
 30
0.0
 11
-12.5
 21
-980.39183100000002
 31
0.0
  0
LINE
  8
SIZE
  6
CONTINUOUS
 62
    30
 10
-158.4999999999998
 20
-397.5
 30
0.0
 11
-158.4999999999998
 21
-980.39183100000002
 31
0.0
  0
LINE
  8
SIZE
  6
CONTINUOUS
 62
    30
 10
-160.4999999999998
 20
-950.39183100000002
 30
0.0
 11
-162.5
 21
-950.39183100000002
 31
0.0
  0
LINE
  8
SIZE
  6
CONTINUOUS
 62
    30
 10
-10.5
 20
-950.39183100000002
 30
0.0
 11
-8.5
 21
-950.39183100000002
 31
0.0
  0
LINE
  8
SIZE
  6
CONTINUOUS
 62
    30
 10
-158.4999999999998
 20
-950.39183100000002
 30
0.0
 11
-12.5
 21
-950.39183100000002
 31
0.0
  0
TEXT
  8
SIZE
  6
CONTINUOUS
 62
    30
 10
-399.18549000000007
 20
-918.39183100000002
 30
0.0
 40
64.0
  1
φ146
 41
0.9
  0
LINE
  8
SIZE
  6
CONTINUOUS
 62
    30
 10
0.0
 20
-452.34309000000007
 30
0.0
 11
0.0
 21
-589.744102
 31
0.0
  0
LINE
  8
SIZE
  6
CONTINUOUS
 62
    30
 10
134.0
 20
-170.0
 30
0.0
 11
134.0
 21
-589.744102
 31
0.0
  0
LINE
  8
SIZE
  6
CONTINUOUS
 62
    30
 10
136.0
 20
-559.74410199999966
 30
0.0
 11
138.0
 21
-559.74410199999966
 31
0.0
  0
LINE
  8
SIZE
  6
CONTINUOUS
 62
    30
 10
-2.0
 20
-559.74410199999966
 30
0.0
 11
-4.0
 21
-559.74410199999966
 31
0.0
  0
LINE
  8
SIZE
  6
CONTINUOUS
 62
    30
 10
134.0
 20
-559.74410199999966
 30
0.0
 11
0.0
 21
-559.74410199999966
 31
0.0
  0
TEXT
  8
SIZE
  6
CONTINUOUS
 62
    30
 10
197.18735100000001
 20
-527.744102
 30
0.0
 40
64.0
  1
134
 41
0.9
  0
LINE
  8
SIZE
  6
CONTINUOUS
 62
    30
 10
177.5
 20
157.5
 30
0.0
 11
1099.6559999999999
 21
157.5
 31
0.0
  0
LINE
  8
SIZE
  6
CONTINUOUS
 62
    30
 10
177.5
 20
-157.5
 30
0.0
 11
1099.6559999999999
 21
-157.5
 31
0.0
  0
LINE
  8
SIZE
  6
CONTINUOUS
 62
    30
 10
1069.655999999999
 20
155.4999999999998
 30
0.0
 11
1069.655999999999
 21
0.0
 31
0.0
  0
LINE
  8
SIZE
  6
CONTINUOUS
 62
    30
 10
1069.655999999999
 20
-155.4999999999998
 30
0.0
 11
1069.655999999999
 21
0.0
 31
0.0
  0
TEXT
  8
SIZE
  6
CONTINUOUS
 62
    30
 10
1037.655999999999
 20
-101.211429
 30
0.0
 40
64.0
  1
□315
 50
90.0
 41
0.9
  0
LINE
  8
SIZE
  6
CONTINUOUS
 62
    30
 10
190.0
 20
192.0
 30
0.0
 11
190.0
 21
1003.1649999999991
 31
0.0
  0
LINE
  8
SIZE
  6
CONTINUOUS
 62
    30
 10
-190.0
 20
192.0
 30
0.0
 11
-190.0
 21
1003.1649999999991
 31
0.0
  0
LINE
  8
SIZE
  6
CONTINUOUS
 62
    30
 10
188.0
 20
973.16490299999964
 30
0.0
 11
0.0
 21
973.16490299999964
 31
0.0
  0
LINE
  8
SIZE
  6
CONTINUOUS
 62
    30
 10
-188.0
 20
973.16490299999964
 30
0.0
 11
0.0
 21
973.16490299999964
 31
0.0
  0
TEXT
  8
SIZE
  6
CONTINUOUS
 62
    30
 10
-106.6971429999999
 20
1005.165
 30
0.0
 40
64.0
  1
□380
 41
0.9
  0
CIRCLE
  8
SIZE
  6
CONTINUOUS
 62
    30
 10
-190.0
 20
973.16490299999964
 30
0.0
 40
6.0
  0
CIRCLE
  8
SIZE
  6
CONTINUOUS
 62
    30
 10
190.0
 20
973.16490299999964
 30
0.0
 40
6.0
  0
CIRCLE
  8
SIZE
  6
CONTINUOUS
 62
    30
 10
1069.655999999999
 20
-157.5
 30
0.0
 40
6.0
  0
CIRCLE
  8
SIZE
  6
CONTINUOUS
 62
    30
 10
1069.655999999999
 20
157.5
 30
0.0
 40
6.0
  0
CIRCLE
  8
SIZE
  6
CONTINUOUS
 62
    30
 10
0.0
 20
-559.74410199999966
 30
0.0
 40
6.0
  0
CIRCLE
  8
SIZE
  6
CONTINUOUS
 62
    30
 10
134.0
 20
-559.74410199999966
 30
0.0
 40
6.0
  0
CIRCLE
  8
SIZE
  6
CONTINUOUS
 62
    30
 10
-12.5
 20
-950.39183100000002
 30
0.0
 40
6.0
  0
CIRCLE
  8
SIZE
  6
CONTINUOUS
 62
    30
 10
-158.4999999999998
 20
-950.39183100000002
 30
0.0
 40
6.0
  0
CIRCLE
  8
SIZE
  6
CONTINUOUS
 62
    30
 10
0.0
 20
-615.36910499999988
 30
0.0
 40
6.0
  0
CIRCLE
  8
SIZE
  6
CONTINUOUS
 62
    30
 10
-85.5
 20
-615.36910499999988
 30
0.0
 40
6.0
  0
CIRCLE
  8
SIZE
  6
CONTINUOUS
 62
    30
 10
-85.5
 20
-690.46762899999999
 30
0.0
 40
6.0
  0
CIRCLE
  8
SIZE
  6
CONTINUOUS
 62
    30
 10
42.5
 20
-690.46762899999999
 30
0.0
 40
6.0
  0
CIRCLE
  8
SIZE
  6
CONTINUOUS
 62
    30
 10
-133.4999999999998
 20
-816.93784200000005
 30
0.0
 40
6.0
  0
CIRCLE
  8
SIZE
  6
CONTINUOUS
 62
    30
 10
0.0
 20
-816.93784200000005
 30
0.0
 40
6.0
  0
CIRCLE
  8
SIZE
  6
CONTINUOUS
 62
    30
 10
0.0
 20
-816.93784200000005
 30
0.0
 40
6.0
  0
CIRCLE
  8
SIZE
  6
CONTINUOUS
 62
    30
 10
100.0
 20
-816.93784200000005
 30
0.0
 40
6.0
  0
CIRCLE
  8
SIZE
  6
CONTINUOUS
 62
    30
 10
0.0
 20
361.6091379999998
 30
0.0
 40
6.0
  0
CIRCLE
  8
SIZE
  6
CONTINUOUS
 62
    30
 10
30.0
 20
361.6091379999998
 30
0.0
 40
6.0
  0
CIRCLE
  8
SIZE
  6
CONTINUOUS
 62
    30
 10
-172.5
 20
847.2090019999996
 30
0.0
 40
6.0
  0
CIRCLE
  8
SIZE
  6
CONTINUOUS
 62
    30
 10
172.5
 20
847.2090019999996
 30
0.0
 40
6.0
  0
CIRCLE
  8
SIZE
  6
CONTINUOUS
 62
    30
 10
-149.5
 20
720.10722799999985
 30
0.0
 40
6.0
  0
CIRCLE
  8
SIZE
  6
CONTINUOUS
 62
    30
 10
149.5
 20
720.10722799999985
 30
0.0
 40
6.0
  0
CIRCLE
  8
SIZE
  6
CONTINUOUS
 62
    30
 10
-100.0
 20
605.38871599999993
 30
0.0
 40
6.0
  0
CIRCLE
  8
SIZE
  6
CONTINUOUS
 62
    30
 10
100.0
 20
605.38871599999993
 30
0.0
 40
6.0
  0
CIRCLE
  8
SIZE
  6
CONTINUOUS
 62
    30
 10
772.08579399999985
 20
-100.0
 30
0.0
 40
6.0
  0
CIRCLE
  8
SIZE
  6
CONTINUOUS
 62
    30
 10
772.08579399999985
 20
100.0
 30
0.0
 40
6.0
  0
CIRCLE
  8
SIZE
  6
CONTINUOUS
 62
    30
 10
628.47815100000003
 20
0.0
 30
0.0
 40
6.0
  0
CIRCLE
  8
SIZE
  6
CONTINUOUS
 62
    30
 10
628.47815100000003
 20
33.0
 30
0.0
 40
6.0
  0
CIRCLE
  8
SIZE
  6
CONTINUOUS
 62
    30
 10
-394.88807700000012
 20
-100.0
 30
0.0
 40
6.0
  0
CIRCLE
  8
SIZE
  6
CONTINUOUS
 62
    30
 10
-394.88807700000012
 20
100.0
 30
0.0
 40
6.0
  0
CIRCLE
  8
SIZE
  6
CONTINUOUS
 62
    30
 10
-779.05935199999999
 20
-153.5
 30
0.0
 40
6.0
  0
CIRCLE
  8
SIZE
  6
CONTINUOUS
 62
    30
 10
-779.05935199999999
 20
153.5
 30
0.0
 40
6.0
  0
CIRCLE
  8
SIZE
  6
CONTINUOUS
 62
    30
 10
-779.05935199999999
 20
-377.5
 30
0.0
 40
6.0
  0
CIRCLE
  8
SIZE
  6
CONTINUOUS
 62
    30
 10
-779.05935199999999
 20
-153.5
 30
0.0
 40
6.0
  0
CIRCLE
  8
SIZE
  6
CONTINUOUS
 62
    30
 10
-520.14502000000005
 20
-153.5
 30
0.0
 40
6.0
  0
CIRCLE
  8
SIZE
  6
CONTINUOUS
 62
    30
 10
-520.14502000000005
 20
-184.4999999999998
 30
0.0
 40
6.0
  0
CIRCLE
  8
SIZE
  6
CONTINUOUS
 62
    30
 10
-520.14502000000005
 20
-184.4999999999998
 30
0.0
 40
6.0
  0
CIRCLE
  8
SIZE
  6
CONTINUOUS
 62
    30
 10
-520.14502000000005
 20
-309.5
 30
0.0
 40
6.0
  0
CIRCLE
  8
SIZE
  6
CONTINUOUS
 62
    30
 10
-650.86883
 20
0.0
 30
0.0
 40
6.0
  0
CIRCLE
  8
SIZE
  6
CONTINUOUS
 62
    30
 10
-650.86883
 20
-377.5
 30
0.0
 40
6.0
  0
CIRCLE
  8
SIZE
  6
CONTINUOUS
 62
    30
 10
920.95142600000008
 20
-165.5
 30
0.0
 40
6.0
  0
CIRCLE
  8
SIZE
  6
CONTINUOUS
 62
    30
 10
920.95142600000008
 20
165.5
 30
0.0
 40
6.0
  0
CIRCLE
  8
SIZE
  6
CONTINUOUS
 62
    30
 10
70.5
 20
480.52991999999989
 30
0.0
 40
6.0
  0
CIRCLE
  8
SIZE
  6
CONTINUOUS
 62
    30
 10
-10.5
 20
480.52991999999989
 30
0.0
 40
6.0
  0
CIRCLE
  8
SIZE
  6
CONTINUOUS
 62
    30
 10
498.81398799999988
 20
111.0
 30
0.0
 40
6.0
  0
CIRCLE
  8
SIZE
  6
CONTINUOUS
 62
    30
 10
498.81398799999988
 20
89.0
 30
0.0
 40
6.0
  0
CIRCLE
  8
SIZE
  6
CONTINUOUS
 62
    30
 10
178.0
 20
242.59125300000011
 30
0.0
 40
6.0
  0
CIRCLE
  8
SIZE
  6
CONTINUOUS
 62
    30
 10
163.0
 20
242.59125300000011
 30
0.0
 40
6.0
  0
CIRCLE
  8
SIZE
  6
CONTINUOUS
 62
    30
 10
630.04689499999995
 20
-130.0
 30
0.0
 40
6.0
  0
CIRCLE
  8
SIZE
  6
CONTINUOUS
 62
    30
 10
630.04689499999995
 20
0.0
 30
0.0
 40
6.0
  0
LINE
  8
NOTE
  6
CONTINUOUS
 62
     4
 10
80.0
 20
165.5
 30
0.0
 11
120.0
 21
165.5
 31
0.0
  0
LINE
  8
NOTE
  6
CONTINUOUS
 62
     4
 10
100.0
 20
185.5
 30
0.0
 11
100.0
 21
145.5
 31
0.0
  0
LINE
  8
NOTE
  6
CONTINUOUS
 62
     4
 10
145.5
 20
-100.0
 30
0.0
 11
185.5
 21
-100.0
 31
0.0
  0
LINE
  8
NOTE
  6
CONTINUOUS
 62
     4
 10
165.5
 20
-80.0
 30
0.0
 11
165.5
 21
-120.0
 31
0.0
  0
LINE
  8
NOTE
  6
CONTINUOUS
 62
     4
 10
145.5
 20
100.0
 30
0.0
 11
185.5
 21
100.0
 31
0.0
  0
LINE
  8
NOTE
  6
CONTINUOUS
 62
     4
 10
165.5
 20
80.0
 30
0.0
 11
165.5
 21
120.0
 31
0.0
  0
LINE
  8
NOTE
  6
CONTINUOUS
 62
     4
 10
-145.5
 20
-100.0
 30
0.0
 11
-185.5
 21
-100.0
 31
0.0
  0
LINE
  8
NOTE
  6
CONTINUOUS
 62
     4
 10
-165.5
 20
-80.0
 30
0.0
 11
-165.5
 21
-120.0
 31
0.0
  0
LINE
  8
NOTE
  6
CONTINUOUS
 62
     4
 10
-170.5
 20
-80.0
 30
0.0
 11
-170.5
 21
-120.0
 31
0.0
  0
LINE
  8
NOTE
  6
CONTINUOUS
 62
     4
 10
-150.5
 20
-100.0
 30
0.0
 11
-190.5
 21
-100.0
 31
0.0
  0
LINE
  8
NOTE
  6
CONTINUOUS
 62
     4
 10
170.5
 20
80.0
 30
0.0
 11
170.5
 21
120.0
 31
0.0
  0
LINE
  8
NOTE
  6
CONTINUOUS
 62
     4
 10
150.5
 20
100.0
 30
0.0
 11
190.5
 21
100.0
 31
0.0
  0
LINE
  8
NOTE
  6
CONTINUOUS
 62
     4
 10
170.5
 20
-120.0
 30
0.0
 11
170.5
 21
-80.0
 31
0.0
  0
LINE
  8
NOTE
  6
CONTINUOUS
 62
     4
 10
150.5
 20
-100.0
 30
0.0
 11
190.5
 21
-100.0
 31
0.0
  0
LINE
  8
NOTE
  6
CONTINUOUS
 62
     4
 10
-170.5
 20
80.0
 30
0.0
 11
-170.5
 21
120.0
 31
0.0
  0
LINE
  8
NOTE
  6
CONTINUOUS
 62
     4
 10
-150.5
 20
100.0
 30
0.0
 11
-190.5
 21
100.0
 31
0.0
  0
LINE
  8
NOTE
  6
CONTINUOUS
 62
     4
 10
-80.0
 20
165.5
 30
0.0
 11
-120.0
 21
165.5
 31
0.0
  0
LINE
  8
NOTE
  6
CONTINUOUS
 62
     4
 10
-100.0
 20
185.5
 30
0.0
 11
-100.0
 21
145.5
 31
0.0
  0
LINE
  8
NOTE
  6
CONTINUOUS
 62
     4
 10
-153.5
 20
-165.5
 30
0.0
 11
-113.5
 21
-165.5
 31
0.0
  0
LINE
  8
NOTE
  6
CONTINUOUS
 62
     4
 10
-133.4999999999998
 20
-185.5
 30
0.0
 11
-133.4999999999998
 21
-145.5
 31
0.0
  0
LINE
  8
NOTE
  6
CONTINUOUS
 62
     4
 10
80.0
 20
-165.5
 30
0.0
 11
120.0
 21
-165.5
 31
0.0
  0
LINE
  8
NOTE
  6
CONTINUOUS
 62
     4
 10
100.0
 20
-185.5
 30
0.0
 11
100.0
 21
-145.5
 31
0.0
  0
LINE
  8
NOTE
  6
CONTINUOUS
 62
     4
 10
114.0
 20
-130.0
 30
0.0
 11
154.0
 21
-130.0
 31
0.0
  0
LINE
  8
NOTE
  6
CONTINUOUS
 62
     4
 10
134.0
 20
-150.0
 30
0.0
 11
134.0
 21
-110.0
 31
0.0
  0
LINE
  8
NOTE
  6
CONTINUOUS
 62
     4
 10
-145.5
 20
100.0
 30
0.0
 11
-185.5
 21
100.0
 31
0.0
  0
LINE
  8
NOTE
  6
CONTINUOUS
 62
     4
 10
-165.5
 20
80.0
 30
0.0
 11
-165.5
 21
120.0
 31
0.0
  0
POINT
  8
ARRANGE
  6
CONTINUOUS
 62
     1
 10
0.0
 20
0.0
 30
0.0
  0
CIRCLE
  8
ARRANGE
  6
CONTINUOUS
 62
     1
 10
0.0
 20
0.0
 30
0.0
 40
40.0
  0
LINE
  8
OUTLINE
  6
CONTINUOUS
 62
     3
 10
-6.000182999999879
 20
-190.0
 30
0.0
 11
172.0
 21
-190.0
 31
0.0
  0
LINE
  8
OUTLINE
  6
CONTINUOUS
 62
     3
 10
-172.0
 20
190.0
 30
0.0
 11
172.0
 21
190.0
 31
0.0
  0
LINE
  8
BASIS
  6
DASHDOT
 62
     6
 10
-39.59815100000003
 20
33.0
 30
0.0
 11
101.8668009999999
 21
33.0
 31
0.0
  0
LINE
  8
OUTLINE
  6
CONTINUOUS
 62
     3
 10
-190.0
 20
-172.0
 30
0.0
 11
-190.0
 21
172.0
 31
0.0
  0
ARC
  8
OUTLINE
  6
CONTINUOUS
 62
     3
 10
-172.0
 20
-172.0
 30
0.0
 40
18.0
 50
180.0
 51
270.0
  0
ARC
  8
OUTLINE
  6
CONTINUOUS
 62
     3
 10
-172.0
 20
172.0
 30
0.0
 40
18.0
 50
90.0
 51
180.0
  0
LINE
  8
OUTLINE
  6
CONTINUOUS
 62
     3
 10
190.0
 20
-172.0
 30
0.0
 11
190.0
 21
172.0
 31
0.0
  0
LINE
  8
BASIS
  6
DASHDOT
 62
     6
 10
30.0
 20
-26.188729999999961
 30
0.0
 11
30.0
 21
90.684721999999965
 31
0.0
  0
ARC
  8
OUTLINE
  6
CONTINUOUS
 62
     3
 10
172.0
 20
-172.0
 30
0.0
 40
18.0
 50
270.0
 51
0.0
  0
ARC
  8
OUTLINE
  6
CONTINUOUS
 62
     3
 10
172.0
 20
172.0
 30
0.0
 40
18.0
 50
0.0
 51
90.0
  0
LINE
  8
NOTE
  6
CONTINUOUS
 62
     4
 10
-201.792912
 20
124.7581150000001
 30
0.0
 11
-170.368212
 21
100.00961600000009
 31
0.0
  0
LINE
  8
NOTE
  6
CONTINUOUS
 62
     4
 10
-170.368212
 20
100.00961600000009
 30
0.0
 11
-185.20855099999989
 21
137.15479499999989
 31
0.0
  0
LINE
  8
NOTE
  6
CONTINUOUS
 62
     4
 10
-129.34278100000009
 20
192.68457699999999
 30
0.0
 11
-100.0
 21
165.5
 31
0.0
  0
LINE
  8
NOTE
  6
CONTINUOUS
 62
     4
 10
-100.0
 20
165.5
 30
0.0
 11
-111.819305
 21
203.71392399999991
 31
0.0
  0
LINE
  8
NOTE
  6
CONTINUOUS
 62
     4
 10
136.10040099999989
 20
-169.94481599999989
 30
0.0
 11
134.0
 21
-130.0
 31
0.0
  0
LINE
  8
NOTE
  6
CONTINUOUS
 62
     4
 10
134.0
 20
-130.0
 30
0.0
 11
155.79140799999979
 21
-163.5430249999998
 31
0.0
  0
LINE
  8
OUTLINE
  6
CONTINUOUS
 62
     3
 10
-172.0
 20
-190.0
 30
0.0
 11
-158.4999999999998
 21
-190.0
 31
0.0
  0
LINE
  8
OUTLINE
  6
CONTINUOUS
 62
     3
 10
-158.4999999999998
 20
-190.0
 30
0.0
 11
0.0
 21
-190.0
 31
0.0
  0
LINE
  8
OUTLINE
  6
CONTINUOUS
 62
     3
 10
-85.500182999999993
 20
-377.5
 30
0.0
 11
-12.5
 21
-377.5
 31
0.0
  0
LINE
  8
OUTLINE
  6
CONTINUOUS
 62
     3
 10
-158.4999999999998
 20
-377.5
 30
0.0
 11
-85.500182999999993
 21
-377.5
 31
0.0
  0
LINE
  8
OUTLINE
  6
CONTINUOUS
 62
     3
 10
42.5
 20
-197.99999700000001
 30
0.0
 11
42.5
 21
-297.5
 31
0.0
  0
LINE
  8
OUTLINE
  6
CONTINUOUS
 62
     3
 10
-6.0001830000001064
 20
-248.4999999999998
 30
0.0
 11
-6.0001830000001064
 21
-309.5
 31
0.0
  0
LINE
  8
OUTLINE
  6
CONTINUOUS
 62
     3
 10
-6.0001830000001064
 20
-297.5
 30
0.0
 11
42.5
 21
-297.5
 31
0.0
  0
LINE
  8
OUTLINE
  6
CONTINUOUS
 62
     3
 10
-6.0001830000001064
 20
-308.0
 30
0.0
 11
-6.0001830000007317
 21
-190.0
 31
0.0
  0
LINE
  8
OUTLINE
  6
CONTINUOUS
 62
     3
 10
-6.0001830000001064
 20
-309.5
 30
0.0
 11
-24.06879200000003
 21
-309.5
 31
0.0
  0
LINE
  8
OUTLINE
  6
CONTINUOUS
 62
     3
 10
-24.068792000000659
 20
-190.0
 30
0.0
 11
-24.06879200000003
 21
-309.5
 31
0.0
  0
LINE
  8
OUTLINE
  6
CONTINUOUS
 62
     3
 10
42.5
 20
-197.99999700000001
 30
0.0
 11
-6.0001830000001064
 21
-197.99999700000001
 31
0.0
  0
LINE
  8
OUTLINE
  6
CONTINUOUS
 62
     3
 10
-158.4999999999998
 20
-377.5
 30
0.0
 11
-158.5000000000004
 21
-188.50000299999971
 31
0.0
  0
LINE
  8
OUTLINE
  6
CONTINUOUS
 62
     3
 10
-12.5
 20
-377.5
 30
0.0
 11
-12.5
 21
-309.5
 31
0.0
  0
TEXT
  8
ETC
  6
CONTINUOUS
 62
    61
 10
477.59854527020917
 20
977.77401936864817
 30
0.0
 40
64.0
  1
VD-20ZDS13-W_1
 41
0.9
  0
TEXT
  8
ETC
  6
CONTINUOUS
 62
    61
 10
475.25960527020919
 20
879.53990736864785
 30
0.0
 40
64.0
  1
換気扇
 41
0.9
  0
TEXT
  8
ETC
  6
CONTINUOUS
 62
    61
 10
613.7806434167951
 20
795.16289238377431
 30
0.0
 40
50.0
  1
VD-20ZDS13-W
 41
0.9
  0
ENDSEC
  0
EOF
