  0
SECTION
  2
HEADER
  9
$ACADVER
  1
AC1009
  9
$INSBASE
 10
0.0
 20
0.0
 30
0.0
  9
$EXTMIN
 10
-481.29270072245708
 20
-797.15421948017865
 30
-0.0015258207003583
  9
$EXTMAX
 10
1219.5739906974741
 20
634.91364636564685
 30
0.0000000349246037
  9
$LIMMIN
 10
-4200.0
 20
-2970.0
  9
$LIMMAX
 10
4200.0
 20
2970.0
  9
$ORTHOMODE
 70
     1
  9
$REGENMODE
 70
     0
  9
$FILLMODE
 70
     1
  9
$QTEXTMODE
 70
     0
  9
$MIRRTEXT
 70
     0
  9
$DRAGMODE
 70
     2
  9
$LTSCALE
 40
20.0
  9
$OSMODE
 70
    32
  9
$ATTMODE
 70
     1
  9
$TEXTSIZE
 40
64.0
  9
$TRACEWID
 40
0.05
  9
$TEXTSTYLE
  7
STANDARD
  9
$CLAYER
  8
ETC
  9
$CELTYPE
  6
CONTINUOUS
  9
$CECOLOR
 62
     8
  9
$DIMSCALE
 40
1.0
  9
$DIMASZ
 40
2.0
  9
$DIMEXO
 40
20.0
  9
$DIMDLI
 40
200.0
  9
$DIMRND
 40
0.0
  9
$DIMDLE
 40
0.0
  9
$DIMEXE
 40
30.0
  9
$DIMTP
 40
0.0
  9
$DIMTM
 40
0.0
  9
$DIMTXT
 40
64.0
  9
$DIMCEN
 40
0.09
  9
$DIMTSZ
 40
0.0
  9
$DIMTOL
 70
     0
  9
$DIMLIM
 70
     0
  9
$DIMTIH
 70
     0
  9
$DIMTOH
 70
     0
  9
$DIMSE1
 70
     0
  9
$DIMSE2
 70
     0
  9
$DIMTAD
 70
     1
  9
$DIMZIN
 70
     8
  9
$DIMBLK
  1

  9
$DIMASO
 70
     1
  9
$DIMSHO
 70
     0
  9
$DIMPOST
  1

  9
$DIMAPOST
  1

  9
$DIMALT
 70
     0
  9
$DIMALTD
 70
     2
  9
$DIMALTF
 40
25.399999999999999
  9
$DIMLFAC
 40
1.0
  9
$DIMTOFL
 70
     1
  9
$DIMTVP
 40
0.0
  9
$DIMTIX
 70
     1
  9
$DIMSOXD
 70
     0
  9
$DIMSAH
 70
     0
  9
$DIMBLK1
  1

  9
$DIMBLK2
  1

  9
$DIMSTYLE
  2
STANDARD
  9
$DIMCLRD
 70
     0
  9
$DIMCLRE
 70
     0
  9
$DIMCLRT
 70
     0
  9
$DIMTFAC
 40
1.0
  9
$DIMGAP
 40
0.09
  9
$LUNITS
 70
     2
  9
$LUPREC
 70
     4
  9
$SKETCHINC
 40
0.1
  9
$FILLETRAD
 40
0.0
  9
$AUNITS
 70
     1
  9
$AUPREC
 70
     3
  9
$MENU
  1
ACAD
  9
$ELEVATION
 40
0.0
  9
$PELEVATION
 40
0.0
  9
$THICKNESS
 40
0.0
  9
$LIMCHECK
 70
     1
  9
$BLIPMODE
 70
     0
  9
$CHAMFERA
 40
0.0
  9
$CHAMFERB
 40
0.0
  9
$SKPOLY
 70
     0
  9
$TDCREATE
 40
2451996.386296297
  9
$TDUPDATE
 40
2454740.556227766
  9
$TDINDWG
 40
0.0042706366
  9
$TDUSRTIMER
 40
0.0042706366
  9
$USRTIMER
 70
     1
  9
$ANGBASE
 50
0.0
  9
$ANGDIR
 70
     0
  9
$PDMODE
 70
     3
  9
$PDSIZE
 40
-2.0
  9
$PLINEWID
 40
0.0
  9
$COORDS
 70
     1
  9
$SPLFRAME
 70
     0
  9
$SPLINETYPE
 70
     6
  9
$SPLINESEGS
 70
     8
  9
$ATTDIA
 70
     0
  9
$ATTREQ
 70
     1
  9
$HANDLING
 70
     1
  9
$HANDSEED
  5
2D8
  9
$SURFTAB1
 70
     6
  9
$SURFTAB2
 70
     6
  9
$SURFTYPE
 70
     6
  9
$SURFU
 70
     6
  9
$SURFV
 70
     6
  9
$UCSNAME
  2

  9
$UCSORG
 10
0.0
 20
0.0
 30
0.0
  9
$UCSXDIR
 10
1.0
 20
0.0
 30
0.0
  9
$UCSYDIR
 10
0.0
 20
1.0
 30
0.0
  9
$PUCSNAME
  2

  9
$PUCSORG
 10
0.0
 20
0.0
 30
0.0
  9
$PUCSXDIR
 10
1.0
 20
0.0
 30
0.0
  9
$PUCSYDIR
 10
0.0
 20
1.0
 30
0.0
  9
$USERI1
 70
     0
  9
$USERI2
 70
     0
  9
$USERI3
 70
     0
  9
$USERI4
 70
     0
  9
$USERI5
 70
     0
  9
$USERR1
 40
20.0
  9
$USERR2
 40
0.0
  9
$USERR3
 40
0.0
  9
$USERR4
 40
0.0
  9
$USERR5
 40
0.0
  9
$WORLDVIEW
 70
     1
  9
$SHADEDGE
 70
     3
  9
$SHADEDIF
 70
    70
  9
$TILEMODE
 70
     1
  9
$MAXACTVP
 70
    64
  9
$PLIMCHECK
 70
     0
  9
$PEXTMIN
 10
1.0000000000000000E+020
 20
1.0000000000000000E+020
 30
1.0000000000000000E+020
  9
$PEXTMAX
 10
-1.0000000000000000E+020
 20
-1.0000000000000000E+020
 30
-1.0000000000000000E+020
  9
$PLIMMIN
 10
0.0
 20
0.0
  9
$PLIMMAX
 10
12.0
 20
9.0
  9
$UNITMODE
 70
     0
  9
$VISRETAIN
 70
     1
  9
$PLINEGEN
 70
     0
  9
$PSLTSCALE
 70
     1
  0
ENDSEC
  0
SECTION
  2
TABLES
  0
TABLE
  2
VPORT
 70
     1
  0
VPORT
  2
*ACTIVE
 70
     0
 10
0.0
 20
0.0
 11
1.0
 21
1.0
 12
477.85752085025109
 22
-122.1158667042659
 13
0.0
 23
0.0
 14
400.0
 24
400.0
 15
400.0
 25
400.0
 16
0.0
 26
0.0
 36
1.0
 17
0.0
 27
0.0
 37
0.0
 40
1618.049273818106
 41
1.7517337031900131
 42
50.0
 43
0.0
 44
0.0
 50
0.0
 51
0.0
 71
     0
 72
   500
 73
     1
 74
     0
 75
     0
 76
     0
 77
     0
 78
     2
  0
ENDTAB
  0
TABLE
  2
LTYPE
 70
     8
  0
LTYPE
  2
CONTINUOUS
 70
     0
  3
実線
 72
    65
 73
     0
 40
0.0
  0
LTYPE
  2
DOT
 70
     0
  3
...............................................
 72
    65
 73
     2
 40
0.8
 49
0.5
 49
-0.3
  0
LTYPE
  2
DASHED
 70
     0
  3
_ _ _ _ _ _ _ _ _ _ _ _ _ _ _ _ _ _ _ _ _ _ _
 72
    65
 73
     2
 40
2.0
 49
1.1999999999999991
 49
-0.8
  0
LTYPE
  2
DASHDOT
 70
     0
  3
____ _ ____ _ ____ _ ____ _ ____ _ ____ _ ____
 72
    65
 73
     4
 40
5.5
 49
4.0
 49
-0.6
 49
0.3
 49
-0.6
  0
LTYPE
  2
DASHDOT1
 70
     0
  3
____ _ ____ _ ____ _ ____ _ ____ _ ____ _ ____
 72
    65
 73
     4
 40
2.0
 49
1.5
 49
-0.2
 49
0.1
 49
-0.2
  0
LTYPE
  2
DIVIDE
 70
     0
  3
_____ _ _ _____ _ _ _____ _ _ _____ _ _ ____
 72
    65
 73
     6
 40
6.4000000000000004
 49
4.0
 49
-0.6
 49
0.3
 49
-0.6
 49
0.3
 49
-0.6
  0
LTYPE
  2
DIVIDE1
 70
     0
  3
_____ _ _ _____ _ _ _____ _ _ _____ _ _ ____
 72
    65
 73
     6
 40
3.2000000000000002
 49
2.0
 49
-0.3
 49
0.15
 49
-0.3
 49
0.15
 49
-0.3
  0
ENDTAB
  0
TABLE
  2
LAYER
 70
    12
  0
LAYER
  2
0
 70
     0
 62
     7
  6
CONTINUOUS
  0
LAYER
  2
OUTLINE
 70
     0
 62
     3
  6
CONTINUOUS
  0
LAYER
  2
DETAIL
 70
     0
 62
     5
  6
CONTINUOUS
  0
LAYER
  2
BASIS
 70
     0
 62
     6
  6
DASHDOT
  0
LAYER
  2
SIZE
 70
     0
 62
    30
  6
CONTINUOUS
  0
LAYER
  2
NOTE
 70
     0
 62
     4
  6
CONTINUOUS
  0
LAYER
  2
ARRANGE
 70
     0
 62
     1
  6
CONTINUOUS
  0
LAYER
  2
SERVICESPACE
 70
     0
 62
     2
  6
DASHDOT
  0
LAYER
  2
ETC
 70
     0
 62
    61
  6
CONTINUOUS
  0
LAYER
  2
DEFPOINTS
 70
     0
 62
     7
  6
CONTINUOUS
  0
LAYER
  2
FIX
 70
     0
 62
    11
  6
CONTINUOUS
  0
LAYER
  2
SYMBOLLINE
 70
     0
 62
    15
  6
CONTINUOUS
  0
ENDTAB
  0
TABLE
  2
STYLE
 70
     2
  0
STYLE
  2
STANDARD
 70
     0
 40
0.0
 41
0.9
 50
0.0
 71
     0
 42
64.0
  3
SIMPLEX
  4
BIGFONT
  0
STYLE
  2
ANNOTATIVE
 70
     0
 40
0.0
 41
1.0
 50
0.0
 71
     0
 42
0.2
  3
txt
  4

  0
ENDTAB
  0
TABLE
  2
VIEW
 70
     1
  0
VIEW
  2
ALL
 70
     0
 40
6374.9789810000002
 10
0.0
 20
58.11501599999999
 41
8842.1052629999976
 11
0.0
 21
0.0
 31
1.0
 12
0.0
 22
0.0
 32
0.0
 42
50.0
 43
0.0
 44
0.0
 50
0.0
 71
     0
  0
ENDTAB
  0
TABLE
  2
UCS
 70
     0
  0
ENDTAB
  0
TABLE
  2
APPID
 70
     4
  0
APPID
  2
ACAD
 70
     0
  0
APPID
  2
ACADANNOTATIVE
 70
     0
  0
APPID
  2
ACAD_MLEADERVER
 70
     0
  0
APPID
  2
ACAD_EXEMPT_FROM_CAD_STANDARDS
 70
     0
  0
ENDTAB
  0
TABLE
  2
DIMSTYLE
 70
     2
  0
DIMSTYLE
  2
STANDARD
 70
     0
  3

  4

  5

  6

  7

 40
1.0
 41
0.18
 42
0.0625
 43
0.38
 44
0.18
 45
0.0
 46
0.0
 47
0.0
 48
0.0
140
0.18
141
0.09
142
0.0
143
25.399999999999999
144
1.0
145
0.0
146
1.0
147
0.09
 71
     0
 72
     0
 73
     1
 74
     1
 75
     0
 76
     0
 77
     0
 78
     0
170
     0
171
     2
172
     0
173
     0
174
     0
175
     0
176
     0
177
     0
178
     0
  0
DIMSTYLE
  2
ANNOTATIVE
 70
     0
  3

  4

  5

  6

  7

 40
1.0
 41
0.18
 42
0.0625
 43
0.38
 44
0.18
 45
0.0
 46
0.0
 47
0.0
 48
0.0
140
0.18
141
0.09
142
0.0
143
25.399999999999999
144
1.0
145
0.0
146
1.0
147
0.09
 71
     0
 72
     0
 73
     1
 74
     1
 75
     0
 76
     0
 77
     0
 78
     0
170
     0
171
     2
172
     0
173
     0
174
     0
175
     0
176
     0
177
     0
178
     0
  0
ENDTAB
  0
ENDSEC
  0
SECTION
  2
BLOCKS
  0
BLOCK
  8
0
  2
$MODEL_SPACE
 70
     0
 10
0.0
 20
0.0
 30
0.0
  3
$MODEL_SPACE
  1

  0
ENDBLK
  5
281
  8
0
  0
BLOCK
 67
     1
  8
0
  2
$PAPER_SPACE
 70
     0
 10
0.0
 20
0.0
 30
0.0
  3
$PAPER_SPACE
  1

  0
ENDBLK
  5
27D
 67
     1
  8
0
  0
ENDSEC
  0
SECTION
  2
ENTITIES
  0
LINE
  5
14A
  8
BASIS
  6
DASHDOT
 62
     6
 10
-220.056172
 20
0.0
 30
0.0
 11
237.121892
 21
0.0
 31
0.0
  0
LINE
  5
14B
  8
DETAIL
  6
CONTINUOUS
 62
     5
 10
-85.500182999999964
 20
-377.49999999999989
 30
0.0
 11
-12.5
 21
-377.49999999999989
 31
0.0
  0
LINE
  5
14C
  8
DETAIL
  6
CONTINUOUS
 62
     5
 10
-158.4999999999998
 20
-377.49999999999989
 30
0.0
 11
-85.500182999999964
 21
-377.49999999999989
 31
0.0
  0
LINE
  5
14D
  8
DETAIL
  6
CONTINUOUS
 62
     5
 10
42.5
 20
-197.99999700000001
 30
0.0
 11
42.5
 21
-297.5
 31
0.0
  0
LINE
  5
14E
  8
DETAIL
  6
CONTINUOUS
 62
     5
 10
-6.000182999999998
 20
-248.4999999999998
 30
0.0
 11
-6.000182999999998
 21
-309.5
 31
0.0
  0
LINE
  5
14F
  8
DETAIL
  6
CONTINUOUS
 62
     5
 10
-6.000182999999998
 20
-297.5
 30
0.0
 11
42.5
 21
-297.5
 31
0.0
  0
LINE
  5
150
  8
DETAIL
  6
CONTINUOUS
 62
     5
 10
-6.000182999999998
 20
-308.0
 30
0.0
 11
-6.000182999999998
 21
-190.0
 31
0.0
  0
LINE
  5
151
  8
DETAIL
  6
CONTINUOUS
 62
     5
 10
-6.000182999999998
 20
-309.5
 30
0.0
 11
-24.068791999999998
 21
-309.5
 31
0.0
  0
LINE
  5
152
  8
DETAIL
  6
CONTINUOUS
 62
     5
 10
-24.068791999999998
 20
-190.0
 30
0.0
 11
-24.068791999999998
 21
-309.5
 31
0.0
  0
LINE
  5
153
  8
DETAIL
  6
CONTINUOUS
 62
     5
 10
42.5
 20
-197.99999700000001
 30
0.0
 11
-6.000182999999998
 21
-197.99999700000001
 31
0.0
  0
LINE
  5
154
  8
BASIS
  6
DASHDOT
 62
     6
 10
-85.5
 20
-407.69923699999998
 30
0.0
 11
-85.5
 21
-136.029404
 31
0.0
  0
LINE
  5
155
  8
BASIS
  6
DASHDOT
 62
     6
 10
0.0
 20
-432.34308999999979
 30
0.0
 11
0.0
 21
231.202743
 31
0.0
  0
ARC
  5
156
  8
DETAIL
  6
CONTINUOUS
 62
     5
 10
-172.0
 20
-172.0
 30
0.0
 40
18.0
 50
180.0
 51
270.0
  0
LINE
  5
157
  8
DETAIL
  6
CONTINUOUS
 62
     5
 10
-190.0
 20
-172.0
 30
0.0
 11
-190.0
 21
172.0
 31
0.0
  0
ARC
  5
158
  8
DETAIL
  6
CONTINUOUS
 62
     5
 10
-172.0
 20
172.0
 30
0.0
 40
18.0
 50
90.0
 51
180.0
  0
LINE
  5
159
  8
DETAIL
  6
CONTINUOUS
 62
     5
 10
-172.0
 20
190.0
 30
0.0
 11
172.0
 21
190.0
 31
0.0
  0
ARC
  5
15A
  8
DETAIL
  6
CONTINUOUS
 62
     5
 10
172.0
 20
172.0
 30
0.0
 40
18.0
 50
0.0
 51
90.0
  0
LINE
  5
15B
  8
DETAIL
  6
CONTINUOUS
 62
     5
 10
190.0
 20
-172.0
 30
0.0
 11
190.0
 21
172.0
 31
0.0
  0
ARC
  5
15C
  8
DETAIL
  6
CONTINUOUS
 62
     5
 10
172.0
 20
-172.0
 30
0.0
 40
18.0
 50
270.0
 51
0.0
  0
LINE
  5
15D
  8
DETAIL
  6
CONTINUOUS
 62
     5
 10
-158.4999999999998
 20
-377.49999999999989
 30
0.0
 11
-158.4999999999998
 21
-190.0
 31
0.0
  0
LINE
  5
15E
  8
DETAIL
  6
CONTINUOUS
 62
     5
 10
-12.5
 20
-377.49999999999989
 30
0.0
 11
-12.5
 21
-190.0
 31
0.0
  0
TEXT
  5
15F
  8
NOTE
  6
CONTINUOUS
 62
     4
 10
-129.0219739999998
 20
-473.73357999999968
 30
0.0
 40
64.0
  1
EA
 41
0.9
  0
LINE
  5
160
  8
SERVICESPACE
  6
DASHDOT
 62
     2
 10
157.5
 20
-157.5
 30
0.0
 11
-157.5
 21
157.5
 31
0.0
  0
LINE
  5
161
  8
SERVICESPACE
  6
DASHDOT
 62
     2
 10
157.5
 20
157.5
 30
0.0
 11
-157.5
 21
-157.5
 31
0.0
  0
LINE
  5
162
  8
SERVICESPACE
  6
DASHDOT
 62
     2
 10
157.5
 20
-157.5
 30
0.0
 11
157.5
 21
157.5
 31
0.0
  0
LINE
  5
163
  8
SERVICESPACE
  6
DASHDOT
 62
     2
 10
-157.5
 20
157.5
 30
0.0
 11
157.5
 21
157.5
 31
0.0
  0
LINE
  5
164
  8
SERVICESPACE
  6
DASHDOT
 62
     2
 10
-157.5
 20
-157.5
 30
0.0
 11
-157.5
 21
157.5
 31
0.0
  0
LINE
  5
165
  8
SERVICESPACE
  6
DASHDOT
 62
     2
 10
-157.5
 20
-157.5
 30
0.0
 11
157.5
 21
-157.5
 31
0.0
  0
TEXT
  5
166
  8
NOTE
  6
CONTINUOUS
 62
     4
 10
537.69480999999985
 20
-201.77045899999999
 30
0.0
 40
64.0
  1
天井開口寸法
 50
90.0
 41
0.9
  0
LINE
  5
167
  8
DETAIL
  6
CONTINUOUS
 62
     5
 10
-172.0
 20
-190.0
 30
0.0
 11
172.0
 21
-190.0
 31
0.0
  0
LINE
  5
168
  8
SIZE
  6
CONTINUOUS
 62
    30
 10
-89.500000000000014
 20
-632.68962299999998
 30
0.0
 11
-374.30447400000003
 21
-632.68962299999998
 31
0.0
  0
LINE
  5
169
  8
SIZE
  6
CONTINUOUS
 62
    30
 10
44.5
 20
-562.29579699999977
 30
0.0
 11
313.86255799999992
 21
-562.29579699999977
 31
0.0
  0
LINE
  5
16A
  8
SIZE
  6
CONTINUOUS
 62
    30
 10
-160.4999999999998
 20
-766.79434100000003
 30
0.0
 11
-405.90397999999982
 21
-766.79434100000003
 31
0.0
  0
LINE
  5
16B
  8
DETAIL
  6
CONTINUOUS
 62
     5
 10
162.464102
 20
-164.46410199999991
 30
0.0
 11
-63.934134
 21
-164.46410199999991
 31
0.0
  0
LINE
  5
16C
  8
DETAIL
  6
CONTINUOUS
 62
     5
 10
160.56066000000001
 20
-160.56066000000001
 30
0.0
 11
163.8783149999999
 21
-163.8783149999999
 31
0.0
  0
ARC
  5
16D
  8
DETAIL
  6
CONTINUOUS
 62
     5
 10
162.464102
 20
-162.464102
 30
0.0
 40
2.0
 50
270.0
 51
0.0
  0
ARC
  5
16E
  8
DETAIL
  6
CONTINUOUS
 62
     5
 10
162.464102
 20
162.464102
 30
0.0
 40
2.0
 50
0.0
 51
90.0
  0
LINE
  5
16F
  8
DETAIL
  6
CONTINUOUS
 62
     5
 10
160.56066000000001
 20
160.56066000000001
 30
0.0
 11
163.8783149999999
 21
163.8783149999999
 31
0.0
  0
LINE
  5
170
  8
DETAIL
  6
CONTINUOUS
 62
     5
 10
164.46410199999991
 20
-162.464102
 30
0.0
 11
164.46410199999991
 21
162.464102
 31
0.0
  0
LINE
  5
171
  8
DETAIL
  6
CONTINUOUS
 62
     5
 10
-88.537785999999983
 20
164.46410199999991
 30
0.0
 11
162.464102
 21
164.46410199999991
 31
0.0
  0
LINE
  5
172
  8
DETAIL
  6
CONTINUOUS
 62
     5
 10
-166.5
 20
177.5
 30
0.0
 11
166.5
 21
177.5
 31
0.0
  0
LINE
  5
173
  8
DETAIL
  6
CONTINUOUS
 62
     5
 10
-166.49999600000001
 20
-177.5
 30
0.0
 11
166.5
 21
-177.5
 31
0.0
  0
LINE
  5
174
  8
DETAIL
  6
CONTINUOUS
 62
     5
 10
-159.4999999999998
 20
-161.0
 30
0.0
 11
159.4999999999998
 21
-161.0
 31
0.0
  0
LINE
  5
175
  8
DETAIL
  6
CONTINUOUS
 62
     5
 10
-159.4999999999998
 20
161.0
 30
0.0
 11
159.4999999999998
 21
161.0
 31
0.0
  0
LINE
  5
176
  8
DETAIL
  6
CONTINUOUS
 62
     5
 10
161.0
 20
-159.4999999999998
 30
0.0
 11
161.0
 21
159.4999999999998
 31
0.0
  0
LINE
  5
177
  8
DETAIL
  6
CONTINUOUS
 62
     5
 10
177.5
 20
-166.5
 30
0.0
 11
177.5
 21
166.5
 31
0.0
  0
ARC
  5
178
  8
DETAIL
  6
CONTINUOUS
 62
     5
 10
159.4999999999998
 20
-159.4999999999998
 30
0.0
 40
1.5
 50
270.0
 51
0.0
  0
ARC
  5
179
  8
DETAIL
  6
CONTINUOUS
 62
     5
 10
166.5
 20
166.5
 30
0.0
 40
11.0
 50
0.0
 51
90.0
  0
ARC
  5
17A
  8
DETAIL
  6
CONTINUOUS
 62
     5
 10
159.4999999999998
 20
159.4999999999998
 30
0.0
 40
1.5
 50
0.0
 51
90.0
  0
LINE
  5
17B
  8
DETAIL
  6
CONTINUOUS
 62
     5
 10
177.5
 20
-147.5
 30
0.0
 11
177.5
 21
147.5
 31
0.0
  0
ARC
  5
17C
  8
DETAIL
  6
CONTINUOUS
 62
     5
 10
-166.5
 20
166.5
 30
0.0
 40
11.0
 50
90.0
 51
180.0
  0
LINE
  5
17D
  8
DETAIL
  6
CONTINUOUS
 62
     5
 10
-177.5
 20
-166.5
 30
0.0
 11
-177.5
 21
166.5
 31
0.0
  0
LINE
  5
17E
  8
DETAIL
  6
CONTINUOUS
 62
     5
 10
-164.46410199999991
 20
-162.464102
 30
0.0
 11
-164.46410199999991
 21
162.464102
 31
0.0
  0
LINE
  5
17F
  8
DETAIL
  6
CONTINUOUS
 62
     5
 10
88.537785999999983
 20
164.46410199999991
 30
0.0
 11
-162.464102
 21
164.46410199999991
 31
0.0
  0
LINE
  5
180
  8
DETAIL
  6
CONTINUOUS
 62
     5
 10
-162.464102
 20
-164.46410199999991
 30
0.0
 11
63.934134
 21
-164.46410199999991
 31
0.0
  0
ARC
  5
181
  8
DETAIL
  6
CONTINUOUS
 62
     5
 10
-159.4999999999998
 20
-159.4999999999998
 30
0.0
 40
1.5
 50
180.0
 51
270.0
  0
ARC
  5
182
  8
DETAIL
  6
CONTINUOUS
 62
     5
 10
-162.464102
 20
-162.464102
 30
0.0
 40
2.0
 50
180.0
 51
270.0
  0
LINE
  5
183
  8
DETAIL
  6
CONTINUOUS
 62
     5
 10
-160.56066000000001
 20
-160.56066000000001
 30
0.0
 11
-163.8783149999999
 21
-163.8783149999999
 31
0.0
  0
ARC
  5
184
  8
DETAIL
  6
CONTINUOUS
 62
     5
 10
-159.4999999999998
 20
159.4999999999998
 30
0.0
 40
1.5
 50
90.0
 51
180.0
  0
LINE
  5
185
  8
DETAIL
  6
CONTINUOUS
 62
     5
 10
-160.56066000000001
 20
160.56066000000001
 30
0.0
 11
-163.8783149999999
 21
163.8783149999999
 31
0.0
  0
ARC
  5
186
  8
DETAIL
  6
CONTINUOUS
 62
     5
 10
-162.464102
 20
162.464102
 30
0.0
 40
2.0
 50
90.0
 51
180.0
  0
LINE
  5
187
  8
DETAIL
  6
CONTINUOUS
 62
     5
 10
-161.0
 20
-159.4999999999998
 30
0.0
 11
-161.0
 21
159.4999999999998
 31
0.0
  0
ARC
  5
188
  8
DETAIL
  6
CONTINUOUS
 62
     5
 10
-166.5
 20
-166.5
 30
0.0
 40
11.0
 50
180.0
 51
270.0
  0
ARC
  5
189
  8
DETAIL
  6
CONTINUOUS
 62
     5
 10
166.5
 20
-166.5
 30
0.0
 40
11.0
 50
270.0
 51
0.0
  0
LINE
  5
18A
  8
SIZE
  6
BYBLOCK
 62
    30
 10
177.5
 20
177.5
 30
0.0
 11
177.5
 21
360.51950699999992
 31
0.0
  0
LINE
  5
18B
  8
SIZE
  6
BYBLOCK
 62
    30
 10
-177.5
 20
186.5
 30
0.0
 11
-177.5
 21
360.51950699999992
 31
0.0
  0
LINE
  5
18C
  8
SIZE
  6
BYBLOCK
 62
    30
 10
175.5
 20
330.51950699999992
 30
0.0
 11
0.0
 21
330.51950699999992
 31
0.0
  0
LINE
  5
18D
  8
SIZE
  6
BYBLOCK
 62
    30
 10
-175.5
 20
330.51950699999992
 30
0.0
 11
0.0
 21
330.51950699999992
 31
0.0
  0
TEXT
  5
18E
  8
SIZE
  6
BYBLOCK
 62
    30
 10
-106.6971429999999
 20
362.51950699999992
 30
0.0
 40
64.0
  1
□355
 41
0.9
  0
LINE
  5
18F
  8
SIZE
  6
BYBLOCK
 62
    30
 10
-178.5
 20
-377.49999999999989
 30
0.0
 11
-414.75449600000002
 21
-377.49999999999989
 31
0.0
  0
LINE
  5
190
  8
SIZE
  6
BYBLOCK
 62
    30
 10
-240.056172
 20
0.0
 30
0.0
 11
-414.75449600000002
 21
0.0
 31
0.0
  0
LINE
  5
191
  8
SIZE
  6
BYBLOCK
 62
    30
 10
-384.75449600000002
 20
-375.49999999999989
 30
0.0
 11
-384.75449600000002
 21
-188.75
 31
0.0
  0
LINE
  5
192
  8
SIZE
  6
BYBLOCK
 62
    30
 10
-384.75449600000002
 20
-2.0
 30
0.0
 11
-384.75449600000002
 21
-188.75
 31
0.0
  0
TEXT
  5
193
  8
SIZE
  6
BYBLOCK
 62
    30
 10
-416.75449599999979
 20
-291.768125
 30
0.0
 40
64.0
  1
377.5
 50
90.0
 41
0.9
  0
LINE
  5
194
  8
SIZE
  6
BYBLOCK
 62
    30
 10
-85.5
 20
-427.69923699999998
 30
0.0
 11
-85.5
 21
-592.29579699999965
 31
0.0
  0
LINE
  5
195
  8
SIZE
  6
BYBLOCK
 62
    30
 10
42.5
 20
-317.5
 30
0.0
 11
42.5
 21
-592.29579699999965
 31
0.0
  0
LINE
  5
196
  8
SIZE
  6
BYBLOCK
 62
    30
 10
44.5
 20
-562.29579699999977
 30
0.0
 11
46.5
 21
-562.29579699999977
 31
0.0
  0
LINE
  5
197
  8
SIZE
  6
BYBLOCK
 62
    30
 10
-87.5
 20
-562.29579699999977
 30
0.0
 11
-89.500000000000014
 21
-562.29579699999977
 31
0.0
  0
LINE
  5
198
  8
SIZE
  6
BYBLOCK
 62
    30
 10
42.5
 20
-562.29579699999977
 30
0.0
 11
-85.5
 21
-562.29579699999977
 31
0.0
  0
TEXT
  5
199
  8
SIZE
  6
BYBLOCK
 62
    30
 10
165.79481999999979
 20
-530.29579699999999
 30
0.0
 40
64.0
  1
128
 41
0.9
  0
LINE
  5
19A
  8
SIZE
  6
BYBLOCK
 62
    30
 10
0.0
 20
-452.34309000000002
 30
0.0
 11
0.0
 21
-662.68962299999976
 31
0.0
  0
LINE
  5
19B
  8
SIZE
  6
BYBLOCK
 62
    30
 10
-85.5
 20
-427.69923699999998
 30
0.0
 11
-85.5
 21
-662.68962299999976
 31
0.0
  0
LINE
  5
19C
  8
SIZE
  6
BYBLOCK
 62
    30
 10
-87.5
 20
-632.68962299999998
 30
0.0
 11
-89.500000000000014
 21
-632.68962299999998
 31
0.0
  0
LINE
  5
19D
  8
SIZE
  6
BYBLOCK
 62
    30
 10
2.0
 20
-632.68962299999998
 30
0.0
 11
4.0
 21
-632.68962299999998
 31
0.0
  0
LINE
  5
19E
  8
SIZE
  6
BYBLOCK
 62
    30
 10
-85.5
 20
-632.68962299999998
 30
0.0
 11
0.0
 21
-632.68962299999998
 31
0.0
  0
TEXT
  5
19F
  8
SIZE
  6
BYBLOCK
 62
    30
 10
-369.57894599999992
 20
-600.6896230000001
 30
0.0
 40
64.0
  1
85.5
 41
0.9
  0
LINE
  5
1A0
  8
SIZE
  6
BYBLOCK
 62
    30
 10
-12.5
 20
-397.5
 30
0.0
 11
-12.5
 21
-796.79434100000003
 31
0.0
  0
LINE
  5
1A1
  8
SIZE
  6
BYBLOCK
 62
    30
 10
-158.4999999999998
 20
-397.5
 30
0.0
 11
-158.4999999999998
 21
-796.79434100000003
 31
0.0
  0
LINE
  5
1A2
  8
SIZE
  6
BYBLOCK
 62
    30
 10
-160.4999999999998
 20
-766.79434100000003
 30
0.0
 11
-162.5
 21
-766.79434100000003
 31
0.0
  0
LINE
  5
1A3
  8
SIZE
  6
BYBLOCK
 62
    30
 10
-10.5
 20
-766.79434100000003
 30
0.0
 11
-8.5
 21
-766.79434100000003
 31
0.0
  0
LINE
  5
1A4
  8
SIZE
  6
BYBLOCK
 62
    30
 10
-158.4999999999998
 20
-766.79434100000003
 30
0.0
 11
-12.5
 21
-766.79434100000003
 31
0.0
  0
TEXT
  5
1A5
  8
SIZE
  6
BYBLOCK
 62
    30
 10
-399.18549000000002
 20
-734.79434100000003
 30
0.0
 40
64.0
  1
φ146
 41
0.9
  0
LINE
  5
1A6
  8
SIZE
  6
BYBLOCK
 62
    30
 10
177.5
 20
157.5
 30
0.0
 11
467.15212400000001
 21
157.5
 31
0.0
  0
LINE
  5
1A7
  8
SIZE
  6
BYBLOCK
 62
    30
 10
177.5
 20
-157.5
 30
0.0
 11
467.15212400000001
 21
-157.5
 31
0.0
  0
LINE
  5
1A8
  8
SIZE
  6
BYBLOCK
 62
    30
 10
437.15212399999979
 20
155.4999999999998
 30
0.0
 11
437.15212399999979
 21
0.0
 31
0.0
  0
LINE
  5
1A9
  8
SIZE
  6
BYBLOCK
 62
    30
 10
437.15212399999979
 20
-155.4999999999998
 30
0.0
 11
437.15212399999979
 21
0.0
 31
0.0
  0
TEXT
  5
1AA
  8
SIZE
  6
BYBLOCK
 62
    30
 10
405.15212400000001
 20
-101.211429
 30
0.0
 40
64.0
  1
□315
 50
90.0
 41
0.9
  0
LINE
  5
1AB
  8
SIZE
  6
BYBLOCK
 62
    30
 10
190.0
 20
192.0
 30
0.0
 11
190.0
 21
491.70160499999992
 31
0.0
  0
LINE
  5
1AC
  8
SIZE
  6
BYBLOCK
 62
    30
 10
-190.0
 20
192.0
 30
0.0
 11
-190.0
 21
491.70160499999992
 31
0.0
  0
LINE
  5
1AD
  8
SIZE
  6
BYBLOCK
 62
    30
 10
188.0
 20
461.70160499999997
 30
0.0
 11
0.0
 21
461.70160499999997
 31
0.0
  0
LINE
  5
1AE
  8
SIZE
  6
BYBLOCK
 62
    30
 10
-188.0
 20
461.70160499999997
 30
0.0
 11
0.0
 21
461.70160499999997
 31
0.0
  0
TEXT
  5
1AF
  8
SIZE
  6
BYBLOCK
 62
    30
 10
-106.6971429999999
 20
493.70160499999992
 30
0.0
 40
64.0
  1
□380
 41
0.9
  0
CIRCLE
  5
1B0
  8
SIZE
  6
CONTINUOUS
 62
    30
 10
-190.0
 20
461.70160499999997
 30
0.0
 40
6.0
  0
CIRCLE
  5
1B1
  8
SIZE
  6
CONTINUOUS
 62
    30
 10
190.0
 20
461.70160499999997
 30
0.0
 40
6.0
  0
CIRCLE
  5
1B2
  8
SIZE
  6
CONTINUOUS
 62
    30
 10
437.15212399999979
 20
-157.5
 30
0.0
 40
6.0
  0
CIRCLE
  5
1B3
  8
SIZE
  6
CONTINUOUS
 62
    30
 10
437.15212399999979
 20
157.5
 30
0.0
 40
6.0
  0
CIRCLE
  5
1B4
  8
SIZE
  6
CONTINUOUS
 62
    30
 10
-12.5
 20
-766.79434100000003
 30
0.0
 40
6.0
  0
CIRCLE
  5
1B5
  8
SIZE
  6
CONTINUOUS
 62
    30
 10
-158.4999999999998
 20
-766.79434100000003
 30
0.0
 40
6.0
  0
CIRCLE
  5
1B6
  8
SIZE
  6
CONTINUOUS
 62
    30
 10
0.0
 20
-632.68962299999998
 30
0.0
 40
6.0
  0
CIRCLE
  5
1B7
  8
SIZE
  6
CONTINUOUS
 62
    30
 10
-85.5
 20
-632.68962299999998
 30
0.0
 40
6.0
  0
CIRCLE
  5
1B8
  8
SIZE
  6
CONTINUOUS
 62
    30
 10
-85.5
 20
-562.29579699999977
 30
0.0
 40
6.0
  0
CIRCLE
  5
1B9
  8
SIZE
  6
CONTINUOUS
 62
    30
 10
42.5
 20
-562.29579699999977
 30
0.0
 40
6.0
  0
CIRCLE
  5
1BA
  8
SIZE
  6
CONTINUOUS
 62
    30
 10
-384.75449600000002
 20
0.0
 30
0.0
 40
6.0
  0
CIRCLE
  5
1BB
  8
SIZE
  6
CONTINUOUS
 62
    30
 10
-384.75449600000002
 20
-377.49999999999989
 30
0.0
 40
6.0
  0
CIRCLE
  5
1BC
  8
SIZE
  6
CONTINUOUS
 62
    30
 10
-177.5
 20
330.51950699999992
 30
0.0
 40
6.0
  0
CIRCLE
  5
1BD
  8
SIZE
  6
CONTINUOUS
 62
    30
 10
177.5
 20
330.51950699999992
 30
0.0
 40
6.0
  0
TEXT
  5
1BE
  8
ETC
  6
CONTINUOUS
 62
    61
 10
464.86786741198222
 20
570.47153430331696
 30
0.0
 40
64.0
  1
VD-20ZDS8-W_6
 41
0.9
  0
TEXT
  5
1BF
  8
ETC
  6
CONTINUOUS
 62
    61
 10
462.52892741198229
 20
472.23742230331692
 30
0.0
 40
64.0
  1
換気扇
 41
0.9
  0
TEXT
  5
1C0
  8
ETC
  6
CONTINUOUS
 62
    61
 10
601.04996555856815
 20
387.86040731844338
 30
0.0
 40
50.0
  1
VD-20ZDS7-W
 41
0.9
  0
POINT
  5
1C1
  8
ARRANGE
  6
CONTINUOUS
 62
     1
 10
0.0
 20
0.0
 30
0.0
  0
CIRCLE
  5
1C2
  8
ARRANGE
  6
CONTINUOUS
 62
     1
 10
0.0
 20
0.0
 30
0.0
 40
40.0
  0
LINE
  5
1C3
  8
OUTLINE
  6
CONTINUOUS
 62
     3
 10
-172.0
 20
-190.0
 30
0.0
 11
172.0
 21
-190.0
 31
0.0
  0
LINE
  5
1C4
  8
OUTLINE
  6
CONTINUOUS
 62
     3
 10
-172.0
 20
190.0
 30
0.0
 11
172.0
 21
190.0
 31
0.0
  0
LINE
  5
1C5
  8
OUTLINE
  6
CONTINUOUS
 62
     3
 10
-190.0
 20
-172.0
 30
0.0
 11
-190.0
 21
172.0
 31
0.0
  0
ARC
  5
1C6
  8
OUTLINE
  6
CONTINUOUS
 62
     3
 10
-172.0
 20
-172.0
 30
0.0
 40
18.0
 50
180.0
 51
270.0
  0
ARC
  5
1C7
  8
OUTLINE
  6
CONTINUOUS
 62
     3
 10
-172.0
 20
172.0
 30
0.0
 40
18.0
 50
90.0
 51
180.0
  0
LINE
  5
1C8
  8
OUTLINE
  6
CONTINUOUS
 62
     3
 10
190.0
 20
-172.0
 30
0.0
 11
190.0
 21
172.0
 31
0.0
  0
ARC
  5
1C9
  8
OUTLINE
  6
CONTINUOUS
 62
     3
 10
172.0
 20
-172.0
 30
0.0
 40
18.0
 50
270.0
 51
0.0
  0
ARC
  5
1CA
  8
OUTLINE
  6
CONTINUOUS
 62
     3
 10
172.0
 20
172.0
 30
0.0
 40
18.0
 50
0.0
 51
90.0
  0
TEXT
  5
29D
  8
ETC
  6
CONTINUOUS
 62
    61
 10
601.04996555856815
 20
304.06026998616301
 30
0.0
 40
50.0
  1
VD-20ZDS8-W
 41
0.9
  0
ENDSEC
  0
EOF
