  0
SECTION
  2
HEADER
  9
$ACADVER
  1
AC1009
  9
$INSBASE
 10
0.0
 20
0.0
 30
0.0
  9
$EXTMIN
 10
-599.81410199999993
 20
-661.858385
 30
0.0
  9
$EXTMAX
 10
1419.422
 20
922.64226781624109
 30
50.0
  9
$LIMMIN
 10
-2970.0
 20
-2100.0
  9
$LIMMAX
 10
2970.0
 20
2100.0
  9
$ORTHOMODE
 70
     1
  9
$REGENMODE
 70
     0
  9
$FILLMODE
 70
     1
  9
$QTEXTMODE
 70
     0
  9
$MIRRTEXT
 70
     0
  9
$DRAGMODE
 70
     2
  9
$LTSCALE
 40
20.0
  9
$OSMODE
 70
   175
  9
$ATTMODE
 70
     1
  9
$TEXTSIZE
 40
64.0
  9
$TRACEWID
 40
0.05
  9
$TEXTSTYLE
  7
STANDARD
  9
$CLAYER
  8
DETAIL
  9
$CELTYPE
  6
CONTINUOUS
  9
$CECOLOR
 62
     5
  9
$DIMSCALE
 40
1.0
  9
$DIMASZ
 40
12.0
  9
$DIMEXO
 40
20.0
  9
$DIMDLI
 40
200.0
  9
$DIMRND
 40
0.0
  9
$DIMDLE
 40
0.0
  9
$DIMEXE
 40
20.0
  9
$DIMTP
 40
0.0
  9
$DIMTM
 40
0.0
  9
$DIMTXT
 40
64.0
  9
$DIMCEN
 40
0.09
  9
$DIMTSZ
 40
0.0
  9
$DIMTOL
 70
     0
  9
$DIMLIM
 70
     0
  9
$DIMTIH
 70
     0
  9
$DIMTOH
 70
     0
  9
$DIMSE1
 70
     0
  9
$DIMSE2
 70
     0
  9
$DIMTAD
 70
     1
  9
$DIMZIN
 70
     8
  9
$DIMBLK
  1
DOT1
  9
$DIMASO
 70
     1
  9
$DIMSHO
 70
     0
  9
$DIMPOST
  1

  9
$DIMAPOST
  1

  9
$DIMALT
 70
     0
  9
$DIMALTD
 70
     2
  9
$DIMALTF
 40
25.399999999999999
  9
$DIMLFAC
 40
1.0
  9
$DIMTOFL
 70
     1
  9
$DIMTVP
 40
0.0
  9
$DIMTIX
 70
     1
  9
$DIMSOXD
 70
     0
  9
$DIMSAH
 70
     1
  9
$DIMBLK1
  1
ORIGIN
  9
$DIMBLK2
  1
ORIGIN
  9
$DIMSTYLE
  2
STANDARD
  9
$DIMCLRD
 70
     0
  9
$DIMCLRE
 70
     0
  9
$DIMCLRT
 70
     0
  9
$DIMTFAC
 40
1.0
  9
$DIMGAP
 40
0.09
  9
$LUNITS
 70
     2
  9
$LUPREC
 70
     4
  9
$SKETCHINC
 40
0.1
  9
$FILLETRAD
 40
15.0
  9
$AUNITS
 70
     1
  9
$AUPREC
 70
     3
  9
$MENU
  1
ACAD
  9
$ELEVATION
 40
0.0
  9
$PELEVATION
 40
0.0
  9
$THICKNESS
 40
50.0
  9
$LIMCHECK
 70
     0
  9
$BLIPMODE
 70
     0
  9
$CHAMFERA
 40
0.0
  9
$CHAMFERB
 40
0.0
  9
$SKPOLY
 70
     0
  9
$TDCREATE
 40
2452321.3961996529
  9
$TDUPDATE
 40
2453777.424962014
  9
$TDINDWG
 40
0.2437031597
  9
$TDUSRTIMER
 40
0.2437029745
  9
$USRTIMER
 70
     1
  9
$ANGBASE
 50
0.0
  9
$ANGDIR
 70
     0
  9
$PDMODE
 70
     3
  9
$PDSIZE
 40
-2.0
  9
$PLINEWID
 40
0.0
  9
$COORDS
 70
     2
  9
$SPLFRAME
 70
     0
  9
$SPLINETYPE
 70
     6
  9
$SPLINESEGS
 70
     8
  9
$ATTDIA
 70
     0
  9
$ATTREQ
 70
     1
  9
$HANDLING
 70
 22529
  9
$HANDSEED
  5
339
  9
$SURFTAB1
 70
     6
  9
$SURFTAB2
 70
     6
  9
$SURFTYPE
 70
     6
  9
$SURFU
 70
     6
  9
$SURFV
 70
     6
  9
$UCSNAME
  2

  9
$UCSORG
 10
0.0
 20
0.0
 30
0.0
  9
$UCSXDIR
 10
1.0
 20
0.0
 30
0.0
  9
$UCSYDIR
 10
0.0
 20
1.0
 30
0.0
  9
$PUCSNAME
  2

  9
$PUCSORG
 10
0.0
 20
0.0
 30
0.0
  9
$PUCSXDIR
 10
1.0
 20
0.0
 30
0.0
  9
$PUCSYDIR
 10
0.0
 20
1.0
 30
0.0
  9
$USERI1
 70
     0
  9
$USERI2
 70
     0
  9
$USERI3
 70
     0
  9
$USERI4
 70
     0
  9
$USERI5
 70
     0
  9
$USERR1
 40
20.0
  9
$USERR2
 40
0.0
  9
$USERR3
 40
0.0
  9
$USERR4
 40
0.0
  9
$USERR5
 40
0.0
  9
$WORLDVIEW
 70
     1
  9
$SHADEDGE
 70
     3
  9
$SHADEDIF
 70
    70
  9
$TILEMODE
 70
     1
  9
$MAXACTVP
 70
    64
  9
$PLIMCHECK
 70
     0
  9
$PEXTMIN
 10
1.0000000000000000E+020
 20
1.0000000000000000E+020
 30
1.0000000000000000E+020
  9
$PEXTMAX
 10
-1.0000000000000000E+020
 20
-1.0000000000000000E+020
 30
-1.0000000000000000E+020
  9
$PLIMMIN
 10
0.0
 20
0.0
  9
$PLIMMAX
 10
12.0
 20
9.0
  9
$UNITMODE
 70
     0
  9
$VISRETAIN
 70
     1
  9
$PLINEGEN
 70
     0
  9
$PSLTSCALE
 70
     1
  0
ENDSEC
  0
SECTION
  2
TABLES
  0
TABLE
  2
VPORT
 70
     3
  0
VPORT
  2
*ACTIVE
 70
     0
 10
0.0
 20
0.0
 11
1.0
 21
1.0
 12
98.851900251281464
 22
71.602558266606124
 13
0.0
 23
0.0
 14
1.0
 24
1.0
 15
0.0
 25
0.0
 16
0.0
 26
0.0
 36
1.0
 17
0.0
 27
0.0
 37
0.0
 40
2209.6574075381031
 41
1.447268106734434
 42
50.0
 43
0.0
 44
0.0
 50
0.0
 51
0.0
 71
     0
 72
   100
 73
     1
 74
     0
 75
     0
 76
     0
 77
     0
 78
     0
  0
ENDTAB
  0
TABLE
  2
LTYPE
 70
     2
  0
LTYPE
  2
CONTINUOUS
 70
     0
  3
実線
 72
    65
 73
     0
 40
0.0
  0
LTYPE
  2
DASHDOT
 70
     0
  3
____ _ ____ _ ____ _ ____ _ ____ _ ____ _ ____
 72
    65
 73
     4
 40
5.5
 49
4.0
 49
-0.6
 49
0.3
 49
-0.6
  0
ENDTAB
  0
TABLE
  2
LAYER
 70
    12
  0
LAYER
  2
0
 70
     0
 62
     7
  6
CONTINUOUS
  0
LAYER
  2
DETAIL
 70
     0
 62
     5
  6
CONTINUOUS
  0
LAYER
  2
SIZE
 70
     0
 62
    30
  6
CONTINUOUS
  0
LAYER
  2
BASIS
 70
     0
 62
     6
  6
DASHDOT
  0
LAYER
  2
OUTLINE
 70
     0
 62
     3
  6
CONTINUOUS
  0
LAYER
  2
ARRANGE
 70
     0
 62
     1
  6
CONTINUOUS
  0
LAYER
  2
DEFPOINTS
 70
     0
 62
     7
  6
CONTINUOUS
  0
LAYER
  2
ETC
 70
     0
 62
    61
  6
CONTINUOUS
  0
LAYER
  2
FIX
 70
     0
 62
    11
  6
CONTINUOUS
  0
LAYER
  2
NOTE
 70
     0
 62
     4
  6
CONTINUOUS
  0
LAYER
  2
SERVICESPACE
 70
     0
 62
     2
  6
DASHDOT
  0
LAYER
  2
SYMBOLLINE
 70
     0
 62
    15
  6
CONTINUOUS
  0
ENDTAB
  0
TABLE
  2
STYLE
 70
     1
  0
STYLE
  2
STANDARD
 70
     0
 40
64.0
 41
0.9
 50
0.0
 71
     0
 42
64.0
  3
SIMPLEX.shx
  4
BIGFONT.shx
  0
ENDTAB
  0
TABLE
  2
VIEW
 70
     1
  0
VIEW
  2
ALL
 70
     0
 40
4282.6198079999976
 10
0.0
 20
41.309903999999989
 41
5940.0
 11
0.0
 21
0.0
 31
1.0
 12
0.0
 22
0.0
 32
0.0
 42
50.0
 43
0.0
 44
0.0
 50
0.0
 71
     0
  0
ENDTAB
  0
TABLE
  2
UCS
 70
     0
  0
ENDTAB
  0
TABLE
  2
APPID
 70
     1
  0
APPID
  2
ACAD
 70
     0
  0
ENDTAB
  0
TABLE
  2
DIMSTYLE
 70
     1
  0
DIMSTYLE
  2
STANDARD
 70
     0
  3

  4

  5

  6

  7

 40
1.0
 41
0.18
 42
0.0625
 43
0.38
 44
0.18
 45
0.0
 46
0.0
 47
0.0
 48
0.0
140
0.18
141
0.09
142
0.0
143
25.399999999999999
144
1.0
145
0.0
146
1.0
147
0.09
 71
     0
 72
     0
 73
     1
 74
     1
 75
     0
 76
     0
 77
     0
 78
     0
170
     0
171
     2
172
     0
173
     0
174
     0
175
     0
176
     0
177
     0
178
     0
  0
ENDTAB
  0
ENDSEC
  0
SECTION
  2
BLOCKS
  0
BLOCK
  8
0
  2
$MODEL_SPACE
 70
     0
 10
0.0
 20
0.0
 30
0.0
  3
$MODEL_SPACE
  1

  0
ENDBLK
  5
1DF
  8
0
  0
BLOCK
 67
     1
  8
0
  2
$PAPER_SPACE
 70
     0
 10
0.0
 20
0.0
 30
0.0
  3
$PAPER_SPACE
  1

  0
ENDBLK
  5
1DB
 67
     1
  8
0
  0
BLOCK
  8
0
  2
DOT1
 70
     0
 10
0.0
 20
0.0
 30
0.0
  3
DOT1
  1

  0
CIRCLE
  5
1FA
  8
SIZE
  6
CONTINUOUS
 62
     7
 10
0.0
 20
0.0
 30
0.0
 40
3.0
  0
ENDBLK
  5
1FB
  8
0
  0
BLOCK
  8
0
  2
_ORIGIN
 70
     0
 10
0.0
 20
0.0
 30
0.0
  3
_ORIGIN
  1

  0
CIRCLE
  5
1FE
  8
0
  6
CONTINUOUS
 62
     7
 10
0.0
 20
0.0
 30
0.0
 40
0.5
  0
LINE
  5
1FF
  8
0
  6
CONTINUOUS
 62
     7
 10
0.0
 20
0.0
 30
0.0
 11
-1.0
 21
0.0
 31
0.0
  0
ENDBLK
  5
200
  8
0
  0
ENDSEC
  0
SECTION
  2
ENTITIES
  0
CIRCLE
  5
201
  8
ARRANGE
  6
CONTINUOUS
 62
     1
 10
0.0
 20
0.0
 30
0.0
 40
40.0
  0
LINE
  5
202
  8
BASIS
  6
DASHDOT
 62
     6
 10
0.0
 20
-69.69345899999999
 30
0.0
 11
0.0
 21
291.47948300000002
 31
0.0
  0
LINE
  5
203
  8
BASIS
  6
DASHDOT
 62
     6
 10
23.0
 20
173.87266099999999
 30
0.0
 11
23.0
 21
265.88841500000001
 31
0.0
  0
LINE
  5
204
  8
DETAIL
  6
CONTINUOUS
 62
     5
 10
81.0
 20
208.0
 30
0.0
 11
-35.0
 21
208.0
 31
0.0
  0
LINE
  5
205
  8
DETAIL
  6
CONTINUOUS
 62
     5
 10
153.5
 20
0.0
 30
0.0
 11
153.5
 21
208.0
 31
0.0
  0
LINE
  5
206
  8
DETAIL
  6
CONTINUOUS
 62
     5
 10
185.7499999999998
 20
208.0
 30
0.0
 11
185.7499999999998
 21
204.49999999999989
 31
0.0
  0
LINE
  5
207
  8
DETAIL
  6
CONTINUOUS
 62
     5
 10
185.7499999999998
 20
208.0
 30
0.0
 11
153.5
 21
208.0
 31
0.0
  0
LINE
  5
208
  8
DETAIL
  6
CONTINUOUS
 62
     5
 10
155.25
 20
208.0
 30
0.0
 11
155.25
 21
7.0
 31
0.0
  0
LINE
  5
209
  8
DETAIL
  6
CONTINUOUS
 62
     5
 10
158.75
 20
7.0
 30
0.0
 11
153.5
 21
7.0
 31
0.0
  0
LINE
  5
20A
  8
DETAIL
  6
CONTINUOUS
 62
     5
 10
185.7499999999998
 20
204.49999999999989
 30
0.0
 11
158.75
 21
204.49999999999989
 31
0.0
  0
LINE
  5
20B
  8
DETAIL
  6
CONTINUOUS
 62
     5
 10
158.75
 20
204.49999999999989
 30
0.0
 11
158.75
 21
7.0
 31
0.0
  0
LINE
  5
20C
  8
NOTE
  6
CONTINUOUS
 62
     4
 10
170.5
 20
188.0
 30
0.0
 11
170.5
 21
228.0
 31
0.0
  0
LINE
  5
20D
  8
NOTE
  6
CONTINUOUS
 62
     4
 10
150.5
 20
208.0
 30
0.0
 11
190.5
 21
208.0
 31
0.0
  0
LINE
  5
20E
  8
NOTE
  6
CONTINUOUS
 62
     4
 10
111.0
 20
180.0
 30
0.0
 11
111.0
 21
220.0
 31
0.0
  0
LINE
  5
20F
  8
NOTE
  6
CONTINUOUS
 62
     4
 10
91.0
 20
200.0
 30
0.0
 11
131.0
 21
200.0
 31
0.0
  0
ARC
  5
210
  8
DETAIL
  6
CONTINUOUS
 62
     5
 10
58.939999999999998
 20
233.34
 30
0.0
 40
5.060001999999999
 50
0.000001
 51
90.0
  0
LINE
  5
211
  8
DETAIL
  6
CONTINUOUS
 62
     5
 10
64.0
 20
208.0
 30
0.0
 11
64.0
 21
233.34
 31
0.0
  0
LINE
  5
212
  8
DETAIL
  6
CONTINUOUS
 62
     5
 10
-7.6374699999999978
 20
238.3999859999999
 30
0.0
 11
-6.4689620000000003
 21
240.42388799999981
 31
0.0
  0
LINE
  5
213
  8
DETAIL
  6
CONTINUOUS
 62
     5
 10
23.0
 20
240.42390199999991
 30
0.0
 11
-6.4689529999999991
 21
240.42390199999991
 31
0.0
  0
LINE
  5
214
  8
DETAIL
  6
CONTINUOUS
 62
     5
 10
-12.94
 20
238.3999859999999
 30
0.0
 11
23.0
 21
238.3999859999999
 31
0.0
  0
ARC
  5
215
  8
DETAIL
  6
CONTINUOUS
 62
     5
 10
-12.94
 20
233.34
 30
0.0
 40
5.060001999999999
 50
90.0
 51
179.999999
  0
LINE
  5
216
  8
DETAIL
  6
CONTINUOUS
 62
     5
 10
-18.0
 20
208.0
 30
0.0
 11
-18.0
 21
233.34421399999991
 31
0.0
  0
LINE
  5
217
  8
DETAIL
  6
CONTINUOUS
 62
     5
 10
0.9200000000000002
 20
238.3999859999999
 30
0.0
 11
23.0
 21
238.3999859999999
 31
0.0
  0
LINE
  5
218
  8
DETAIL
  6
CONTINUOUS
 62
     5
 10
23.0
 20
240.42390199999991
 30
0.0
 11
0.9200000000000002
 21
240.42390199999991
 31
0.0
  0
LINE
  5
219
  8
DETAIL
  6
CONTINUOUS
 62
     5
 10
16.327766
 20
241.42907099999991
 30
0.0
 11
16.179179000000001
 21
240.42390199999991
 31
0.0
  0
LINE
  5
21A
  8
DETAIL
  6
CONTINUOUS
 62
     5
 10
18.147988000000002
 20
243.0
 30
0.0
 11
23.0
 21
243.0
 31
0.0
  0
ARC
  5
21B
  8
DETAIL
  6
CONTINUOUS
 62
     5
 10
18.147988000000002
 20
241.15998599999989
 30
0.0
 40
1.8400009999999991
 50
90.0
 51
171.59088899999981
  0
ARC
  5
21C
  8
DETAIL
  6
CONTINUOUS
 62
     5
 10
27.852011999999991
 20
241.15998599999989
 30
0.0
 40
1.8400009999999991
 50
8.4091109999999976
 51
90.0
  0
LINE
  5
21D
  8
DETAIL
  6
CONTINUOUS
 62
     5
 10
27.852011999999991
 20
243.0
 30
0.0
 11
23.0
 21
243.0
 31
0.0
  0
LINE
  5
21E
  8
DETAIL
  6
CONTINUOUS
 62
     5
 10
29.672234
 20
241.42907099999991
 30
0.0
 11
29.820820999999992
 21
240.42390199999991
 31
0.0
  0
LINE
  5
21F
  8
DETAIL
  6
CONTINUOUS
 62
     5
 10
23.0
 20
240.42390199999991
 30
0.0
 11
52.468953000000013
 21
240.42390199999991
 31
0.0
  0
LINE
  5
220
  8
DETAIL
  6
CONTINUOUS
 62
     5
 10
58.939999999999998
 20
238.3999859999999
 30
0.0
 11
23.0
 21
238.3999859999999
 31
0.0
  0
LINE
  5
221
  8
DETAIL
  6
CONTINUOUS
 62
     5
 10
53.63747
 20
238.3999859999999
 30
0.0
 11
52.468961999999998
 21
240.42388799999981
 31
0.0
  0
CIRCLE
  5
222
  8
FIX
  6
CONTINUOUS
 62
    11
 10
100.0
 20
0.0
 30
0.0
 40
2.5
  0
LINE
  5
223
  8
NOTE
  6
CONTINUOUS
 62
     4
 10
100.0
 20
-20.0
 30
0.0
 11
100.0
 21
20.0
 31
0.0
  0
LINE
  5
224
  8
NOTE
  6
CONTINUOUS
 62
     4
 10
80.0
 20
0.0
 30
0.0
 11
120.0
 21
0.0
 31
0.0
  0
CIRCLE
  5
225
  8
FIX
  6
CONTINUOUS
 62
    11
 10
166.0
 20
0.0
 30
0.0
 40
2.5
  0
LINE
  5
226
  8
NOTE
  6
CONTINUOUS
 62
     4
 10
166.0
 20
-20.0
 30
0.0
 11
166.0
 21
20.0
 31
0.0
  0
LINE
  5
227
  8
NOTE
  6
CONTINUOUS
 62
     4
 10
146.0
 20
0.0
 30
0.0
 11
186.0
 21
0.0
 31
0.0
  0
CIRCLE
  5
228
  8
FIX
  6
CONTINUOUS
 62
    11
 10
170.5
 20
208.0
 30
0.0
 40
7.5
  0
LINE
  5
229
  8
DETAIL
  6
CONTINUOUS
 62
     5
 10
153.5
 20
200.0
 30
0.0
 11
-153.5
 21
200.0
 31
0.0
  0
LINE
  5
22A
  8
NOTE
  6
CONTINUOUS
 62
     4
 10
425.46485599999988
 20
502.18320999999997
 30
0.0
 11
736.60032100000001
 21
502.18320999999997
 31
0.0
  0
TEXT
  5
22B
  8
NOTE
  6
CONTINUOUS
 62
     4
 10
292.73762900000008
 20
-150.267213
 30
0.0
 40
64.0
  1
8-φ5×8
 41
0.9
  0
LINE
  5
22C
  8
NOTE
  6
CONTINUOUS
 62
     4
 10
1419.422
 20
351.63938899999982
 30
0.0
 11
472.74995699999988
 21
351.63938899999982
 31
0.0
  0
LINE
  5
22D
  8
NOTE
  6
CONTINUOUS
 62
     4
 10
170.5
 20
208.0
 30
0.0
 11
472.74995699999988
 21
351.63938899999982
 31
0.0
  0
LINE
  5
22E
  8
NOTE
  6
CONTINUOUS
 62
     4
 10
209.952022
 20
214.598331
 30
0.0
 11
170.5
 21
208.0
 31
0.0
  0
LINE
  5
22F
  8
NOTE
  6
CONTINUOUS
 62
     4
 10
170.5
 20
208.0
 30
0.0
 11
201.367287
 21
233.44033399999981
 31
0.0
  0
LINE
  5
230
  8
NOTE
  6
CONTINUOUS
 62
     4
 10
286.89041900000001
 20
-183.23148299999991
 30
0.0
 11
679.89854300000002
 21
-183.23148299999991
 31
0.0
  0
LINE
  5
231
  8
NOTE
  6
CONTINUOUS
 62
     4
 10
166.01125400000001
 20
-0.053252
 30
0.0
 11
286.89041900000001
 21
-183.23148299999991
 31
0.0
  0
LINE
  5
232
  8
NOTE
  6
CONTINUOUS
 62
     4
 10
179.1595639999999
 20
-37.773348999999989
 30
0.0
 11
166.0
 21
0.0
 31
0.0
  0
LINE
  5
233
  8
NOTE
  6
CONTINUOUS
 62
     4
 10
166.0
 20
0.0
 30
0.0
 11
196.28319099999999
 21
-26.132898000000001
 31
0.0
  0
TEXT
  5
234
  8
NOTE
  6
CONTINUOUS
 62
     4
 10
457.36217399999998
 20
381.59637099999992
 30
0.0
 40
64.0
  1
AH 4-φ15×22(4点吊り)
 41
0.9
  0
TEXT
  5
235
  8
NOTE
  6
CONTINUOUS
 62
     4
 10
434.45884799999988
 20
528.30444699999998
 30
0.0
 40
64.0
  1
EL φ19
 41
0.9
  0
LINE
  5
236
  8
DETAIL
  6
CONTINUOUS
 62
     5
 10
-180.4999999999998
 20
190.40065100000001
 30
0.0
 11
-180.4999999999998
 21
204.49999999999989
 31
0.0
  0
ARC
  5
237
  8
DETAIL
  6
CONTINUOUS
 62
     5
 10
-158.70935299999991
 20
207.28122999999991
 30
0.0
 40
21.792462
 50
94.713205000000002
 51
178.1098979999999
  0
LINE
  5
238
  8
DETAIL
  6
CONTINUOUS
 62
     5
 10
-158.75
 20
46.175139000000001
 30
0.0
 11
-165.5
 21
46.175139000000001
 31
0.0
  0
LINE
  5
239
  8
DETAIL
  6
CONTINUOUS
 62
     5
 10
-180.4999999999998
 20
79.599349000000004
 30
0.0
 11
-180.4999999999998
 21
65.0
 31
0.0
  0
LINE
  5
23A
  8
NOTE
  6
CONTINUOUS
 62
     4
 10
111.0
 20
200.0
 30
0.0
 11
425.46485599999988
 21
502.18320999999997
 31
0.0
  0
LINE
  5
23B
  8
NOTE
  6
CONTINUOUS
 62
     4
 10
131.60616200000001
 20
234.28390400000001
 30
0.0
 11
111.0
 21
200.0
 31
0.0
  0
LINE
  5
23C
  8
NOTE
  6
CONTINUOUS
 62
     4
 10
111.0
 20
200.0
 30
0.0
 11
145.98741200000001
 21
219.38765099999989
 31
0.0
  0
LINE
  5
23D
  8
DETAIL
  6
CONTINUOUS
 62
     5
 10
153.5
 20
200.0
 30
0.0
 11
153.5
 21
208.0
 31
0.0
  0
ARC
  5
23E
  8
DETAIL
  6
CONTINUOUS
 62
     5
 10
182.99999700000001
 20
-0.8571229999999998
 30
0.0
 40
7.0
 50
281.92691500000001
 51
0.0
  0
LINE
  5
23F
  8
DETAIL
  6
CONTINUOUS
 62
     5
 10
190.0
 20
-0.8571229999999998
 30
0.0
 11
190.0
 21
0.0
 31
0.0
  0
LINE
  5
240
  8
DETAIL
  6
CONTINUOUS
 62
     5
 10
148.094582
 20
-15.0
 30
0.0
 11
0.0
 21
-15.0
 31
0.0
  0
ARC
  5
241
  8
DETAIL
  6
CONTINUOUS
 62
     5
 10
66.98603
 20
483.46498399999979
 30
0.0
 40
505.02072999999979
 50
279.24197999999978
 51
283.44935199999992
  0
LINE
  5
242
  8
DETAIL
  6
CONTINUOUS
 62
     5
 10
-148.094582
 20
-15.0
 30
0.0
 11
0.0
 21
-15.0
 31
0.0
  0
ARC
  5
243
  8
DETAIL
  6
CONTINUOUS
 62
     5
 10
-66.98603
 20
483.46498399999979
 30
0.0
 40
505.02072999999979
 50
256.55064800000002
 51
260.75801999999999
  0
ARC
  5
244
  8
DETAIL
  6
CONTINUOUS
 62
     5
 10
-182.99999700000001
 20
-0.8571229999999998
 30
0.0
 40
7.0
 50
180.0
 51
258.07308499999999
  0
LINE
  5
245
  8
DETAIL
  6
CONTINUOUS
 62
     5
 10
-190.0
 20
-0.8571229999999998
 30
0.0
 11
-190.0
 21
0.0
 31
0.0
  0
LINE
  5
246
  8
NOTE
  6
CONTINUOUS
 62
     4
 10
-170.5
 20
188.0
 30
0.0
 11
-170.5
 21
228.0
 31
0.0
  0
LINE
  5
247
  8
NOTE
  6
CONTINUOUS
 62
     4
 10
-150.5
 20
208.0
 30
0.0
 11
-190.5
 21
208.0
 31
0.0
  0
CIRCLE
  5
248
  8
FIX
  6
CONTINUOUS
 62
    11
 10
-170.5
 20
208.0
 30
0.0
 40
7.5
  0
LINE
  5
249
  8
DETAIL
  6
CONTINUOUS
 62
     5
 10
153.5
 20
192.0
 30
0.0
 11
-153.5
 21
192.0
 31
0.0
  0
LINE
  5
24A
  8
DETAIL
  6
CONTINUOUS
 62
     5
 10
81.0
 20
208.0
 30
0.0
 11
87.394959999999998
 21
200.0
 31
0.0
  0
LINE
  5
24B
  8
SIZE
  6
CONTINUOUS
 62
    30
 10
64.037992000000003
 20
253.3399999999998
 30
0.0
 11
64.037992000000003
 21
394.90623199999987
 31
0.0
  0
LINE
  5
24C
  8
SIZE
  6
CONTINUOUS
 62
    30
 10
-17.962009999999989
 20
253.3399999999998
 30
0.0
 11
-17.962009999999989
 21
394.90623199999987
 31
0.0
  0
LINE
  5
24D
  8
SIZE
  6
CONTINUOUS
 62
    30
 10
52.037991999999981
 20
374.90623199999999
 30
0.0
 11
-5.9620100000000003
 21
374.90623199999999
 31
0.0
  0
LINE
  5
24E
  8
SIZE
  6
CONTINUOUS
 62
    30
 10
-400.25062299999979
 20
374.90623199999999
 30
0.0
 11
-17.962009999999989
 21
374.90623199999999
 31
0.0
  0
TEXT
  5
24F
  8
SIZE
  6
CONTINUOUS
 62
    30
 10
-386.7706234285713
 20
399.90623199999999
 30
0.0
 40
64.0
  1
φ82
 41
0.9
 72
     1
 11
-299.82205199999993
 21
399.90623199999999
 31
0.0
  0
CIRCLE
  5
250
  8
SIZE
  6
CONTINUOUS
 62
    30
 10
64.037992000000003
 20
374.90623199999999
 30
0.0
 40
6.0
  0
LINE
  5
251
  8
SIZE
  6
CONTINUOUS
 62
    30
 10
64.037992000000003
 20
374.90623199999999
 30
0.0
 11
52.037991999999981
 21
374.90623199999999
 31
0.0
  0
CIRCLE
  5
252
  8
SIZE
  6
CONTINUOUS
 62
    30
 10
-17.962009999999989
 20
374.90623199999999
 30
0.0
 40
6.0
  0
LINE
  5
253
  8
SIZE
  6
CONTINUOUS
 62
    30
 10
-17.962009999999989
 20
374.90623199999999
 30
0.0
 11
-5.9620100000000003
 21
374.90623199999999
 31
0.0
  0
LINE
  5
254
  8
SIZE
  6
CONTINUOUS
 62
    30
 10
31.407475999999999
 20
506.72120099999989
 30
0.0
 11
315.39388999999989
 21
506.72120099999989
 31
0.0
  0
LINE
  5
255
  8
DETAIL
  6
CONTINUOUS
 62
     5
 10
64.0
 20
213.0
 30
0.0
 11
-18.0
 21
213.0
 31
0.0
  0
LINE
  5
256
  8
NOTE
  6
CONTINUOUS
 62
     4
 10
-100.0
 20
-20.0
 30
0.0
 11
-100.0
 21
20.0
 31
0.0
  0
LINE
  5
257
  8
NOTE
  6
CONTINUOUS
 62
     4
 10
-80.0
 20
0.0
 30
0.0
 11
-120.0
 21
0.0
 31
0.0
  0
CIRCLE
  5
258
  8
FIX
  6
CONTINUOUS
 62
    11
 10
-100.0
 20
0.0
 30
0.0
 40
2.5
  0
LINE
  5
259
  8
NOTE
  6
CONTINUOUS
 62
     4
 10
-166.0
 20
-20.0
 30
0.0
 11
-166.0
 21
20.0
 31
0.0
  0
LINE
  5
25A
  8
NOTE
  6
CONTINUOUS
 62
     4
 10
-146.0
 20
0.0
 30
0.0
 11
-186.0
 21
0.0
 31
0.0
  0
CIRCLE
  5
25B
  8
FIX
  6
CONTINUOUS
 62
    11
 10
-166.0
 20
0.0
 30
0.0
 40
2.5
  0
LINE
  5
25C
  8
SIZE
  6
CONTINUOUS
 62
    30
 10
100.0
 20
-40.0
 30
0.0
 11
100.0
 21
-257.08728500000001
 31
0.0
  0
LINE
  5
25D
  8
SIZE
  6
CONTINUOUS
 62
    30
 10
-100.0
 20
-40.0
 30
0.0
 11
-100.0
 21
-257.08728500000001
 31
0.0
  0
LINE
  5
25E
  8
SIZE
  6
CONTINUOUS
 62
    30
 10
88.0
 20
-237.08728500000001
 30
0.0
 11
-88.0
 21
-237.08728500000001
 31
0.0
  0
TEXT
  5
25F
  8
SIZE
  6
CONTINUOUS
 62
    30
 10
-74.05714285714285
 20
-209.437534
 30
0.0
 40
64.0
  1
200
 41
0.9
 72
     1
 11
0.0
 21
-209.437534
 31
0.0
  0
CIRCLE
  5
260
  8
SIZE
  6
CONTINUOUS
 62
    30
 10
100.0
 20
-237.08728500000001
 30
0.0
 40
6.0
  0
LINE
  5
261
  8
SIZE
  6
CONTINUOUS
 62
    30
 10
100.0
 20
-237.08728500000001
 30
0.0
 11
88.0
 21
-237.08728500000001
 31
0.0
  0
CIRCLE
  5
262
  8
SIZE
  6
CONTINUOUS
 62
    30
 10
-100.0
 20
-237.08728500000001
 30
0.0
 40
6.0
  0
LINE
  5
263
  8
SIZE
  6
CONTINUOUS
 62
    30
 10
-100.0
 20
-237.08728500000001
 30
0.0
 11
-88.0
 21
-237.08728500000001
 31
0.0
  0
LINE
  5
264
  8
SIZE
  6
CONTINUOUS
 62
    30
 10
153.5
 20
-20.0
 30
0.0
 11
153.5
 21
-397.74620499999992
 31
0.0
  0
LINE
  5
265
  8
SIZE
  6
CONTINUOUS
 62
    30
 10
-153.5
 20
-20.0
 30
0.0
 11
-153.5
 21
-397.74620499999992
 31
0.0
  0
LINE
  5
266
  8
SIZE
  6
CONTINUOUS
 62
    30
 10
141.5
 20
-377.74620499999997
 30
0.0
 11
-141.5
 21
-377.74620499999997
 31
0.0
  0
TEXT
  5
267
  8
SIZE
  6
CONTINUOUS
 62
    30
 10
-110.5371428571428
 20
-356.38520199999999
 30
0.0
 40
64.0
  1
□307
 41
0.9
 72
     1
 11
0.0
 21
-356.38520199999999
 31
0.0
  0
CIRCLE
  5
268
  8
SIZE
  6
CONTINUOUS
 62
    30
 10
153.5
 20
-377.74620499999997
 30
0.0
 40
6.0
  0
LINE
  5
269
  8
SIZE
  6
CONTINUOUS
 62
    30
 10
153.5
 20
-377.74620499999997
 30
0.0
 11
141.5
 21
-377.74620499999997
 31
0.0
  0
CIRCLE
  5
26A
  8
SIZE
  6
CONTINUOUS
 62
    30
 10
-153.5
 20
-377.74620499999997
 30
0.0
 40
6.0
  0
LINE
  5
26B
  8
SIZE
  6
CONTINUOUS
 62
    30
 10
-153.5
 20
-377.74620499999997
 30
0.0
 11
-141.5
 21
-377.74620499999997
 31
0.0
  0
LINE
  5
26C
  8
SIZE
  6
CONTINUOUS
 62
    30
 10
166.0
 20
-40.0
 30
0.0
 11
166.0
 21
-527.86532299999976
 31
0.0
  0
LINE
  5
26D
  8
SIZE
  6
CONTINUOUS
 62
    30
 10
-166.0
 20
-40.0
 30
0.0
 11
-166.0
 21
-527.86532299999976
 31
0.0
  0
LINE
  5
26E
  8
SIZE
  6
CONTINUOUS
 62
    30
 10
154.0
 20
-507.86532299999988
 30
0.0
 11
-154.0
 21
-507.86532299999988
 31
0.0
  0
TEXT
  5
26F
  8
SIZE
  6
CONTINUOUS
 62
    30
 10
-74.05714285714285
 20
-478.84159899999992
 30
0.0
 40
64.0
  1
332
 41
0.9
 72
     1
 11
0.0
 21
-478.84159899999992
 31
0.0
  0
CIRCLE
  5
270
  8
SIZE
  6
CONTINUOUS
 62
    30
 10
166.0
 20
-507.86532299999988
 30
0.0
 40
6.0
  0
LINE
  5
271
  8
SIZE
  6
CONTINUOUS
 62
    30
 10
166.0
 20
-507.86532299999988
 30
0.0
 11
154.0
 21
-507.86532299999988
 31
0.0
  0
CIRCLE
  5
272
  8
SIZE
  6
CONTINUOUS
 62
    30
 10
-166.0
 20
-507.86532299999988
 30
0.0
 40
6.0
  0
LINE
  5
273
  8
SIZE
  6
CONTINUOUS
 62
    30
 10
-166.0
 20
-507.86532299999988
 30
0.0
 11
-154.0
 21
-507.86532299999988
 31
0.0
  0
LINE
  5
274
  8
SIZE
  6
CONTINUOUS
 62
    30
 10
190.0
 20
-20.0
 30
0.0
 11
190.0
 21
-661.858385
 31
0.0
  0
LINE
  5
275
  8
SIZE
  6
CONTINUOUS
 62
    30
 10
-190.0
 20
-20.0
 30
0.0
 11
-190.0
 21
-661.858385
 31
0.0
  0
LINE
  5
276
  8
SIZE
  6
CONTINUOUS
 62
    30
 10
178.0
 20
-641.858385
 30
0.0
 11
-178.0
 21
-641.858385
 31
0.0
  0
TEXT
  5
277
  8
SIZE
  6
CONTINUOUS
 62
    30
 10
-110.5371428571428
 20
-609.46174299999996
 30
0.0
 40
64.0
  1
□380
 41
0.9
 72
     1
 11
0.0
 21
-609.46174299999996
 31
0.0
  0
CIRCLE
  5
278
  8
SIZE
  6
CONTINUOUS
 62
    30
 10
190.0
 20
-641.858385
 30
0.0
 40
6.0
  0
LINE
  5
279
  8
SIZE
  6
CONTINUOUS
 62
    30
 10
190.0
 20
-641.858385
 30
0.0
 11
178.0
 21
-641.858385
 31
0.0
  0
CIRCLE
  5
27A
  8
SIZE
  6
CONTINUOUS
 62
    30
 10
-190.0
 20
-641.858385
 30
0.0
 40
6.0
  0
LINE
  5
27B
  8
SIZE
  6
CONTINUOUS
 62
    30
 10
-190.0
 20
-641.858385
 30
0.0
 11
-178.0
 21
-641.858385
 31
0.0
  0
LINE
  5
27C
  8
SIZE
  6
CONTINUOUS
 62
    30
 10
170.5
 20
248.0
 30
0.0
 11
170.5
 21
759.67303200000003
 31
0.0
  0
LINE
  5
27D
  8
SIZE
  6
CONTINUOUS
 62
    30
 10
-170.5
 20
248.0
 30
0.0
 11
-170.5
 21
759.67303200000003
 31
0.0
  0
LINE
  5
27E
  8
SIZE
  6
CONTINUOUS
 62
    30
 10
158.4999999999998
 20
739.67303200000003
 30
0.0
 11
-158.4999999999998
 21
739.67303200000003
 31
0.0
  0
TEXT
  5
27F
  8
SIZE
  6
CONTINUOUS
 62
    30
 10
-70.121761714285711
 20
764.47585400000003
 30
0.0
 40
64.0
  1
341
 41
0.9
 72
     1
 11
-8.4074759999999991
 21
764.47585400000003
 31
0.0
  0
CIRCLE
  5
280
  8
SIZE
  6
CONTINUOUS
 62
    30
 10
170.5
 20
739.67303200000003
 30
0.0
 40
6.0
  0
LINE
  5
281
  8
SIZE
  6
CONTINUOUS
 62
    30
 10
170.5
 20
739.67303200000003
 30
0.0
 11
158.4999999999998
 21
739.67303200000003
 31
0.0
  0
CIRCLE
  5
282
  8
SIZE
  6
CONTINUOUS
 62
    30
 10
-170.5
 20
739.67303200000003
 30
0.0
 40
6.0
  0
LINE
  5
283
  8
SIZE
  6
CONTINUOUS
 62
    30
 10
-170.5
 20
739.67303200000003
 30
0.0
 11
-158.4999999999998
 21
739.67303200000003
 31
0.0
  0
LINE
  5
284
  8
SIZE
  6
CONTINUOUS
 62
    30
 10
0.0
 20
311.47948300000002
 30
0.0
 11
0.0
 21
526.72120099999995
 31
0.0
  0
LINE
  5
285
  8
SIZE
  6
CONTINUOUS
 62
    30
 10
23.0
 20
285.88841500000001
 30
0.0
 11
23.0
 21
526.72120099999995
 31
0.0
  0
LINE
  5
286
  8
SIZE
  6
CONTINUOUS
 62
    30
 10
-12.0
 20
506.72120099999989
 30
0.0
 11
-24.0
 21
506.72120099999989
 31
0.0
  0
LINE
  5
287
  8
SIZE
  6
CONTINUOUS
 62
    30
 10
35.0
 20
506.72120099999989
 30
0.0
 11
47.0
 21
506.72120099999989
 31
0.0
  0
LINE
  5
288
  8
SIZE
  6
CONTINUOUS
 62
    30
 10
323.98074700000001
 20
506.72120099999989
 30
0.0
 11
23.0
 21
506.72120099999989
 31
0.0
  0
TEXT
  5
289
  8
SIZE
  6
CONTINUOUS
 62
    30
 10
205.72360457142841
 20
531.72120099999995
 30
0.0
 40
64.0
  1
23
 41
0.9
 72
     1
 11
252.3521759999999
 21
531.72120099999995
 31
0.0
  0
LINE
  5
28A
  8
SIZE
  6
CONTINUOUS
 62
    30
 10
0.0
 20
506.72120099999989
 30
0.0
 11
23.0
 21
506.72120099999989
 31
0.0
  0
LINE
  5
28B
  8
SIZE
  6
CONTINUOUS
 62
    30
 10
0.0
 20
506.72120099999989
 30
0.0
 11
23.0
 21
506.72120099999989
 31
0.0
  0
CIRCLE
  5
28C
  8
SIZE
  6
CONTINUOUS
 62
    30
 10
0.0
 20
506.72120099999989
 30
0.0
 40
6.0
  0
LINE
  5
28D
  8
SIZE
  6
CONTINUOUS
 62
    30
 10
0.0
 20
506.72120099999989
 30
0.0
 11
-12.0
 21
506.72120099999989
 31
0.0
  0
CIRCLE
  5
28E
  8
SIZE
  6
CONTINUOUS
 62
    30
 10
23.0
 20
506.72120099999989
 30
0.0
 40
6.0
  0
LINE
  5
28F
  8
SIZE
  6
CONTINUOUS
 62
    30
 10
23.0
 20
506.72120099999989
 30
0.0
 11
35.0
 21
506.72120099999989
 31
0.0
  0
LINE
  5
290
  8
DETAIL
  6
CONTINUOUS
 62
     5
 10
-185.20729700000001
 20
-7.5
 30
0.0
 11
185.20729700000001
 21
-7.5
 31
0.0
  0
LINE
  5
291
  8
DETAIL
  6
CONTINUOUS
 62
     5
 10
-189.66393500000001
 20
-3.0
 30
0.0
 11
189.66393500000001
 21
-3.0
 31
0.0
  0
LINE
  5
292
  8
SIZE
  6
CONTINUOUS
 62
    30
 10
-510.01771600000001
 20
-19.0
 30
0.0
 11
-510.01771600000001
 21
-148.07104799999991
 31
0.0
  0
LINE
  5
293
  8
SIZE
  6
CONTINUOUS
 62
    30
 10
16.5
 20
249.0
 30
0.0
 11
16.5
 21
661.62218499999994
 31
0.0
  0
LINE
  5
294
  8
SIZE
  6
CONTINUOUS
 62
    30
 10
-153.5
 20
63.0
 30
0.0
 11
-153.5
 21
661.62218499999994
 31
0.0
  0
LINE
  5
295
  8
SIZE
  6
CONTINUOUS
 62
    30
 10
4.5
 20
641.62218499999994
 30
0.0
 11
-141.5
 21
641.62218499999994
 31
0.0
  0
LINE
  5
296
  8
SIZE
  6
CONTINUOUS
 62
    30
 10
371.382744
 20
641.62218499999994
 30
0.0
 11
16.5
 21
641.62218499999994
 31
0.0
  0
TEXT
  5
297
  8
SIZE
  6
CONTINUOUS
 62
    30
 10
209.23988642857131
 20
666.62218499999994
 30
0.0
 40
64.0
  1
170
 41
0.9
 72
     1
 11
277.81131499999992
 21
666.62218499999994
 31
0.0
  0
CIRCLE
  5
298
  8
SIZE
  6
CONTINUOUS
 62
    30
 10
16.5
 20
641.62218499999994
 30
0.0
 40
6.0
  0
LINE
  5
299
  8
SIZE
  6
CONTINUOUS
 62
    30
 10
16.5
 20
641.62218499999994
 30
0.0
 11
4.5
 21
641.62218499999994
 31
0.0
  0
CIRCLE
  5
29A
  8
SIZE
  6
CONTINUOUS
 62
    30
 10
-153.5
 20
641.62218499999994
 30
0.0
 40
6.0
  0
LINE
  5
29B
  8
SIZE
  6
CONTINUOUS
 62
    30
 10
-153.5
 20
641.62218499999994
 30
0.0
 11
-141.5
 21
641.62218499999994
 31
0.0
  0
LINE
  5
29C
  8
SIZE
  6
CONTINUOUS
 62
    30
 10
-153.5
 20
63.0
 30
0.0
 11
-153.5
 21
661.62218499999994
 31
0.0
  0
LINE
  5
29D
  8
SIZE
  6
CONTINUOUS
 62
    30
 10
-180.4999999999998
 20
227.0
 30
0.0
 11
-180.4999999999998
 21
661.62218499999994
 31
0.0
  0
LINE
  5
29E
  8
SIZE
  6
CONTINUOUS
 62
    30
 10
-141.5
 20
641.62218499999994
 30
0.0
 11
-129.4999999999998
 21
641.62218499999994
 31
0.0
  0
LINE
  5
29F
  8
SIZE
  6
CONTINUOUS
 62
    30
 10
-192.5
 20
641.62218499999994
 30
0.0
 11
-204.49999999999989
 21
641.62218499999994
 31
0.0
  0
TEXT
  5
2A0
  8
SIZE
  6
CONTINUOUS
 62
    30
 10
-308.60247842857137
 20
666.66477599999996
 30
0.0
 40
64.0
  1
27
 41
0.9
 72
     1
 11
-261.973907
 21
666.66477599999996
 31
0.0
  0
LINE
  5
2A1
  8
SIZE
  6
CONTINUOUS
 62
    30
 10
-153.5
 20
641.62218499999994
 30
0.0
 11
-180.4999999999998
 21
641.62218499999994
 31
0.0
  0
LINE
  5
2A2
  8
SIZE
  6
CONTINUOUS
 62
    30
 10
-153.5
 20
641.62218499999994
 30
0.0
 11
-180.4999999999998
 21
641.62218499999994
 31
0.0
  0
CIRCLE
  5
2A3
  8
SIZE
  6
CONTINUOUS
 62
    30
 10
-153.5
 20
641.62218499999994
 30
0.0
 40
6.0
  0
LINE
  5
2A4
  8
SIZE
  6
CONTINUOUS
 62
    30
 10
-153.5
 20
641.62218499999994
 30
0.0
 11
-141.5
 21
641.62218499999994
 31
0.0
  0
CIRCLE
  5
2A5
  8
SIZE
  6
CONTINUOUS
 62
    30
 10
-180.4999999999998
 20
641.62218499999994
 30
0.0
 40
6.0
  0
LINE
  5
2A6
  8
SIZE
  6
CONTINUOUS
 62
    30
 10
-180.4999999999998
 20
641.62218499999994
 30
0.0
 11
-192.5
 21
641.62218499999994
 31
0.0
  0
LINE
  5
2A7
  8
SIZE
  6
CONTINUOUS
 62
    30
 10
-171.895016
 20
641.62218499999994
 30
0.0
 11
-310.02276499999988
 21
641.62218499999994
 31
0.0
  0
LINE
  5
2A8
  8
SIZE
  6
CONTINUOUS
 62
    30
 10
18.104983999999991
 20
641.62218499999994
 30
0.0
 11
354.97349400000002
 21
641.62218499999994
 31
0.0
  0
LINE
  5
2A9
  8
SIZE
  6
CONTINUOUS
 62
    30
 10
206.0
 20
0.0
 30
0.0
 11
551.56794500000001
 21
0.0
 31
0.0
  0
LINE
  5
2AA
  8
SIZE
  6
CONTINUOUS
 62
    30
 10
170.0
 20
200.0
 30
0.0
 11
551.56794500000001
 21
200.0
 31
0.0
  0
LINE
  5
2AB
  8
SIZE
  6
CONTINUOUS
 62
    30
 10
531.56794500000001
 20
12.0
 30
0.0
 11
531.56794500000001
 21
188.0
 31
0.0
  0
TEXT
  5
2AC
  8
SIZE
  6
CONTINUOUS
 62
    30
 10
501.21870999999999
 20
25.94285714285715
 30
0.0
 40
64.0
  1
200
 50
90.0
 41
0.9
 72
     1
 11
501.21870999999999
 21
100.0
 31
0.0
  0
CIRCLE
  5
2AD
  8
SIZE
  6
CONTINUOUS
 62
    30
 10
531.56794500000001
 20
0.0
 30
0.0
 40
6.0
  0
LINE
  5
2AE
  8
SIZE
  6
CONTINUOUS
 62
    30
 10
531.56794500000001
 20
0.0
 30
0.0
 11
531.56794500000001
 21
12.0
 31
0.0
  0
CIRCLE
  5
2AF
  8
SIZE
  6
CONTINUOUS
 62
    30
 10
531.56794500000001
 20
200.0
 30
0.0
 40
6.0
  0
LINE
  5
2B0
  8
SIZE
  6
CONTINUOUS
 62
    30
 10
531.56794500000001
 20
200.0
 30
0.0
 11
531.56794500000001
 21
188.0
 31
0.0
  0
LINE
  5
2B1
  8
SIZE
  6
CONTINUOUS
 62
    30
 10
170.0
 20
200.0
 30
0.0
 11
551.56794500000001
 21
200.0
 31
0.0
  0
LINE
  5
2B2
  8
SIZE
  6
CONTINUOUS
 62
    30
 10
101.0
 20
208.0
 30
0.0
 11
551.56794500000001
 21
208.0
 31
0.0
  0
LINE
  5
2B3
  8
SIZE
  6
CONTINUOUS
 62
    30
 10
531.56794500000001
 20
188.0
 30
0.0
 11
531.56794500000001
 21
176.0
 31
0.0
  0
LINE
  5
2B4
  8
SIZE
  6
CONTINUOUS
 62
    30
 10
531.56794500000001
 20
220.0
 30
0.0
 11
531.56794500000001
 21
232.0
 31
0.0
  0
LINE
  5
2B5
  8
SIZE
  6
CONTINUOUS
 62
    30
 10
531.56794500000001
 20
335.12629299999992
 30
0.0
 11
531.56794500000001
 21
208.0
 31
0.0
  0
TEXT
  5
2B6
  8
SIZE
  6
CONTINUOUS
 62
    30
 10
506.56794500000001
 20
271.72629299999988
 30
0.0
 40
64.0
  1
8
 50
90.0
 41
0.9
 72
     1
 11
506.56794500000001
 21
290.92629299999999
 31
0.0
  0
LINE
  5
2B7
  8
SIZE
  6
CONTINUOUS
 62
    30
 10
531.56794500000001
 20
200.0
 30
0.0
 11
531.56794500000001
 21
208.0
 31
0.0
  0
LINE
  5
2B8
  8
SIZE
  6
CONTINUOUS
 62
    30
 10
531.56794500000001
 20
200.0
 30
0.0
 11
531.56794500000001
 21
208.0
 31
0.0
  0
CIRCLE
  5
2B9
  8
SIZE
  6
CONTINUOUS
 62
    30
 10
531.56794500000001
 20
200.0
 30
0.0
 40
6.0
  0
LINE
  5
2BA
  8
SIZE
  6
CONTINUOUS
 62
    30
 10
531.56794500000001
 20
200.0
 30
0.0
 11
531.56794500000001
 21
188.0
 31
0.0
  0
CIRCLE
  5
2BB
  8
SIZE
  6
CONTINUOUS
 62
    30
 10
531.56794500000001
 20
208.0
 30
0.0
 40
6.0
  0
LINE
  5
2BC
  8
SIZE
  6
CONTINUOUS
 62
    30
 10
531.56794500000001
 20
208.0
 30
0.0
 11
531.56794500000001
 21
220.0
 31
0.0
  0
LINE
  5
2BD
  8
SIZE
  6
CONTINUOUS
 62
    30
 10
531.56794500000001
 20
200.0
 30
0.0
 11
531.56794500000001
 21
324.07367900000008
 31
0.0
  0
LINE
  5
2BE
  8
SIZE
  6
CONTINUOUS
 62
    30
 10
-210.0
 20
0.0
 30
0.0
 11
-530.01771599999995
 21
0.0
 31
0.0
  0
LINE
  5
2BF
  8
SIZE
  6
CONTINUOUS
 62
    30
 10
-168.0945819999998
 20
-15.0
 30
0.0
 11
-530.01771599999995
 21
-15.0
 31
0.0
  0
LINE
  5
2C0
  8
SIZE
  6
CONTINUOUS
 62
    30
 10
-510.01771600000001
 20
12.0
 30
0.0
 11
-510.01771600000001
 21
24.0
 31
0.0
  0
LINE
  5
2C1
  8
SIZE
  6
CONTINUOUS
 62
    30
 10
-510.01771600000001
 20
-27.0
 30
0.0
 11
-510.01771600000001
 21
-39.0
 31
0.0
  0
TEXT
  5
2C2
  8
SIZE
  6
CONTINUOUS
 62
    30
 10
-527.64400099999989
 20
-139.1313211428571
 30
0.0
 40
64.0
  1
15
 50
90.0
 41
0.9
 72
     1
 11
-527.64400099999989
 21
-97.988464000000022
 31
0.0
  0
LINE
  5
2C3
  8
SIZE
  6
CONTINUOUS
 62
    30
 10
-510.01771600000001
 20
0.0
 30
0.0
 11
-510.01771600000001
 21
-15.0
 31
0.0
  0
LINE
  5
2C4
  8
SIZE
  6
CONTINUOUS
 62
    30
 10
-510.01771600000001
 20
0.0
 30
0.0
 11
-510.01771600000001
 21
-15.0
 31
0.0
  0
CIRCLE
  5
2C5
  8
SIZE
  6
CONTINUOUS
 62
    30
 10
-510.01771600000001
 20
0.0
 30
0.0
 40
6.0
  0
LINE
  5
2C6
  8
SIZE
  6
CONTINUOUS
 62
    30
 10
-510.01771600000001
 20
0.0
 30
0.0
 11
-510.01771600000001
 21
12.0
 31
0.0
  0
CIRCLE
  5
2C7
  8
SIZE
  6
CONTINUOUS
 62
    30
 10
-510.01771600000001
 20
-15.0
 30
0.0
 40
6.0
  0
LINE
  5
2C8
  8
SIZE
  6
CONTINUOUS
 62
    30
 10
-510.01771600000001
 20
-15.0
 30
0.0
 11
-510.01771600000001
 21
-27.0
 31
0.0
  0
LINE
  5
2C9
  8
SIZE
  6
CONTINUOUS
 62
    30
 10
-210.0
 20
0.0
 30
0.0
 11
-530.01771599999995
 21
0.0
 31
0.0
  0
LINE
  5
2CA
  8
SIZE
  6
CONTINUOUS
 62
    30
 10
3.0
 20
243.0
 30
0.0
 11
-530.01771599999995
 21
243.0
 31
0.0
  0
LINE
  5
2CB
  8
SIZE
  6
CONTINUOUS
 62
    30
 10
-510.01771600000001
 20
12.0
 30
0.0
 11
-510.01771600000001
 21
231.0
 31
0.0
  0
TEXT
  5
2CC
  8
SIZE
  6
CONTINUOUS
 62
    30
 10
-535.81410199999993
 20
47.44285714285715
 30
0.0
 40
64.0
  1
243
 50
90.0
 41
0.9
 72
     1
 11
-535.81410199999993
 21
121.5
 31
0.0
  0
CIRCLE
  5
2CD
  8
SIZE
  6
CONTINUOUS
 62
    30
 10
-510.01771600000001
 20
0.0
 30
0.0
 40
6.0
  0
LINE
  5
2CE
  8
SIZE
  6
CONTINUOUS
 62
    30
 10
-510.01771600000001
 20
0.0
 30
0.0
 11
-510.01771600000001
 21
12.0
 31
0.0
  0
CIRCLE
  5
2CF
  8
SIZE
  6
CONTINUOUS
 62
    30
 10
-510.01771600000001
 20
243.0
 30
0.0
 40
6.0
  0
LINE
  5
2D0
  8
SIZE
  6
CONTINUOUS
 62
    30
 10
-510.01771600000001
 20
243.0
 30
0.0
 11
-510.01771600000001
 21
231.0
 31
0.0
  0
LINE
  5
2D1
  8
DETAIL
  6
CONTINUOUS
 62
     5
 10
-160.4999999999998
 20
229.0
 30
0.0
 11
-18.0
 21
229.0
 31
0.0
  0
LINE
  5
2D2
  8
DETAIL
  6
CONTINUOUS
 62
     5
 10
-180.4999999999998
 20
61.175139000000001
 30
0.0
 11
-180.4999999999998
 21
204.49999999999989
 31
0.0
  0
ARC
  5
2D3
  8
DETAIL
  6
CONTINUOUS
 62
     5
 10
-165.5
 20
61.175139000000001
 30
0.0
 40
15.0
 50
180.0
 51
270.0
  0
LINE
  5
2D4
  8
DETAIL
  6
CONTINUOUS
 62
     5
 10
-155.25
 20
208.0
 30
0.0
 11
-155.25
 21
7.0
 31
0.0
  0
LINE
  5
2D5
  8
DETAIL
  6
CONTINUOUS
 62
     5
 10
-158.75
 20
204.49999999999989
 30
0.0
 11
-158.75
 21
7.0
 31
0.0
  0
LINE
  5
2D6
  8
DETAIL
  6
CONTINUOUS
 62
     5
 10
-158.75
 20
7.0
 30
0.0
 11
-153.5
 21
7.0
 31
0.0
  0
LINE
  5
2D7
  8
DETAIL
  6
CONTINUOUS
 62
     5
 10
-153.5
 20
200.0
 30
0.0
 11
-153.5
 21
208.0
 31
0.0
  0
LINE
  5
2D8
  8
DETAIL
  6
CONTINUOUS
 62
     5
 10
-153.5
 20
0.0
 30
0.0
 11
-153.5
 21
208.0
 31
0.0
  0
LINE
  5
2D9
  8
DETAIL
  6
CONTINUOUS
 62
     5
 10
-185.7499999999998
 20
208.0
 30
0.0
 11
-153.5
 21
208.0
 31
0.0
  0
LINE
  5
2DA
  8
DETAIL
  6
CONTINUOUS
 62
     5
 10
-185.7499999999998
 20
204.49999999999989
 30
0.0
 11
-158.75
 21
204.49999999999989
 31
0.0
  0
LINE
  5
2DB
  8
DETAIL
  6
CONTINUOUS
 62
     5
 10
-153.5
 20
200.0
 30
0.0
 11
-153.5
 21
208.0
 31
0.0
  0
LINE
  5
2DC
  8
DETAIL
  6
CONTINUOUS
 62
     5
 10
-185.7499999999998
 20
208.0
 30
0.0
 11
-185.7499999999998
 21
204.49999999999989
 31
0.0
  0
LINE
  5
2DD
  8
DETAIL
  6
CONTINUOUS
 62
     5
 10
-35.0
 20
208.0
 30
0.0
 11
-41.394959999999998
 21
200.0
 31
0.0
  0
LINE
  5
2DE
  8
SIZE
  6
CONTINUOUS
 62
    30
 10
-210.0
 20
0.0
 30
0.0
 11
-406.29281700000001
 21
0.0
 31
0.0
  0
LINE
  5
2DF
  8
SIZE
  6
CONTINUOUS
 62
    30
 10
-180.4999999999998
 20
229.0
 30
0.0
 11
-406.29281700000001
 21
229.0
 31
0.0
  0
LINE
  5
2E0
  8
SIZE
  6
CONTINUOUS
 62
    30
 10
-386.29281700000001
 20
12.0
 30
0.0
 11
-386.29281700000001
 21
217.0
 31
0.0
  0
CIRCLE
  5
2E1
  8
SIZE
  6
CONTINUOUS
 62
    30
 10
-386.29281700000001
 20
0.0
 30
0.0
 40
6.0
  0
LINE
  5
2E2
  8
SIZE
  6
CONTINUOUS
 62
    30
 10
-386.29281700000001
 20
0.0
 30
0.0
 11
-386.29281700000001
 21
12.0
 31
0.0
  0
CIRCLE
  5
2E3
  8
SIZE
  6
CONTINUOUS
 62
    30
 10
-386.29281700000001
 20
229.0
 30
0.0
 40
6.0
  0
LINE
  5
2E4
  8
SIZE
  6
CONTINUOUS
 62
    30
 10
-386.29281700000001
 20
229.0
 30
0.0
 11
-386.29281700000001
 21
217.0
 31
0.0
  0
TEXT
  5
2E5
  8
SIZE
  6
CONTINUOUS
 62
    30
 10
-411.29281699999979
 20
41.81428571428571
 30
0.0
 40
64.0
  1
229
 50
90.0
 41
0.9
 72
     1
 11
-411.29281699999979
 21
114.5
 31
0.0
  0
TEXT
  5
2E6
  8
ETC
  6
CONTINUOUS
 62
    61
 10
784.54089037880408
 20
858.64226781624063
 30
0.0
 40
64.0
  1
VD-20ZH7_3
 41
0.9
  0
TEXT
  5
2E7
  8
ETC
  6
CONTINUOUS
 62
    61
 10
918.86180109504994
 20
679.60825531522926
 30
0.0
 40
50.0
  1
VD-20ZH7
 41
0.9
  0
TEXT
  5
2E8
  8
ETC
  6
CONTINUOUS
 62
    61
 10
776.62518337880431
 20
760.57206881624074
 30
0.0
 40
64.0
  1
換気扇
 41
0.9
  0
LINE
  5
2E9
  8
DETAIL
  6
CONTINUOUS
 62
     5
 39
50.0
 10
-190.0
 20
0.0
 30
0.0
 11
190.0
 21
0.0
 31
0.0
  0
LINE
  5
2EA
  8
OUTLINE
  6
CONTINUOUS
 62
     3
 10
-153.5
 20
200.0
 30
0.0
 11
153.5
 21
200.0
 31
0.0
  0
LINE
  5
2EB
  8
OUTLINE
  6
CONTINUOUS
 62
     3
 39
50.0
 10
-190.0
 20
0.0
 30
0.0
 11
190.0
 21
0.0
 31
0.0
  0
LINE
  5
2ED
  8
OUTLINE
  6
CONTINUOUS
 62
     3
 10
-153.5
 20
0.0
 30
0.0
 11
-153.5
 21
200.0
 31
0.0
  0
LINE
  5
2F2
  8
OUTLINE
  6
CONTINUOUS
 62
     3
 10
153.5
 20
0.0
 30
0.0
 11
153.5
 21
200.0
 31
0.0
  0
POINT
  5
2F6
  8
ARRANGE
  6
CONTINUOUS
 62
     1
 10
0.0
 20
0.0
 30
0.0
  0
ENDSEC
  0
EOF
